  0
SECTION
  2
HEADER
  9
$ACADVER
  1
AC1009
  9
$INSBASE
 10
3598.2955981988179701
 20
317.8307445111652783
 30
0.0
  9
$EXTMIN
 10
3594.4274879625681933
 20
316.9547602591653117
 30
0.0
  9
$EXTMAX
 10
3602.1637084350668374
 20
318.7067287631653016
 30
0.0
  9
$LIMMIN
 10
0.0
 20
0.0
  9
$LIMMAX
 10
11.6929133858000007
 20
8.2677165353999982
  9
$ORTHOMODE
 70
     0
  9
$REGENMODE
 70
     1
  9
$FILLMODE
 70
     1
  9
$QTEXTMODE
 70
     0
  9
$MIRRTEXT
 70
     0
  9
$DRAGMODE
 70
     2
  9
$LTSCALE
 40
0.6431102362
  9
$OSMODE
 70
  4095
  9
$ATTMODE
 70
     1
  9
$TEXTSIZE
 40
0.2
  9
$TRACEWID
 40
0.05
  9
$TEXTSTYLE
  7
STANDARD
  9
$CLAYER
  8
0
  9
$CELTYPE
  6
BYLAYER
  9
$CECOLOR
 62
   256
  9
$DIMSCALE
 40
1.0
  9
$DIMASZ
 40
0.1875
  9
$DIMEXO
 40
0.0625
  9
$DIMDLI
 40
0.4443307087
  9
$DIMRND
 40
0.0
  9
$DIMDLE
 40
0.0
  9
$DIMEXE
 40
0.125
  9
$DIMTP
 40
0.01
  9
$DIMTM
 40
0.01
  9
$DIMTXT
 40
2.0
  9
$DIMCEN
 40
0.1052362205
  9
$DIMTSZ
 40
0.0
  9
$DIMTOL
 70
     1
  9
$DIMLIM
 70
     0
  9
$DIMTIH
 70
     1
  9
$DIMTOH
 70
     1
  9
$DIMSE1
 70
     0
  9
$DIMSE2
 70
     0
  9
$DIMTAD
 70
     0
  9
$DIMZIN
 70
     0
  9
$DIMBLK
  1

  9
$DIMASO
 70
     1
  9
$DIMSHO
 70
     1
  9
$DIMPOST
  1
\X
  9
$DIMAPOST
  1

  9
$DIMALT
 70
     1
  9
$DIMALTD
 70
     2
  9
$DIMALTF
 40
25.3999999999999986
  9
$DIMLFAC
 40
1.0
  9
$DIMTOFL
 70
     0
  9
$DIMTVP
 40
0.0
  9
$DIMTIX
 70
     0
  9
$DIMSOXD
 70
     0
  9
$DIMSAH
 70
     0
  9
$DIMBLK1
  1

  9
$DIMBLK2
  1

  9
$DIMSTYLE
  2
STANDARD
  9
$DIMCLRD
 70
     0
  9
$DIMCLRE
 70
     0
  9
$DIMCLRT
 70
     0
  9
$DIMTFAC
 40
1.0
  9
$DIMGAP
 40
0.09
  9
$LUNITS
 70
     2
  9
$LUPREC
 70
     4
  9
$SKETCHINC
 40
0.1
  9
$FILLETRAD
 40
0.0
  9
$AUNITS
 70
     0
  9
$AUPREC
 70
     0
  9
$MENU
  1
.
  9
$ELEVATION
 40
0.0
  9
$PELEVATION
 40
0.0
  9
$THICKNESS
 40
0.0
  9
$LIMCHECK
 70
     0
  9
$BLIPMODE
 70
     0
  9
$CHAMFERA
 40
0.0
  9
$CHAMFERB
 40
0.0
  9
$SKPOLY
 70
     0
  9
$TDCREATE
 40
2458060.468368056230247
  9
$TDUPDATE
 40
2458989.7143055549822748
  9
$TDINDWG
 40
0.6958982639
  9
$TDUSRTIMER
 40
0.6958982639
  9
$USRTIMER
 70
     1
  9
$ANGBASE
 50
0.0
  9
$ANGDIR
 70
     0
  9
$PDMODE
 70
     0
  9
$PDSIZE
 40
0.3125
  9
$PLINEWID
 40
0.0
  9
$COORDS
 70
     1
  9
$SPLFRAME
 70
     0
  9
$SPLINETYPE
 70
     6
  9
$SPLINESEGS
 70
     8
  9
$ATTDIA
 70
     1
  9
$ATTREQ
 70
     1
  9
$HANDLING
 70
     1
  9
$HANDSEED
  5
C073
  9
$SURFTAB1
 70
     6
  9
$SURFTAB2
 70
     6
  9
$SURFTYPE
 70
     6
  9
$SURFU
 70
     6
  9
$SURFV
 70
     6
  9
$UCSNAME
  2

  9
$UCSORG
 10
0.0
 20
0.0
 30
0.0
  9
$UCSXDIR
 10
1.0
 20
0.0
 30
0.0
  9
$UCSYDIR
 10
0.0
 20
1.0
 30
0.0
  9
$PUCSNAME
  2

  9
$PUCSORG
 10
0.0
 20
0.0
 30
0.0
  9
$PUCSXDIR
 10
1.0
 20
0.0
 30
0.0
  9
$PUCSYDIR
 10
0.0
 20
1.0
 30
0.0
  9
$USERI1
 70
     0
  9
$USERI2
 70
     0
  9
$USERI3
 70
     0
  9
$USERI4
 70
     0
  9
$USERI5
 70
     0
  9
$USERR1
 40
0.0
  9
$USERR2
 40
0.0
  9
$USERR3
 40
0.0
  9
$USERR4
 40
0.0
  9
$USERR5
 40
0.0
  9
$WORLDVIEW
 70
     1
  9
$SHADEDGE
 70
     3
  9
$SHADEDIF
 70
    70
  9
$TILEMODE
 70
     1
  9
$MAXACTVP
 70
    64
  9
$PLIMCHECK
 70
     0
  9
$PEXTMIN
 10
1.0000000000000000E+20
 20
1.0000000000000000E+20
 30
1.0000000000000000E+20
  9
$PEXTMAX
 10
-1.0000000000000000E+20
 20
-1.0000000000000000E+20
 30
-1.0000000000000000E+20
  9
$PLIMMIN
 10
0.0
 20
0.0
  9
$PLIMMAX
 10
12.0
 20
9.0
  9
$UNITMODE
 70
     0
  9
$VISRETAIN
 70
     1
  9
$PLINEGEN
 70
     0
  9
$PSLTSCALE
 70
     1
  0
ENDSEC
  0
SECTION
  2
TABLES
  0
TABLE
  2
VPORT
 70
     1
  0
VPORT
  2
*ACTIVE
 70
     0
 10
0.0
 20
0.0
 11
1.0
 21
1.0
 12
0.0
 22
0.0
 13
0.0
 23
0.0
 14
1.0
 24
1.0
 15
0.0
 25
0.0
 16
0.0
 26
0.0
 36
30.0842267562134289
 17
3598.295654296875
 27
317.8307495117186932
 37
0.0
 40
7.937891182803213
 41
2.9955849889624719
 42
50.0
 43
0.0
 44
0.0
 50
0.0
 51
0.0
 71
     0
 72
   100
 73
     1
 74
     1
 75
     0
 76
     0
 77
     0
 78
     0
  0
ENDTAB
  0
TABLE
  2
LTYPE
 70
     2
  0
LTYPE
  2
CONTINUOUS
 70
     0
  3
Solid line
 72
    65
 73
     0
 40
0.0
  0
LTYPE
  2
PHANTOM2
 70
     0
  3
___ _ _ ___ _ _ ___ _ _ ___ _ _
 72
    65
 73
     6
 40
1.25
 49
0.625
 49
-0.125
 49
0.125
 49
-0.125
 49
0.125
 49
-0.125
  0
ENDTAB
  0
TABLE
  2
LAYER
 70
     2
  0
LAYER
  2
0
 70
     0
 62
   255
  6
CONTINUOUS
  0
LAYER
  2
DEFPOINTS
 70
     0
 62
     7
  6
CONTINUOUS
  0
ENDTAB
  0
TABLE
  2
STYLE
 70
     1
  0
STYLE
  2
STANDARD
 70
     0
 40
0.0
 41
0.8
 50
0.0
 71
     0
 42
0.2
  3
txt
  4

  0
ENDTAB
  0
TABLE
  2
VIEW
 70
     0
  0
ENDTAB
  0
TABLE
  2
UCS
 70
     0
  0
ENDTAB
  0
TABLE
  2
APPID
 70
     9
  0
APPID
  2
ACAD
 70
     0
  0
APPID
  2
ACAD_MLEADERVER
 70
     0
  0
APPID
  2
ACAD_EXEMPT_FROM_CAD_STANDARDS
 70
     0
  0
APPID
  2
ACAD_NAV_VCDISPLAY
 70
     0
  0
APPID
  2
ACAECLAYERSTANDARD
 70
     0
  0
APPID
  2
ACCMTRANSPARENCY
 70
     0
  0
APPID
  2
ACAD_DSTYLE_DIMJAG
 70
     0
  0
APPID
  2
ACAD_DSTYLE_DIMTALN
 70
     0
  0
APPID
  2
ACDBATTR
 70
     0
  0
ENDTAB
  0
TABLE
  2
DIMSTYLE
 70
     1
  0
DIMSTYLE
  2
STANDARD
 70
     0
  3

  4

  5

  6

  7

 40
1.0
 41
0.1875
 42
0.0625
 43
0.38
 44
0.125
 45
0.0
 46
0.0
 47
0.01
 48
0.01
140
0.15625
141
0.09
142
0.0
143
25.3999999999999986
144
1.0
145
0.0
146
1.0
147
0.09
 71
     1
 72
     0
 73
     1
 74
     1
 75
     0
 76
     0
 77
     0
 78
     4
170
     0
171
     2
172
     0
173
     0
174
     0
175
     0
176
     0
177
     0
178
     0
  0
ENDTAB
  0
ENDSEC
  0
SECTION
  2
BLOCKS
  0
BLOCK
  8
0
  2
$MODEL_SPACE
 70
     0
 10
0.0
 20
0.0
 30
0.0
  3
$MODEL_SPACE
  1

  0
ENDBLK
  5
21
  8
0
  0
BLOCK
 67
     1
  8
0
  2
$PAPER_SPACE
 70
     0
 10
0.0
 20
0.0
 30
0.0
  3
$PAPER_SPACE
  1

  0
ENDBLK
  5
1D
 67
     1
  8
0
  0
BLOCK
  8
0
  2
_FILLED
 70
     0
 10
0.0
 20
0.0
 30
0.0
  3
_FILLED
  1

  0
SOLID
  5
6F59
  8
0
  6
BYBLOCK
 62
     0
 10
0.0
 20
0.0
 30
0.0
 11
-1.0
 21
0.1666666667
 31
0.0
 12
-1.0
 22
-0.1666666667
 32
0.0
 13
-1.0
 23
-0.1666666667
 33
0.0
  0
ENDBLK
  5
6F5A
  8
0
  6
BYBLOCK
 62
     0
  0
ENDSEC
  0
SECTION
  2
ENTITIES
  0
ATTDEF
  5
3930
  8
DEFPOINTS
 10
3598.2924842147731397
 20
317.8283919973570733
 30
0.0
 40
0.001
  1
K-5632IN
  3

  2
MODELNUMBER
 70
     0
1001
ACDBATTR
1070
     0
1070
     1
  0
ATTDEF
  5
3931
  8
DEFPOINTS
 10
3598.2924842147731397
 20
317.8267253306904081
 30
0.0
 40
0.001
  1
COMPLEMENTARY
  3

  2
TRADENAME
 70
     0
1001
ACDBATTR
1070
     0
1070
     1
  0
ATTDEF
  5
3932
  8
DEFPOINTS
 10
3598.2924842147731397
 20
317.8250586640236861
 30
0.0
 40
0.001
  1
TOILET TISSUE HOLDER
  3

  2
PRODUCT
 70
     0
1001
ACDBATTR
1070
     0
1070
     1
  0
ARC
  5
BF7C
  8
0
 10
3595.3034722145671367
 20
317.8307445111652783
 30
0.0
 40
0.8759842520000001
 50
25.2829123847042894
 51
334.7170876152957248
  0
ARC
  5
BF7D
  8
0
 10
3595.3034722145671367
 20
317.8307445111652783
 30
0.0
 40
0.8041335874999999
 50
27.7270906800030801
 51
332.274371426203686
  0
ARC
  5
BF7E
  8
0
 10
3595.3034722500901808
 20
315.4446750742590098
 30
0.0
 40
2.8588806139527021
 50
83.6484068078696481
 51
96.3516126846366916
  0
ARC
  5
BF7F
  8
0
 10
3595.0046023056679587
 20
318.1296282018731745
 30
0.0
 40
0.1573446543245058
 50
96.3516126846366916
 51
173.6539534623481131
  0
ARC
  5
BF80
  8
0
 10
3597.677915728930202
 20
317.8323168278295725
 30
0.0
 40
2.8471399461874389
 50
173.6539534623481131
 51
186.4106398532368019
  0
ARC
  5
BF81
  8
0
 10
3595.0051539572418733
 20
317.5320159717717274
 30
0.0
 40
0.1575607797852173
 50
186.4106398532368019
 51
263.4552695884339073
  0
ARC
  5
BF82
  8
0
 10
3595.3018299907212167
 20
320.117957471378304
 30
0.0
 40
2.7604649478689649
 50
263.4552695884339073
 51
276.6142953462604055
  0
ARC
  5
BF83
  8
0
 10
3595.6015638323260646
 20
317.5330823116329952
 30
0.0
 40
0.1582697270463954
 50
276.6142953462604055
 51
353.2455318615606075
  0
ARC
  5
BF84
  8
0
 10
3593.1011747074740015
 20
317.8292205897112126
 30
0.0
 40
2.676134627199442
 50
353.2455318615606075
 51
6.82112002462598
  0
ARC
  5
BF85
  8
0
 10
3595.6004966834329934
 20
318.1281811176501719
 30
0.0
 40
0.1589958275340936
 50
6.82112002462598
 51
83.0454502956847733
  0
ARC
  5
BF86
  8
0
 10
3601.2877241830669846
 20
317.8307445111652783
 30
0.0
 40
0.8759842520000001
 50
206.7061188134335907
 51
153.2908281910059998
  0
ARC
  5
BF87
  8
0
 10
3601.2877241830669846
 20
317.8307445111652783
 30
0.0
 40
0.8041335874999999
 50
209.3123439705435942
 51
150.6842487642146011
  0
ARC
  5
BF88
  8
0
 10
3601.28772414754485
 20
315.4446750742590098
 30
0.0
 40
2.8588806139527021
 50
83.6483873153633368
 51
96.3515931921303661
  0
ARC
  5
BF89
  8
0
 10
3601.5865940919679815
 20
318.1296282018731745
 30
0.0
 40
0.1573446543245058
 50
6.3460465376518869
 51
83.6483873153633368
  0
ARC
  5
BF8A
  8
0
 10
3598.9132806687048287
 20
317.8323168278295725
 30
0.0
 40
2.8471399461874389
 50
353.5893601467632266
 51
6.3460465376518869
  0
ARC
  5
BF8B
  8
0
 10
3601.5860424403931574
 20
317.5320159717717274
 30
0.0
 40
0.1575607797852173
 50
276.5447304115660927
 51
353.5893601467632266
  0
ARC
  5
BF8C
  8
0
 10
3601.2893664069151782
 20
320.117957471378304
 30
0.0
 40
2.7604649478689649
 50
263.3857046537395945
 51
276.5447304115660927
  0
ARC
  5
BF8D
  8
0
 10
3600.9896325653089662
 20
317.5330823116329952
 30
0.0
 40
0.1582697270463954
 50
186.7544681384393925
 51
263.3857046537395945
  0
ARC
  5
BF8E
  8
0
 10
3603.4900216901619387
 20
317.8292205897112126
 30
0.0
 40
2.676134627199442
 50
173.1788799753740022
 51
186.7544681384393925
  0
ARC
  5
BF8F
  8
0
 10
3600.9906997142020373
 20
318.1281811176501719
 30
0.0
 40
0.1589958275340936
 50
96.9545497043152125
 51
173.1788799753740022
  0
LINE
  5
BF90
  8
0
 10
3595.9495066536669583
 20
318.1837837322652831
 30
0.0
 11
3595.9495066536669583
 21
317.477746986865327
 31
0.0
  0
LINE
  5
BF91
  8
0
 10
3600.6687815269679049
 20
317.437064572165184
 30
0.0
 11
3597.5869367814680118
 21
317.437064572165184
 31
0.0
  0
LINE
  5
BF92
  8
0
 10
3595.984326861468162
 20
317.4567496115652716
 30
0.0
 11
3597.5869367814680118
 21
317.4567496115652716
 31
0.0
  0
LINE
  5
BF93
  8
0
 10
3595.7593544197898154
 20
317.519741737565198
 30
0.0
 11
3595.8798662381668692
 21
317.519741737565198
 31
0.0
  0
LINE
  5
BF94
  8
0
 10
3597.5869367814680118
 20
318.2244661469653124
 30
0.0
 11
3597.5869367814680118
 21
317.437064572165184
 31
0.0
  0
LINE
  5
BF95
  8
0
 10
3595.75899289975996
 20
318.1417889816651723
 30
0.0
 11
3595.8798662381668692
 21
318.1417889816651723
 31
0.0
  0
LINE
  5
BF96
  8
0
 10
3595.984326861468162
 20
318.2047811075652817
 30
0.0
 11
3597.5869367814680118
 21
318.2047811075652817
 31
0.0
  0
LINE
  5
BF97
  8
0
 10
3600.6687815269679049
 20
318.2244661469653124
 30
0.0
 11
3597.5869367814680118
 21
318.2244661469653124
 31
0.0
  0
LINE
  5
BF98
  8
0
 10
3600.7045712648678091
 20
317.4600304514651725
 30
0.0
 11
3600.7045712648678091
 21
318.2015002676653239
 31
0.0
  0
ARC
  5
BF99
  8
0
 10
3600.7976245834679503
 20
317.4173795327653238
 30
0.0
 40
0.1023622047
 50
90.0
 51
155.3756816477026916
  0
ARC
  5
BF9A
  8
0
 10
3600.7976245834679503
 20
318.2441511863651726
 30
0.0
 40
0.1023622047
 50
204.6243183522971947
 51
263.4371301098894946
  0
ARC
  5
BF9B
  8
0
 10
3595.8798662381668692
 20
318.2205291390653201
 30
0.0
 40
0.0787401575
 50
270.0
 51
332.1818607152021059
  0
ARC
  5
BF9C
  8
0
 10
3595.8798662381668692
 20
317.4410015800651763
 30
0.0
 40
0.0787401575
 50
27.8181392846958708
 51
90.0
  0
ARC
  5
BF9D
  8
0
 10
3595.984326861468162
 20
318.1654110288653214
 30
0.0
 40
0.0393700787
 50
90.0
 51
152.1818607153041114
  0
ARC
  5
BF9E
  8
0
 10
3595.984326861468162
 20
317.496119690265175
 30
0.0
 40
0.0393700787
 50
207.8181392847980078
 51
270.0
  0
ARC
  5
BF9F
  8
0
 10
3600.6687815269679049
 20
317.4764346509653024
 30
0.0
 40
0.0393700787
 50
270.0
 51
335.3756816477965117
  0
ARC
  5
BFA0
  8
0
 10
3600.6687815269679049
 20
318.1850960682651817
 30
0.0
 40
0.0393700787
 50
24.6243183522035096
 51
90.0
  0
LINE
  5
BFA1
  8
0
 10
3600.7859252612652199
 20
318.1424597569769048
 30
0.0
 11
3600.8322824691340429
 21
318.1424597569769048
 31
0.0
  0
LINE
  5
BFA2
  8
0
 10
3600.7976245834679503
 20
317.5197417374653241
 30
0.0
 11
3600.8318419778570387
 21
317.5197417374653241
 31
0.0
  0
ARC
  5
BFA3
  8
0
 10
3595.2768122050370039
 20
325.8640982501332815
 30
0.0
 40
8.589571277336125
 50
269.5789615478215069
 51
270.6579557489727108
  0
ARC
  5
BFA4
  8
0
 10
3595.2134227970700522
 20
317.2380923648307771
 30
0.0
 40
0.0366675177770449
 50
89.5789615478215353
 51
119.7854278337539995
  0
ARC
  5
BFA5
  8
0
 10
3595.3018803945528816
 20
317.4878071639661243
 30
0.0
 40
0.2426017843118085
 50
243.9151792360999025
 51
296.7813039536592896
  0
ARC
  5
BFA6
  8
0
 10
3595.3830115034179471
 20
317.1778095415709231
 30
0.0
 40
0.0975773318052191
 50
73.2128985339455909
 51
94.4454286514617252
  0
ARC
  5
BFA7
  8
0
 10
3601.3143841925989364
 20
325.8640982501332815
 30
0.0
 40
8.589571277336125
 50
269.3420442510272892
 51
270.4210384521783794
  0
ARC
  5
BFA8
  8
0
 10
3601.3777736005640691
 20
317.2380923648307771
 30
0.0
 40
0.0366675177770449
 50
60.2145721662459579
 51
90.4210384521784931
  0
ARC
  5
BFA9
  8
0
 10
3601.2893160030830586
 20
317.4878071639661243
 30
0.0
 40
0.2426017843118085
 50
243.2186960463407104
 51
296.0848207639000975
  0
ARC
  5
BFAA
  8
0
 10
3601.2081848942170836
 20
317.1778095415709231
 30
0.0
 40
0.0975773318052191
 50
85.5545713485382748
 51
106.7871014660543949
  0
ENDSEC
  0
EOF
