  0
SECTION
  2
HEADER
  9
$ACADVER
  1
AC1009
  9
$INSBASE
 10
464.1711141488975159
 20
70.8972061902679513
 30
0.0
  9
$EXTMIN
 10
461.2380432826440142
 20
68.8184655260028819
 30
0.0
  9
$EXTMAX
 10
467.104185015047392
 20
70.9021244422124255
 30
0.0
  9
$LIMMIN
 10
0.0
 20
0.0
  9
$LIMMAX
 10
11.6929133858000007
 20
8.2677165353999982
  9
$ORTHOMODE
 70
     0
  9
$REGENMODE
 70
     1
  9
$FILLMODE
 70
     1
  9
$QTEXTMODE
 70
     0
  9
$MIRRTEXT
 70
     0
  9
$DRAGMODE
 70
     2
  9
$LTSCALE
 40
0.6431102362
  9
$OSMODE
 70
  4095
  9
$ATTMODE
 70
     1
  9
$TEXTSIZE
 40
0.2
  9
$TRACEWID
 40
0.05
  9
$TEXTSTYLE
  7
STANDARD
  9
$CLAYER
  8
0
  9
$CELTYPE
  6
BYLAYER
  9
$CECOLOR
 62
   256
  9
$DIMSCALE
 40
1.0
  9
$DIMASZ
 40
0.1875
  9
$DIMEXO
 40
0.0625
  9
$DIMDLI
 40
0.4443307087
  9
$DIMRND
 40
0.0
  9
$DIMDLE
 40
0.0
  9
$DIMEXE
 40
0.125
  9
$DIMTP
 40
0.01
  9
$DIMTM
 40
0.01
  9
$DIMTXT
 40
1.0
  9
$DIMCEN
 40
0.1052362205
  9
$DIMTSZ
 40
0.0
  9
$DIMTOL
 70
     1
  9
$DIMLIM
 70
     0
  9
$DIMTIH
 70
     0
  9
$DIMTOH
 70
     1
  9
$DIMSE1
 70
     0
  9
$DIMSE2
 70
     0
  9
$DIMTAD
 70
     0
  9
$DIMZIN
 70
     0
  9
$DIMBLK
  1

  9
$DIMASO
 70
     1
  9
$DIMSHO
 70
     1
  9
$DIMPOST
  1
\X
  9
$DIMAPOST
  1

  9
$DIMALT
 70
     1
  9
$DIMALTD
 70
     2
  9
$DIMALTF
 40
25.3999999999999986
  9
$DIMLFAC
 40
1.0
  9
$DIMTOFL
 70
     0
  9
$DIMTVP
 40
0.0
  9
$DIMTIX
 70
     0
  9
$DIMSOXD
 70
     0
  9
$DIMSAH
 70
     0
  9
$DIMBLK1
  1

  9
$DIMBLK2
  1

  9
$DIMSTYLE
  2
STANDARD
  9
$DIMCLRD
 70
     0
  9
$DIMCLRE
 70
     0
  9
$DIMCLRT
 70
     0
  9
$DIMTFAC
 40
1.0
  9
$DIMGAP
 40
0.09
  9
$LUNITS
 70
     2
  9
$LUPREC
 70
     4
  9
$SKETCHINC
 40
0.1
  9
$FILLETRAD
 40
0.0
  9
$AUNITS
 70
     0
  9
$AUPREC
 70
     0
  9
$MENU
  1
.
  9
$ELEVATION
 40
0.0
  9
$PELEVATION
 40
0.0
  9
$THICKNESS
 40
0.0
  9
$LIMCHECK
 70
     0
  9
$BLIPMODE
 70
     0
  9
$CHAMFERA
 40
0.0
  9
$CHAMFERB
 40
0.0
  9
$SKPOLY
 70
     0
  9
$TDCREATE
 40
2458172.5207638889551163
  9
$TDUPDATE
 40
2459069.7548148147761822
  9
$TDINDWG
 40
0.2968387731
  9
$TDUSRTIMER
 40
0.2968387731
  9
$USRTIMER
 70
     1
  9
$ANGBASE
 50
0.0
  9
$ANGDIR
 70
     0
  9
$PDMODE
 70
     0
  9
$PDSIZE
 40
0.3125
  9
$PLINEWID
 40
0.0
  9
$COORDS
 70
     1
  9
$SPLFRAME
 70
     0
  9
$SPLINETYPE
 70
     6
  9
$SPLINESEGS
 70
     8
  9
$ATTDIA
 70
     1
  9
$ATTREQ
 70
     1
  9
$HANDLING
 70
     1
  9
$HANDSEED
  5
84CA
  9
$SURFTAB1
 70
     6
  9
$SURFTAB2
 70
     6
  9
$SURFTYPE
 70
     6
  9
$SURFU
 70
     6
  9
$SURFV
 70
     6
  9
$UCSNAME
  2

  9
$UCSORG
 10
0.0
 20
0.0
 30
0.0
  9
$UCSXDIR
 10
1.0
 20
0.0
 30
0.0
  9
$UCSYDIR
 10
0.0
 20
1.0
 30
0.0
  9
$PUCSNAME
  2

  9
$PUCSORG
 10
0.0
 20
0.0
 30
0.0
  9
$PUCSXDIR
 10
1.0
 20
0.0
 30
0.0
  9
$PUCSYDIR
 10
0.0
 20
1.0
 30
0.0
  9
$USERI1
 70
     0
  9
$USERI2
 70
     0
  9
$USERI3
 70
     0
  9
$USERI4
 70
     0
  9
$USERI5
 70
     0
  9
$USERR1
 40
0.0
  9
$USERR2
 40
0.0
  9
$USERR3
 40
0.0
  9
$USERR4
 40
0.0
  9
$USERR5
 40
0.0
  9
$WORLDVIEW
 70
     1
  9
$SHADEDGE
 70
     3
  9
$SHADEDIF
 70
    70
  9
$TILEMODE
 70
     1
  9
$MAXACTVP
 70
    64
  9
$PLIMCHECK
 70
     0
  9
$PEXTMIN
 10
1.0000000000000000E+20
 20
1.0000000000000000E+20
 30
1.0000000000000000E+20
  9
$PEXTMAX
 10
-1.0000000000000000E+20
 20
-1.0000000000000000E+20
 30
-1.0000000000000000E+20
  9
$PLIMMIN
 10
0.0
 20
0.0
  9
$PLIMMAX
 10
12.0
 20
9.0
  9
$UNITMODE
 70
     0
  9
$VISRETAIN
 70
     1
  9
$PLINEGEN
 70
     0
  9
$PSLTSCALE
 70
     1
  0
ENDSEC
  0
SECTION
  2
TABLES
  0
TABLE
  2
VPORT
 70
     1
  0
VPORT
  2
*ACTIVE
 70
     0
 10
0.0
 20
0.0
 11
1.0
 21
1.0
 12
0.0
 22
0.0
 13
0.0
 23
0.0
 14
1.0
 24
1.0
 15
0.0
 25
0.0
 16
0.0
 26
0.0
 36
22.5231947617094796
 17
464.1711120605468182
 27
69.8602953143679315
 37
0.0
 40
6.2237232240853322
 41
2.8398203592814371
 42
50.0
 43
0.0
 44
0.0
 50
0.0
 51
0.0
 71
     0
 72
   100
 73
     1
 74
     1
 75
     0
 76
     0
 77
     0
 78
     0
  0
ENDTAB
  0
TABLE
  2
LTYPE
 70
     3
  0
LTYPE
  2
CONTINUOUS
 70
     0
  3
Solid line
 72
    65
 73
     0
 40
0.0
  0
LTYPE
  2
PHANTOM2
 70
     0
  3
___ _ _ ___ _ _ ___ _ _ ___ _ _
 72
    65
 73
     6
 40
1.25
 49
0.625
 49
-0.125
 49
0.125
 49
-0.125
 49
0.125
 49
-0.125
  0
ENDTAB
  0
TABLE
  2
LAYER
 70
     2
  0
LAYER
  2
0
 70
     0
 62
   255
  6
CONTINUOUS
  0
LAYER
  2
DEFPOINTS
 70
     0
 62
     7
  6
CONTINUOUS
  0
ENDTAB
  0
TABLE
  2
STYLE
 70
     1
  0
STYLE
  2
STANDARD
 70
     0
 40
0.0
 41
0.8
 50
0.0
 71
     0
 42
0.2
  3
txt
  4

  0
ENDTAB
  0
TABLE
  2
VIEW
 70
     0
  0
ENDTAB
  0
TABLE
  2
UCS
 70
     0
  0
ENDTAB
  0
TABLE
  2
APPID
 70
    10
  0
APPID
  2
ACAD
 70
     0
  0
APPID
  2
ACAD_MLEADERVER
 70
     0
  0
APPID
  2
ACAD_EXEMPT_FROM_CAD_STANDARDS
 70
     0
  0
APPID
  2
ACAD_DSTYLE_DIMJAG
 70
     0
  0
APPID
  2
ACAD_DSTYLE_DIMTALN
 70
     0
  0
APPID
  2
ACAD_NAV_VCDISPLAY
 70
     0
  0
APPID
  2
ACAECLAYERSTANDARD
 70
     0
  0
APPID
  2
ACCMTRANSPARENCY
 70
     0
  0
APPID
  2
DCO15
 70
     0
  0
APPID
  2
ACDBATTR
 70
     0
  0
ENDTAB
  0
TABLE
  2
DIMSTYLE
 70
     2
  0
DIMSTYLE
  2
STANDARD
 70
     0
  3

  4

  5

  6

  7

 40
1.0
 41
0.1875
 42
0.0625
 43
0.38
 44
0.125
 45
0.0
 46
0.0
 47
0.01
 48
0.01
140
0.15625
141
0.09
142
0.0
143
25.3999999999999986
144
1.0
145
0.0
146
1.0
147
0.09
 71
     1
 72
     0
 73
     1
 74
     1
 75
     0
 76
     0
 77
     0
 78
     4
170
     0
171
     2
172
     0
173
     0
174
     0
175
     0
176
     0
177
     0
178
     0
  0
ENDTAB
  0
ENDSEC
  0
SECTION
  2
BLOCKS
  0
BLOCK
  8
0
  2
$MODEL_SPACE
 70
     0
 10
0.0
 20
0.0
 30
0.0
  3
$MODEL_SPACE
  1

  0
ENDBLK
  5
21
  8
0
  0
BLOCK
 67
     1
  8
0
  2
$PAPER_SPACE
 70
     0
 10
0.0
 20
0.0
 30
0.0
  3
$PAPER_SPACE
  1

  0
ENDBLK
  5
1D
 67
     1
  8
0
  0
BLOCK
  8
0
  2
A$C781A5BD3
 70
     2
 10
0.0
 20
0.0
 30
0.0
  3
A$C781A5BD3
  1

  0
ATTDEF
  5
7791
  8
DEFPOINTS
 10
0.0000000052162363
 20
-0.0000000019025492
 30
0.0
 40
0.001
  1
METAL
  3

  2
MATERIAL
 70
     0
1001
ACDBATTR
1070
     0
1070
     1
  0
ATTDEF
  5
7792
  8
DEFPOINTS
 10
0.0000000052162363
 20
0.0016666647641159
 30
0.0
 40
0.001
  1
ROBE HOOK
  3

  2
PRODUCT
 70
     0
1001
ACDBATTR
1070
     0
1070
     1
  0
ATTDEF
  5
7793
  8
DEFPOINTS
 10
0.0000000052162363
 20
0.0033333314307811
 30
0.0
 40
0.001
  1
ELLISTON
  3

  2
TRADENAME
 70
     0
1001
ACDBATTR
1070
     0
1070
     1
  0
ATTDEF
  5
7794
  8
DEFPOINTS
 10
0.0000000052162363
 20
0.0049999980974462
 30
0.0
 40
0.001
  1
K-R72788
  3

  2
MODELNUMBER
 70
     0
1001
ACDBATTR
1070
     0
1070
     1
  0
ENDBLK
  5
7798
  8
0
  0
BLOCK
  8
0
  2
_FILLED
 70
     0
 10
0.0
 20
0.0
 30
0.0
  3
_FILLED
  1

  0
SOLID
  5
7A7A
  8
0
  6
BYBLOCK
 62
     0
 10
0.0
 20
0.0
 30
0.0
 11
-1.0
 21
0.1666666667
 31
0.0
 12
-1.0
 22
-0.1666666667
 32
0.0
 13
-1.0
 23
-0.1666666667
 33
0.0
  0
ENDBLK
  5
7A7B
  8
0
  6
BYBLOCK
 62
     0
  0
BLOCK
  8
0
  2
A$C3E2D5EB2
 70
     0
 10
0.0
 20
0.0
 30
0.0
  3
A$C3E2D5EB2
  1

  0
LINE
  5
7A7D
  8
0
 10
44.3056466802266371
 20
17.2965146621302495
 30
0.0
 11
46.5686153659820619
 21
17.2965146621302495
 31
0.0
  0
LINE
  5
7A7E
  8
0
 10
47.5348039786712206
 20
17.2965146621302495
 30
0.0
 11
49.7977726644266383
 21
17.2965146621302495
 31
0.0
  0
ARC
  5
7A7F
  8
0
 10
49.7977726644266383
 20
17.4835225361802493
 30
0.0
 40
0.1870078740500016
 50
270.0
 51
90.0
  0
LINE
  5
7A80
  8
0
 10
49.7977726644266383
 20
17.6705304102302492
 30
0.0
 11
47.5732869067530189
 21
17.6705304102302492
 31
0.0
  0
LINE
  5
7A81
  8
0
 10
46.5301324379002565
 20
17.6705304102302492
 30
0.0
 11
44.3056466801232389
 21
17.6705304102302492
 31
0.0
  0
ARC
  5
7A82
  8
0
 10
44.3056466802266371
 20
17.4835225361802493
 30
0.0
 40
0.1870078740500016
 50
90.0
 51
270.0
  0
LINE
  5
7A83
  8
0
 10
46.175725170026638
 20
19.1764363999302496
 30
0.0
 11
47.9276941740266409
 21
19.1764363999302496
 31
0.0
  0
LINE
  5
7A84
  8
0
 10
47.9276941740266409
 20
19.1764363999302496
 30
0.0
 11
47.865468300726647
 21
18.9159565675302517
 31
0.0
  0
ARC
  5
7A85
  8
0
 10
47.8463220070541908
 20
18.9205304043490585
 30
0.0
 40
0.0196850335188108
 50
269.9999865309230813
 51
346.5644766460030723
  0
LINE
  5
7A86
  8
0
 10
47.8463220024266391
 20
18.9008453708302504
 30
0.0
 11
46.2570973422266789
 21
18.9008457444247711
 31
0.0
  0
ARC
  5
7A87
  8
0
 10
46.257097346854259
 20
18.9205309027569406
 30
0.0
 40
0.0196851583321683
 50
193.4369280629165075
 51
269.999986530924275
  0
LINE
  5
7A88
  8
0
 10
46.2379510439266426
 20
18.9159565675302517
 30
0.0
 11
46.175725170026638
 21
19.1764363999302496
 31
0.0
  0
ARC
  5
7A89
  8
0
 10
47.8349626145651996
 20
18.8811603278913793
 30
0.0
 40
0.0196850456092371
 50
90.000016120666146
 51
166.5644697307834861
  0
ARC
  5
7A8A
  8
0
 10
24.2036258863788305
 20
24.2036259228878912
 30
0.0
 40
24.2036259532262292
 50
345.8212281819882037
 51
347.3077250952965187
  0
ARC
  5
7A8B
  8
0
 10
54.7877249256421592
 20
16.8513694039826305
 30
0.0
 40
7.2587804865222703
 50
168.6895988320505069
 51
173.4282373067929086
  0
ARC
  5
7A8C
  8
0
 10
48.6206897737906871
 20
17.3737742240028084
 30
0.0
 40
1.0886307913810751
 50
163.5462620216599987
 51
184.7961560135306058
  0
ARC
  5
7A8D
  8
0
 10
59.7625096434941767
 20
16.2711202608188117
 30
0.0
 40
12.2684186560087696
 50
175.2701192688720937
 51
175.824163489756387
  0
ARC
  5
7A8E
  8
0
 10
47.4834548639402669
 20
17.1676265092924396
 30
0.0
 40
0.0433200408478704
 50
277.0787234465506117
 51
355.8306632603320736
  0
ARC
  5
7A8F
  8
0
 10
47.0517096584625918
 20
20.6567405594143914
 30
0.0
 40
3.5590448237491841
 50
262.9459276196433279
 51
277.0542608721796114
  0
ARC
  5
7A90
  8
0
 10
46.2684559662727111
 20
18.8811598398496798
 30
0.0
 40
0.0196859019197644
 50
13.4363953030812002
 51
89.9977607966115301
  0
ARC
  5
7A91
  8
0
 10
69.8997934582744591
 20
24.2036259228878912
 30
0.0
 40
24.2036259532262292
 50
192.6922749047035097
 51
194.1787718180117963
  0
ARC
  5
7A92
  8
0
 10
39.3156944190111304
 20
16.8513694039826305
 30
0.0
 40
7.2587804865222703
 50
6.571762693207102
 51
11.3104011679494505
  0
ARC
  5
7A93
  8
0
 10
45.4827295708625883
 20
17.3737742240028084
 30
0.0
 40
1.0886307913810751
 50
355.2038439864693942
 51
16.4537379783400084
  0
ARC
  5
7A94
  8
0
 10
34.3409097011591129
 20
16.2711202608188117
 30
0.0
 40
12.2684186560087696
 50
4.1758365102435313
 51
4.7298807311278992
  0
ARC
  5
7A95
  8
0
 10
46.6199644807130227
 20
17.1676265092924396
 30
0.0
 40
0.0433200408478704
 50
184.169336739667898
 51
262.9212765534493883
  0
LINE
  5
7A96
  8
0
 62
     1
 10
47.0517096723266377
 20
19.1764363999302496
 30
0.0
 11
47.9886616762962532
 21
20.4599080997519991
 31
0.0
  0
ENDBLK
  5
7A9A
  8
0
  0
ENDSEC
  0
SECTION
  2
ENTITIES
  0
ATTDEF
  5
829
  8
DEFPOINTS
 10
464.1751093462489166
 20
70.9011244422124065
 30
0.0
 40
0.001
  1
K-5631IN
  3

  2
MODELNUMBER
 70
     0
1001
ACDBATTR
1070
     0
1070
     1
  0
ATTDEF
  5
82A
  8
DEFPOINTS
 10
464.1751093462489166
 20
70.8994577755457414
 30
0.0
 40
0.001
  1
COMPLEMENTARY
  3

  2
TRADENAME
 70
     0
1001
ACDBATTR
1070
     0
1070
     1
  0
ATTDEF
  5
82B
  8
DEFPOINTS
 10
464.1751093462489166
 20
70.8977911088790762
 30
0.0
 40
0.001
  1
TOWEL RING
  3

  2
PRODUCT
 70
     0
1001
ACDBATTR
1070
     0
1070
     1
  0
LINE
  5
8054
  8
0
 10
461.4250511566939963
 20
69.0172844524679476
 30
0.0
 11
463.6880198425528761
 21
69.0172844524679476
 31
0.0
  0
LINE
  5
8055
  8
0
 10
464.6542084552419851
 20
69.0172844524679476
 30
0.0
 11
466.9171771409974099
 21
69.0172844524679476
 31
0.0
  0
LINE
  5
8056
  8
0
 10
466.9171771409974099
 20
69.3913002005679402
 30
0.0
 11
464.6926913833237904
 21
69.3913002005679402
 31
0.0
  0
LINE
  5
8057
  8
0
 10
463.6495369144710139
 20
69.3913002005679402
 30
0.0
 11
461.4250511566939963
 21
69.3913002005679402
 31
0.0
  0
LINE
  5
8058
  8
0
 10
463.2951296465973883
 20
70.8972061902679513
 30
0.0
 11
465.0470986505974906
 21
70.8972061902679513
 31
0.0
  0
LINE
  5
8059
  8
0
 10
465.0470986505974906
 20
70.8972061902679513
 30
0.0
 11
464.9848727772974257
 21
70.6367263578679427
 31
0.0
  0
ARC
  5
805A
  8
0
 10
464.9657264836250192
 20
70.6413001946867496
 30
0.0
 40
0.0196850335188108
 50
269.9999865309214897
 51
346.5644766460026744
  0
LINE
  5
805B
  8
0
 10
464.9657264789973965
 20
70.6216151611679379
 30
0.0
 11
463.3765018187975215
 21
70.6216155347624692
 31
0.0
  0
ARC
  5
805C
  8
0
 10
463.3765018234249737
 20
70.6413006930946352
 30
0.0
 40
0.0196851583321683
 50
193.4369280629161096
 51
269.9999865309246729
  0
LINE
  5
805D
  8
0
 10
463.3573555204973786
 20
70.6367263578679427
 30
0.0
 11
463.2951296465973883
 21
70.8972061902679513
 31
0.0
  0
ARC
  5
805E
  8
0
 10
464.9543670911360209
 20
70.6019301182290633
 30
0.0
 40
0.0196850456092371
 50
90.0000161206673539
 51
166.5644697307835997
  0
ARC
  5
805F
  8
0
 10
441.3230303629496802
 20
75.9243957132255645
 30
0.0
 40
24.2036259532262292
 50
345.8212281819883174
 51
347.307725095296405
  0
ARC
  5
8060
  8
0
 10
471.9071294022128882
 20
68.5721391943203287
 30
0.0
 40
7.2587804865222703
 50
168.6895988320507911
 51
173.428237306792596
  0
ARC
  5
8061
  8
0
 10
465.7400942503613805
 20
69.0945440143405136
 30
0.0
 40
1.0886307913810751
 50
163.5462620216603113
 51
184.7961560135304069
  0
ARC
  5
8062
  8
0
 10
476.8819141200648914
 20
67.9918900511565028
 30
0.0
 40
12.2684186560087696
 50
175.2701192688716105
 51
175.8241634897565859
  0
ARC
  5
8063
  8
0
 10
464.6028593405110882
 20
68.8883962996301307
 30
0.0
 40
0.0433200408478704
 50
277.0787234465510096
 51
355.830663260332301
  0
ARC
  5
8064
  8
0
 10
464.171114135033406
 20
72.3775103497520718
 30
0.0
 40
3.5590448237491841
 50
262.9459276196445217
 51
277.0542608721808051
  0
ARC
  5
8065
  8
0
 10
463.3878604428434755
 20
70.6019296301873709
 30
0.0
 40
0.0196859019197644
 50
13.4363953030809498
 51
89.9977607966107342
  0
ARC
  5
8066
  8
0
 10
487.0191979348452946
 20
75.9243957132255645
 30
0.0
 40
24.2036259532262292
 50
192.692274904703595
 51
194.178771818011711
  0
ARC
  5
8067
  8
0
 10
456.4350988955819162
 20
68.5721391943203287
 30
0.0
 40
7.2587804865222703
 50
6.5717626932073543
 51
11.3104011679492
  0
ARC
  5
8068
  8
0
 10
462.6021340474334238
 20
69.0945440143405136
 30
0.0
 40
1.0886307913810751
 50
355.2038439864696215
 51
16.4537379783396709
  0
ARC
  5
8069
  8
0
 10
451.4603141777299129
 20
67.9918900511565028
 30
0.0
 40
12.2684186560087696
 50
4.175836510243399
 51
4.7298807311283211
  0
ARC
  5
806A
  8
0
 10
463.7393689572837729
 20
68.8883962996301307
 30
0.0
 40
0.0433200408478704
 50
184.1693367396678127
 51
262.9212765534489904
  0
ARC
  5
806C
  8
0
 10
466.9171771409974099
 20
69.2042923265179439
 30
0.0
 40
0.1870078740500016
 50
270.0
 51
90.0
  0
ARC
  5
806D
  8
0
 10
461.4250511566939963
 20
69.2042923265179439
 30
0.0
 40
0.1870078740500016
 50
90.0
 51
270.0
  0
ENDSEC
  0
EOF
