  0
SECTION
  2
HEADER
  9
$ACADVER
  1
AC1009
  9
$INSBASE
 10
3630.7048032503339527
 20
326.0141536889868803
 30
0.0
  9
$EXTMIN
 10
3625.7802955504339479
 20
315.5848536889869251
 30
0.0
  9
$EXTMAX
 10
3635.6293109502339576
 20
326.0204470718194898
 30
0.0
  9
$LIMMIN
 10
0.0
 20
0.0
  9
$LIMMAX
 10
11.6929133858000007
 20
8.2677165353999982
  9
$ORTHOMODE
 70
     0
  9
$REGENMODE
 70
     1
  9
$FILLMODE
 70
     1
  9
$QTEXTMODE
 70
     0
  9
$MIRRTEXT
 70
     0
  9
$DRAGMODE
 70
     2
  9
$LTSCALE
 40
0.6431102362
  9
$OSMODE
 70
  4095
  9
$ATTMODE
 70
     1
  9
$TEXTSIZE
 40
0.2
  9
$TRACEWID
 40
0.05
  9
$TEXTSTYLE
  7
STANDARD
  9
$CLAYER
  8
0
  9
$CELTYPE
  6
BYLAYER
  9
$CECOLOR
 62
   256
  9
$DIMSCALE
 40
1.0
  9
$DIMASZ
 40
0.1875
  9
$DIMEXO
 40
0.0625
  9
$DIMDLI
 40
0.4443307087
  9
$DIMRND
 40
0.0
  9
$DIMDLE
 40
0.0
  9
$DIMEXE
 40
0.125
  9
$DIMTP
 40
0.01
  9
$DIMTM
 40
0.01
  9
$DIMTXT
 40
2.0
  9
$DIMCEN
 40
0.1052362205
  9
$DIMTSZ
 40
0.0
  9
$DIMTOL
 70
     1
  9
$DIMLIM
 70
     0
  9
$DIMTIH
 70
     1
  9
$DIMTOH
 70
     1
  9
$DIMSE1
 70
     0
  9
$DIMSE2
 70
     0
  9
$DIMTAD
 70
     0
  9
$DIMZIN
 70
     0
  9
$DIMBLK
  1

  9
$DIMASO
 70
     1
  9
$DIMSHO
 70
     1
  9
$DIMPOST
  1
\X
  9
$DIMAPOST
  1

  9
$DIMALT
 70
     1
  9
$DIMALTD
 70
     2
  9
$DIMALTF
 40
25.3999999999999986
  9
$DIMLFAC
 40
1.0
  9
$DIMTOFL
 70
     0
  9
$DIMTVP
 40
0.0
  9
$DIMTIX
 70
     0
  9
$DIMSOXD
 70
     0
  9
$DIMSAH
 70
     0
  9
$DIMBLK1
  1

  9
$DIMBLK2
  1

  9
$DIMSTYLE
  2
STANDARD
  9
$DIMCLRD
 70
     0
  9
$DIMCLRE
 70
     0
  9
$DIMCLRT
 70
     0
  9
$DIMTFAC
 40
1.0
  9
$DIMGAP
 40
0.09
  9
$LUNITS
 70
     2
  9
$LUPREC
 70
     4
  9
$SKETCHINC
 40
0.1
  9
$FILLETRAD
 40
0.0
  9
$AUNITS
 70
     0
  9
$AUPREC
 70
     0
  9
$MENU
  1
.
  9
$ELEVATION
 40
0.0
  9
$PELEVATION
 40
0.0
  9
$THICKNESS
 40
0.0
  9
$LIMCHECK
 70
     0
  9
$BLIPMODE
 70
     0
  9
$CHAMFERA
 40
0.0
  9
$CHAMFERB
 40
0.0
  9
$SKPOLY
 70
     0
  9
$TDCREATE
 40
2458060.468368056230247
  9
$TDUPDATE
 40
2458989.9705787030979991
  9
$TDINDWG
 40
0.6885024306
  9
$TDUSRTIMER
 40
0.6885024306
  9
$USRTIMER
 70
     1
  9
$ANGBASE
 50
0.0
  9
$ANGDIR
 70
     0
  9
$PDMODE
 70
     0
  9
$PDSIZE
 40
0.3125
  9
$PLINEWID
 40
0.0
  9
$COORDS
 70
     1
  9
$SPLFRAME
 70
     0
  9
$SPLINETYPE
 70
     6
  9
$SPLINESEGS
 70
     8
  9
$ATTDIA
 70
     1
  9
$ATTREQ
 70
     1
  9
$HANDLING
 70
     1
  9
$HANDSEED
  5
BF9A
  9
$SURFTAB1
 70
     6
  9
$SURFTAB2
 70
     6
  9
$SURFTYPE
 70
     6
  9
$SURFU
 70
     6
  9
$SURFV
 70
     6
  9
$UCSNAME
  2

  9
$UCSORG
 10
0.0
 20
0.0
 30
0.0
  9
$UCSXDIR
 10
1.0
 20
0.0
 30
0.0
  9
$UCSYDIR
 10
0.0
 20
1.0
 30
0.0
  9
$PUCSNAME
  2

  9
$PUCSORG
 10
0.0
 20
0.0
 30
0.0
  9
$PUCSXDIR
 10
1.0
 20
0.0
 30
0.0
  9
$PUCSYDIR
 10
0.0
 20
1.0
 30
0.0
  9
$USERI1
 70
     0
  9
$USERI2
 70
     0
  9
$USERI3
 70
     0
  9
$USERI4
 70
     0
  9
$USERI5
 70
     0
  9
$USERR1
 40
0.0
  9
$USERR2
 40
0.0
  9
$USERR3
 40
0.0
  9
$USERR4
 40
0.0
  9
$USERR5
 40
0.0
  9
$WORLDVIEW
 70
     1
  9
$SHADEDGE
 70
     3
  9
$SHADEDIF
 70
    70
  9
$TILEMODE
 70
     1
  9
$MAXACTVP
 70
    64
  9
$PLIMCHECK
 70
     0
  9
$PEXTMIN
 10
1.0000000000000000E+20
 20
1.0000000000000000E+20
 30
1.0000000000000000E+20
  9
$PEXTMAX
 10
-1.0000000000000000E+20
 20
-1.0000000000000000E+20
 30
-1.0000000000000000E+20
  9
$PLIMMIN
 10
0.0
 20
0.0
  9
$PLIMMAX
 10
12.0
 20
9.0
  9
$UNITMODE
 70
     0
  9
$VISRETAIN
 70
     1
  9
$PLINEGEN
 70
     0
  9
$PSLTSCALE
 70
     1
  0
ENDSEC
  0
SECTION
  2
TABLES
  0
TABLE
  2
VPORT
 70
     1
  0
VPORT
  2
*ACTIVE
 70
     0
 10
0.0
 20
0.0
 11
1.0
 21
1.0
 12
0.0
 22
0.0
 13
0.0
 23
0.0
 14
1.0
 24
1.0
 15
0.0
 25
0.0
 16
0.0
 26
0.0
 36
54.4236783732226286
 17
3630.704833984375
 27
320.8026429695034949
 37
0.0
 40
14.3494635760342906
 41
2.9955849889624719
 42
50.0
 43
0.0
 44
0.0
 50
0.0
 51
0.0
 71
     0
 72
   100
 73
     1
 74
     1
 75
     0
 76
     0
 77
     0
 78
     0
  0
ENDTAB
  0
TABLE
  2
LTYPE
 70
     2
  0
LTYPE
  2
CONTINUOUS
 70
     0
  3
Solid line
 72
    65
 73
     0
 40
0.0
  0
LTYPE
  2
PHANTOM2
 70
     0
  3
___ _ _ ___ _ _ ___ _ _ ___ _ _
 72
    65
 73
     6
 40
1.25
 49
0.625
 49
-0.125
 49
0.125
 49
-0.125
 49
0.125
 49
-0.125
  0
ENDTAB
  0
TABLE
  2
LAYER
 70
     2
  0
LAYER
  2
0
 70
     0
 62
   255
  6
CONTINUOUS
  0
LAYER
  2
DEFPOINTS
 70
     0
 62
     7
  6
CONTINUOUS
  0
ENDTAB
  0
TABLE
  2
STYLE
 70
     1
  0
STYLE
  2
STANDARD
 70
     0
 40
0.0
 41
0.8
 50
0.0
 71
     0
 42
0.2
  3
txt
  4

  0
ENDTAB
  0
TABLE
  2
VIEW
 70
     0
  0
ENDTAB
  0
TABLE
  2
UCS
 70
     0
  0
ENDTAB
  0
TABLE
  2
APPID
 70
     9
  0
APPID
  2
ACAD
 70
     0
  0
APPID
  2
ACAD_MLEADERVER
 70
     0
  0
APPID
  2
ACAD_EXEMPT_FROM_CAD_STANDARDS
 70
     0
  0
APPID
  2
ACAD_NAV_VCDISPLAY
 70
     0
  0
APPID
  2
ACAECLAYERSTANDARD
 70
     0
  0
APPID
  2
ACCMTRANSPARENCY
 70
     0
  0
APPID
  2
ACAD_DSTYLE_DIMJAG
 70
     0
  0
APPID
  2
ACAD_DSTYLE_DIMTALN
 70
     0
  0
APPID
  2
ACDBATTR
 70
     0
  0
ENDTAB
  0
TABLE
  2
DIMSTYLE
 70
     1
  0
DIMSTYLE
  2
STANDARD
 70
     0
  3

  4

  5

  6

  7

 40
1.0
 41
0.1875
 42
0.0625
 43
0.38
 44
0.125
 45
0.0
 46
0.0
 47
0.01
 48
0.01
140
0.15625
141
0.09
142
0.0
143
25.3999999999999986
144
1.0
145
0.0
146
1.0
147
0.09
 71
     1
 72
     0
 73
     1
 74
     1
 75
     0
 76
     0
 77
     0
 78
     4
170
     0
171
     2
172
     0
173
     0
174
     0
175
     0
176
     0
177
     0
178
     0
  0
ENDTAB
  0
ENDSEC
  0
SECTION
  2
BLOCKS
  0
BLOCK
  8
0
  2
$MODEL_SPACE
 70
     0
 10
0.0
 20
0.0
 30
0.0
  3
$MODEL_SPACE
  1

  0
ENDBLK
  5
21
  8
0
  0
BLOCK
 67
     1
  8
0
  2
$PAPER_SPACE
 70
     0
 10
0.0
 20
0.0
 30
0.0
  3
$PAPER_SPACE
  1

  0
ENDBLK
  5
1D
 67
     1
  8
0
  0
BLOCK
  8
0
  2
_FILLED
 70
     0
 10
0.0
 20
0.0
 30
0.0
  3
_FILLED
  1

  0
SOLID
  5
6F59
  8
0
  6
BYBLOCK
 62
     0
 10
0.0
 20
0.0
 30
0.0
 11
-1.0
 21
0.1666666667
 31
0.0
 12
-1.0
 22
-0.1666666667
 32
0.0
 13
-1.0
 23
-0.1666666667
 33
0.0
  0
ENDBLK
  5
6F5A
  8
0
  6
BYBLOCK
 62
     0
  0
ENDSEC
  0
SECTION
  2
ENTITIES
  0
ATTDEF
  5
3930
  8
DEFPOINTS
 10
3630.7023681870377914
 20
326.0194470718196271
 30
0.0
 40
0.001
  1
K-5584IN
  3

  2
MODELNUMBER
 70
     0
1001
ACDBATTR
1070
     0
1070
     1
  0
ATTDEF
  5
3931
  8
DEFPOINTS
 10
3630.7023681870377914
 20
326.0177804051529051
 30
0.0
 40
0.001
  1
BRIVE
  3

  2
TRADENAME
 70
     0
1001
ACDBATTR
1070
     0
1070
     1
  0
ATTDEF
  5
3932
  8
DEFPOINTS
 10
3630.7023681870377914
 20
326.0161137384862968
 30
0.0
 40
0.001
  1
PEDESTAL
  3

  2
PRODUCT
 70
     0
1001
ACDBATTR
1070
     0
1070
     1
  0
LINE
  5
BEA6
  8
0
 10
3625.7802955504339479
 20
325.6833383923013798
 30
0.0
 11
3625.7802955504339479
 21
326.0141536889868803
 31
0.0
  0
LINE
  5
BEA7
  8
0
 10
3628.964096830733979
 20
325.3766512250867891
 30
0.0
 11
3629.0315749038340982
 21
325.4441293102868826
 31
0.0
  0
LINE
  5
BEA8
  8
0
 10
3628.06969146829897
 20
318.1012085998816019
 30
0.0
 11
3627.7630315509341017
 21
323.1151059545869089
 31
0.0
  0
LINE
  5
BEA9
  8
0
 10
3628.5412544496020928
 20
318.1300506276617739
 30
0.0
 11
3628.1008689839341059
 21
325.3302892757869245
 31
0.0
  0
LINE
  5
BEAA
  8
0
 10
3629.0315749038340982
 20
325.4441293102868826
 30
0.0
 11
3629.0315749038340982
 21
326.0141536889868803
 31
0.0
  0
LINE
  5
BEAB
  8
0
 10
3627.4183709351341349
 20
323.8799572953857933
 30
0.0
 11
3625.897466540233836
 21
325.4008624537868855
 31
0.0
  0
LINE
  5
BEAC
  8
0
 10
3629.0315749038340982
 20
325.4441293102868826
 30
0.0
 11
3628.6378741164339772
 21
325.517660489286925
 31
0.0
  0
LINE
  5
BEAD
  8
0
 10
3628.6378741164339772
 20
325.517660489286925
 30
0.0
 11
3628.3124393338330265
 21
325.5317575419867921
 31
0.0
  0
LINE
  5
BEAE
  8
0
 10
3629.0315749038340982
 20
326.0141536889868803
 30
0.0
 11
3625.7802955504339479
 21
326.0141536889868803
 31
0.0
  0
ARC
  5
BEAF
  8
0
 10
3629.3544241565341508
 20
325.765172549286774
 30
0.0
 40
0.3932863334
 50
214.8251038219945883
 51
269.7906156771978772
  0
ARC
  5
BEB0
  8
0
 10
3630.8119566229001975
 20
318.2696485025210791
 30
0.0
 40
2.7474333802548139
 50
183.5148992569307893
 51
209.7418463284259929
  0
ARC
  5
BEB1
  8
0
 10
3630.7074422124342163
 20
318.2112257501868839
 30
0.0
 40
2.6277038377999991
 50
209.7663147439004945
 51
225.4690784290050942
  0
ARC
  5
BEB2
  8
0
 10
3630.744238955399851
 20
318.3057704218790036
 30
0.0
 40
2.721202499294511
 50
226.3128428081678862
 51
269.1696396868790089
  0
ARC
  5
BEB3
  8
0
 10
3630.7069490753169703
 20
821.2939097881920816
 30
0.0
 40
495.923857532374484
 50
269.8435719313138748
 51
270.1559322428275891
  0
LINE
  5
BEB4
  8
0
 10
3628.964096832533869
 20
325.3766512388867795
 30
0.0
 11
3628.6344884243339948
 21
325.3779774404869158
 31
0.0
  0
ARC
  5
BEB6
  8
0
 10
3626.1854479616958997
 20
325.685856343763021
 30
0.0
 40
0.4051602355008062
 50
180.356078676556109
 51
224.7012586917500983
  0
ARC
  5
BEB7
  8
0
 10
3626.5812214966817919
 20
323.0426355001379761
 30
0.0
 40
1.1840299705240329
 50
3.5090734388977949
 51
45.0058975733221871
  0
ARC
  5
BEB8
  8
0
 10
3630.7185820064028121
 20
318.2371897502505931
 30
0.0
 40
2.1799619448949601
 50
182.817064539085294
 51
269.6378514097231118
  0
ARC
  5
BEB9
  8
0
 10
3628.2889154984500237
 20
325.3446372959589894
 30
0.0
 40
0.1885930998331471
 50
82.8346468624636145
 51
184.3632355310058983
  0
ARC
  5
BEBA
  8
0
 10
3628.9499653464081348
 20
325.1912228860111895
 30
0.0
 40
0.3666100816657108
 50
149.3755140377705004
 51
192.3637755243410083
  0
LINE
  5
BEBB
  8
0
 10
3628.5918577419911344
 20
325.112725143130092
 30
0.0
 11
3629.3057386273221709
 21
318.0795328908886859
 31
0.0
  0
ARC
  5
BEBC
  8
0
 10
3630.7277456805709335
 20
318.2720351194827799
 30
0.0
 40
1.4349777585397121
 50
187.7094698711464105
 51
269.0839158137080744
  0
CIRCLE
  5
BEBD
  8
0
 10
3630.7048032503339527
 20
323.9078544763868877
 30
0.0
 40
0.6889763780000003
  0
LINE
  5
BEBE
  8
0
 10
3635.6293109502339576
 20
325.6833383923013798
 30
0.0
 11
3635.6293109502339576
 21
326.0141536889868803
 31
0.0
  0
LINE
  5
BEBF
  8
0
 10
3632.4455096699339265
 20
325.3766512250867891
 30
0.0
 11
3632.3780315968338073
 21
325.4441293102868826
 31
0.0
  0
LINE
  5
BEC0
  8
0
 10
3633.339915032368026
 20
318.1012085998816019
 30
0.0
 11
3633.6465749497338038
 21
323.1151059545869089
 31
0.0
  0
LINE
  5
BEC1
  8
0
 10
3632.8683520510639937
 20
318.1300506276617739
 30
0.0
 11
3633.3087375167328901
 21
325.3302892757869245
 31
0.0
  0
LINE
  5
BEC2
  8
0
 10
3632.3780315968338073
 20
325.4441293102868826
 30
0.0
 11
3632.3780315968338073
 21
326.0141536889868803
 31
0.0
  0
LINE
  5
BEC3
  8
0
 10
3633.9912355655319516
 20
323.8799572953857933
 30
0.0
 11
3635.5121399604340695
 21
325.4008624537868855
 31
0.0
  0
LINE
  5
BEC4
  8
0
 10
3632.3780315968338073
 20
325.4441293102868826
 30
0.0
 11
3632.7717323842339283
 21
325.517660489286925
 31
0.0
  0
LINE
  5
BEC5
  8
0
 10
3632.7717323842339283
 20
325.517660489286925
 30
0.0
 11
3633.0971671668339695
 21
325.5317575419867921
 31
0.0
  0
LINE
  5
BEC6
  8
0
 10
3632.3780315968338073
 20
326.0141536889868803
 30
0.0
 11
3635.6293109502339576
 21
326.0141536889868803
 31
0.0
  0
ARC
  5
BEC7
  8
0
 10
3632.0551823441342094
 20
325.765172549286774
 30
0.0
 40
0.3932863334
 50
270.2093843228021228
 51
325.1748961780053833
  0
ARC
  5
BEC8
  8
0
 10
3630.5976498777667985
 20
318.2696485025210791
 30
0.0
 40
2.7474333802548139
 50
330.2581536715712218
 51
356.4851007430692107
  0
ARC
  5
BEC9
  8
0
 10
3630.7021642882341439
 20
318.2112257501868839
 30
0.0
 40
2.6277038377999991
 50
314.5309215709950195
 51
330.2336852560994771
  0
ARC
  5
BECA
  8
0
 10
3630.6855045639158561
 20
318.2565704544153959
 30
0.0
 40
2.6717864648900211
 50
270.4138590084432963
 51
314.1036584965020779
  0
LINE
  5
BECB
  8
0
 10
3632.4455096681340365
 20
325.3766512388867795
 30
0.0
 11
3632.7751180763339107
 21
325.3779774404869158
 31
0.0
  0
ARC
  5
BECC
  8
0
 10
3635.2241585389710963
 20
325.685856343763021
 30
0.0
 40
0.4051602355008062
 50
315.2987413082498733
 51
359.6439213234439194
  0
ARC
  5
BECD
  8
0
 10
3634.8283850039861136
 20
323.0426355001379761
 30
0.0
 40
1.1840299705240329
 50
134.9941024266778129
 51
176.4909265611022136
  0
ARC
  5
BECE
  8
0
 10
3630.6910244942641839
 20
318.2371897502505931
 30
0.0
 40
2.1799619448949601
 50
270.3621485902768882
 51
357.1829354609146208
  0
ARC
  5
BECF
  8
0
 10
3633.1206910022169723
 20
325.3446372959589894
 30
0.0
 40
0.1885930998331471
 50
355.636764468993988
 51
97.1653531375363855
  0
ARC
  5
BED0
  8
0
 10
3632.4596411542588612
 20
325.1912228860111895
 30
0.0
 40
0.3666100816657108
 50
347.6362244756589917
 51
30.6244859622294783
  0
LINE
  5
BED1
  8
0
 10
3632.8177487586772259
 20
325.112725143130092
 30
0.0
 11
3632.1038678733448251
 21
318.0795328908886859
 31
0.0
  0
ARC
  5
BED2
  8
0
 10
3630.681860820096972
 20
318.2720351194827799
 30
0.0
 40
1.434977758539705
 50
270.9160841862919256
 51
352.290530128853618
  0
ENDSEC
  0
EOF
