  0
SECTION
  2
HEADER
  9
$ACADVER
  1
AC1009
  9
$INSBASE
 10
291.6871225816029778
 20
-1.8793682277193891
 30
0.0
  9
$EXTMIN
 10
283.0615588996074052
 20
-1.8870931736991561
 30
-0.0015258207003583
  9
$EXTMAX
 10
315.6967551109855776
 20
48.0670661777510304
 30
0.0000000349246037
  9
$LIMMIN
 10
0.0
 20
0.0
  9
$LIMMAX
 10
22.0
 20
17.0
  9
$ORTHOMODE
 70
     0
  9
$REGENMODE
 70
     1
  9
$FILLMODE
 70
     1
  9
$QTEXTMODE
 70
     0
  9
$MIRRTEXT
 70
     0
  9
$DRAGMODE
 70
     2
  9
$LTSCALE
 40
1.2099999999999991
  9
$OSMODE
 70
  4095
  9
$ATTMODE
 70
     1
  9
$TEXTSIZE
 40
0.2
  9
$TRACEWID
 40
0.05
  9
$TEXTSTYLE
  7
STANDARD
  9
$CLAYER
  8
0
  9
$CELTYPE
  6
BYLAYER
  9
$CECOLOR
 62
   256
  9
$DIMSCALE
 40
1.0
  9
$DIMASZ
 40
0.1875
  9
$DIMEXO
 40
0.0625
  9
$DIMDLI
 40
0.38
  9
$DIMRND
 40
0.0
  9
$DIMDLE
 40
0.0
  9
$DIMEXE
 40
0.125
  9
$DIMTP
 40
1.5
  9
$DIMTM
 40
1.5
  9
$DIMTXT
 40
1.5
  9
$DIMCEN
 40
0.09
  9
$DIMTSZ
 40
0.0
  9
$DIMTOL
 70
     0
  9
$DIMLIM
 70
     0
  9
$DIMTIH
 70
     1
  9
$DIMTOH
 70
     1
  9
$DIMSE1
 70
     0
  9
$DIMSE2
 70
     0
  9
$DIMTAD
 70
     0
  9
$DIMZIN
 70
     4
  9
$DIMBLK
  1

  9
$DIMASO
 70
     1
  9
$DIMSHO
 70
     1
  9
$DIMPOST
  1

  9
$DIMAPOST
  1

  9
$DIMALT
 70
     0
  9
$DIMALTD
 70
     2
  9
$DIMALTF
 40
25.3999999999999986
  9
$DIMLFAC
 40
1.0
  9
$DIMTOFL
 70
     0
  9
$DIMTVP
 40
0.0
  9
$DIMTIX
 70
     0
  9
$DIMSOXD
 70
     0
  9
$DIMSAH
 70
     0
  9
$DIMBLK1
  1

  9
$DIMBLK2
  1

  9
$DIMSTYLE
  2
STANDARD
  9
$DIMCLRD
 70
     0
  9
$DIMCLRE
 70
     0
  9
$DIMCLRT
 70
     0
  9
$DIMTFAC
 40
1.0
  9
$DIMGAP
 40
0.09
  9
$LUNITS
 70
     2
  9
$LUPREC
 70
     4
  9
$SKETCHINC
 40
0.1
  9
$FILLETRAD
 40
0.0
  9
$AUNITS
 70
     0
  9
$AUPREC
 70
     0
  9
$MENU
  1
.
  9
$ELEVATION
 40
0.0
  9
$PELEVATION
 40
0.0
  9
$THICKNESS
 40
0.0
  9
$LIMCHECK
 70
     0
  9
$BLIPMODE
 70
     0
  9
$CHAMFERA
 40
0.0
  9
$CHAMFERB
 40
0.0
  9
$SKPOLY
 70
     0
  9
$TDCREATE
 40
2457827.4934837957844138
  9
$TDUPDATE
 40
2459781.6367824082262814
  9
$TDINDWG
 40
0.3547010417
  9
$TDUSRTIMER
 40
0.3547010417
  9
$USRTIMER
 70
     1
  9
$ANGBASE
 50
0.0
  9
$ANGDIR
 70
     0
  9
$PDMODE
 70
     0
  9
$PDSIZE
 40
0.3125
  9
$PLINEWID
 40
0.0
  9
$COORDS
 70
     1
  9
$SPLFRAME
 70
     0
  9
$SPLINETYPE
 70
     6
  9
$SPLINESEGS
 70
     8
  9
$ATTDIA
 70
     1
  9
$ATTREQ
 70
     1
  9
$HANDLING
 70
     1
  9
$HANDSEED
  5
5185
  9
$SURFTAB1
 70
     6
  9
$SURFTAB2
 70
     6
  9
$SURFTYPE
 70
     6
  9
$SURFU
 70
     6
  9
$SURFV
 70
     6
  9
$UCSNAME
  2

  9
$UCSORG
 10
0.0
 20
0.0
 30
0.0
  9
$UCSXDIR
 10
1.0
 20
0.0
 30
0.0
  9
$UCSYDIR
 10
0.0
 20
1.0
 30
0.0
  9
$PUCSNAME
  2

  9
$PUCSORG
 10
0.0
 20
0.0
 30
0.0
  9
$PUCSXDIR
 10
1.0
 20
0.0
 30
0.0
  9
$PUCSYDIR
 10
0.0
 20
1.0
 30
0.0
  9
$USERI1
 70
     0
  9
$USERI2
 70
     0
  9
$USERI3
 70
     0
  9
$USERI4
 70
     0
  9
$USERI5
 70
     0
  9
$USERR1
 40
0.0
  9
$USERR2
 40
0.0
  9
$USERR3
 40
0.0
  9
$USERR4
 40
0.0
  9
$USERR5
 40
0.0
  9
$WORLDVIEW
 70
     1
  9
$SHADEDGE
 70
     3
  9
$SHADEDIF
 70
    70
  9
$TILEMODE
 70
     1
  9
$MAXACTVP
 70
    48
  9
$PLIMCHECK
 70
     0
  9
$PEXTMIN
 10
1.0000000000000000E+20
 20
1.0000000000000000E+20
 30
1.0000000000000000E+20
  9
$PEXTMAX
 10
-1.0000000000000000E+20
 20
-1.0000000000000000E+20
 30
-1.0000000000000000E+20
  9
$PLIMMIN
 10
0.0
 20
0.0
  9
$PLIMMAX
 10
12.0
 20
9.0
  9
$UNITMODE
 70
     0
  9
$VISRETAIN
 70
     1
  9
$PLINEGEN
 70
     0
  9
$PSLTSCALE
 70
     1
  0
ENDSEC
  0
SECTION
  2
TABLES
  0
TABLE
  2
VPORT
 70
     1
  0
VPORT
  2
*ACTIVE
 70
     0
 10
0.0
 20
0.0
 11
1.0
 21
1.0
 12
-0.003504297218619
 22
0.0000001163015
 13
0.0
 23
0.0
 14
1.0
 24
1.0
 15
0.0
 25
0.0
 16
-0.0000000000000568
 26
0.0
 36
161.3760680385011881
 17
299.3826613025150891
 27
23.0899863857244405
 37
0.0
 40
50.2670246501022717
 41
2.005224660397074
 42
50.0
 43
0.0
 44
0.0
 50
0.0
 51
0.0
 71
     0
 72
   100
 73
     1
 74
     1
 75
     0
 76
     0
 77
     0
 78
     0
  0
ENDTAB
  0
TABLE
  2
LTYPE
 70
     2
  0
LTYPE
  2
CONTINUOUS
 70
     0
  3
Solid line
 72
    65
 73
     0
 40
0.0
  0
LTYPE
  2
PHANTOM2
 70
     0
  3
___ _ _ ___ _ _ ___ _ _ ___ _ _
 72
    65
 73
     6
 40
1.25
 49
0.625
 49
-0.125
 49
0.125
 49
-0.125
 49
0.125
 49
-0.125
  0
ENDTAB
  0
TABLE
  2
LAYER
 70
     2
  0
LAYER
  2
0
 70
     0
 62
     7
  6
CONTINUOUS
  0
LAYER
  2
DEFPOINTS
 70
     0
 62
     7
  6
CONTINUOUS
  0
ENDTAB
  0
TABLE
  2
STYLE
 70
     1
  0
STYLE
  2
STANDARD
 70
     0
 40
0.0
 41
0.8
 50
0.0
 71
     0
 42
0.2
  3
txt
  4

  0
ENDTAB
  0
TABLE
  2
VIEW
 70
     0
  0
ENDTAB
  0
TABLE
  2
UCS
 70
     0
  0
ENDTAB
  0
TABLE
  2
APPID
 70
     8
  0
APPID
  2
ACAD
 70
     0
  0
APPID
  2
ACAD_MLEADERVER
 70
     0
  0
APPID
  2
ACAD_EXEMPT_FROM_CAD_STANDARDS
 70
     0
  0
APPID
  2
ACAD_NAV_VCDISPLAY
 70
     0
  0
APPID
  2
ACADANNOMONITORALERTICONDI
 70
     0
  0
APPID
  2
ACAD_DSTYLE_DIMJAG
 70
     0
  0
APPID
  2
ACAD_DSTYLE_DIMTALN
 70
     0
  0
APPID
  2
ACDBATTR
 70
     0
  0
ENDTAB
  0
TABLE
  2
DIMSTYLE
 70
     1
  0
DIMSTYLE
  2
STANDARD
 70
     0
  3

  4

  5

  6

  7

 40
1.0
 41
0.1875
 42
0.0625
 43
0.38
 44
0.125
 45
0.0
 46
0.0
 47
1.5
 48
1.5
140
1.5
141
0.09
142
0.0
143
25.3999999999999986
144
1.0
145
0.0
146
1.0
147
0.09
 71
     0
 72
     0
 73
     1
 74
     1
 75
     0
 76
     0
 77
     0
 78
     4
170
     0
171
     2
172
     0
173
     0
174
     0
175
     0
176
     0
177
     0
178
     0
  0
ENDTAB
  0
ENDSEC
  0
SECTION
  2
BLOCKS
  0
BLOCK
  8
0
  2
$MODEL_SPACE
 70
     0
 10
0.0
 20
0.0
 30
0.0
  3
$MODEL_SPACE
  1

  0
ENDBLK
  5
21
  8
0
  0
BLOCK
 67
     1
  8
0
  2
$PAPER_SPACE
 70
     0
 10
0.0
 20
0.0
 30
0.0
  3
$PAPER_SPACE
  1

  0
ENDBLK
  5
1D
 67
     1
  8
0
  0
BLOCK
  8
0
  2
_FILLED
 70
     0
 10
0.0
 20
0.0
 30
0.0
  3
_FILLED
  1

  0
SOLID
  5
4F44
  8
0
  6
BYBLOCK
 62
     0
 10
0.0
 20
0.0
 30
0.0
 11
-1.0
 21
0.1666666667
 31
0.0
 12
-1.0
 22
-0.1666666667
 32
0.0
 13
-1.0
 23
-0.1666666667
 33
0.0
  0
ENDBLK
  5
4F45
  8
0
  6
BYBLOCK
 62
     0
  0
ENDSEC
  0
SECTION
  2
ENTITIES
  0
ATTDEF
  5
4EF9
  8
DEFPOINTS
 10
291.6848754750021726
 20
-1.882235569746036
 30
0.0
 40
0.001
  1
K-5402MY
  3

  2
MODELNUMBER
 70
     0
1001
ACDBATTR
1070
     0
1070
     1
  0
ATTDEF
  5
4EFA
  8
DEFPOINTS
 10
291.6848754750021726
 20
-1.883902236412716
 30
0.0
 40
0.001
  1
VEIL
  3

  2
TRADENAME
 70
     0
1001
ACDBATTR
1070
     0
1070
     1
  0
ATTDEF
  5
4EFB
  8
DEFPOINTS
 10
291.6848754750021726
 20
-1.885568903079395
 30
0.0
 40
0.001
  1
TOILET
  3

  2
PRODUCT
 70
     0
1001
ACDBATTR
1070
     0
1070
     1
  0
LINE
  5
4FC3
  8
0
 10
283.6369985185029918
 20
17.1206317722806105
 30
0.0
 11
299.7372466447030206
 21
17.1206317722806105
 31
0.0
  0
ARC
  5
4FC4
  8
0
 10
283.8575152965503889
 20
16.943469516742109
 30
0.0
 40
0.1771640929884065
 50
90.2609503641690338
 51
197.3072645650229902
  0
ARC
  5
4FC5
  8
0
 10
196.0705600769362889
 20
-8.9103840692378302
 30
0.0
 40
91.337726691181075
 50
8.9995759396037212
 51
16.4083185579211488
  0
ARC
  5
4FC6
  8
0
 10
286.3684088595339858
 20
5.3959151218908117
 30
0.0
 40
0.0865570565930046
 50
192.4078696717633932
 51
265.6346443589201272
  0
LINE
  5
4FC7
  8
0
 10
286.36182047066211
 20
5.3096091708902149
 30
0.0
 11
297.0124246925437888
 21
5.3096091708902149
 31
0.0
  0
ARC
  5
4FC8
  8
0
 10
297.0097662670593195
 20
5.3913966492641689
 30
0.0
 40
0.0818306717852598
 50
271.8616902719434734
 51
350.0928850818846172
  0
ARC
  5
4FC9
  8
0
 10
387.3046731980601862
 20
-8.9106382612154
 30
0.0
 40
91.3387375566124433
 50
163.5917019477583096
 51
171.0003624691497066
  0
ARC
  5
4FCA
  8
0
 10
299.5153496501840209
 20
16.9424568383580905
 30
0.0
 40
0.1781946608683094
 50
343.1365117962196223
 51
89.1474414410532177
  0
ARC
  5
4FCB
  8
0
 10
288.3346094335519751
 20
5.1127555328230514
 30
0.0
 40
0.1968581657903102
 50
29.1607174885125886
 51
89.6114010013102273
  0
ARC
  5
4FCC
  8
0
 10
291.687125019299117
 20
6.9832949207806037
 30
0.0
 40
3.6421883766000072
 50
209.1593361406000042
 51
261.8930116415417046
  0
ARC
  5
4FCD
  8
0
 10
295.0396404545041946
 20
5.1127555328230514
 30
0.0
 40
0.1968581657903102
 50
90.3885989986897727
 51
150.8392825114873972
  0
ARC
  5
4FCE
  8
0
 10
291.6871248687571097
 20
6.9832949207806037
 30
0.0
 40
3.6421883766000072
 50
278.1070087507442281
 51
330.8406638593996263
  0
ARC
  5
4FCF
  8
0
 10
291.5514456576490829
 20
5.0837563138882693
 30
0.0
 40
1.747609681021429
 50
257.5101646916003801
 51
267.3178075731956937
  0
ARC
  5
4FD0
  8
0
 10
291.7993242328892052
 20
5.2600759276098081
 30
0.0
 40
1.924894682343641
 50
273.1345907608380799
 51
282.0372022750200927
  0
LINE
  5
4FD1
  8
0
 10
291.4696645278028768
 20
3.3380611961770121
 30
0.0
 11
291.9045806354030219
 21
3.3380611961770121
 31
0.0
  0
ARC
  5
4FD2
  8
0
 10
291.644966271590306
 20
5.5432644073940827
 30
0.0
 40
2.2101062600519201
 50
200.6171875820699029
 51
244.6300614371795064
  0
ARC
  5
4FD3
  8
0
 10
291.9871844039494135
 20
5.4635270941279543
 30
0.0
 40
2.5099261430800062
 50
183.5157943366210134
 51
196.158252205872401
  0
ARC
  5
4FD4
  8
0
 10
291.7041512380582731
 20
5.6130410575158036
 30
0.0
 40
2.298633076665058
 50
244.0422805758263962
 51
256.3834501779468269
  0
ARC
  5
4FD5
  8
0
 10
291.7292832689136048
 20
5.5432644073940827
 30
0.0
 40
2.2101062600519201
 50
295.3699385628171967
 51
339.3828124179296992
  0
ARC
  5
4FD6
  8
0
 10
291.3870651365543836
 20
5.4635270941279543
 30
0.0
 40
2.5099261430800062
 50
343.8417477941271727
 51
356.4842056633788729
  0
ARC
  5
4FD7
  8
0
 10
291.6700983024455809
 20
5.6130410575158036
 30
0.0
 40
2.298633076665058
 50
283.6165498220499899
 51
295.9577194241736038
  0
ARC
  5
4FD8
  8
0
 10
291.250563852389007
 20
-23.7087532883195884
 30
0.0
 40
46.1341296093513904
 50
86.6871708575525872
 51
89.4578125518440146
  0
ARC
  5
4FD9
  8
0
 10
293.1764870672571988
 20
6.6909277561399421
 30
0.0
 40
15.6748338013276705
 50
72.6675439398743634
 51
87.2938888486814761
  0
ARC
  5
4FDA
  8
0
 10
296.6405381701482042
 20
17.5233429658154201
 30
0.0
 40
4.3030362040180483
 50
36.6711597815207782
 51
73.7276268210706149
  0
ARC
  5
4FDB
  8
0
 10
291.6435988144626208
 20
-34.0980438741367209
 30
0.0
 40
54.894716731919992
 50
83.6647212530946263
 51
89.9545725239995591
  0
ARC
  5
4FDC
  8
0
 10
279.7728416053802221
 20
-117.739991132120096
 30
0.0
 40
139.3594486577511873
 50
81.6534201120349223
 51
82.6085807307279083
  0
ARC
  5
4FDD
  8
0
 10
299.9416583717630829
 20
19.9300227254671611
 30
0.0
 40
0.2218168996722276
 50
29.3556485056359016
 51
74.1222698615111995
  0
ARC
  5
4FDE
  8
0
 10
298.8252134634232107
 20
19.3693926473660483
 30
0.0
 40
1.470910964255836
 50
350.1726959949742763
 51
27.0696023195950808
  0
ARC
  5
4FDF
  8
0
 10
299.7174002321556827
 20
19.1740565425216403
 30
0.0
 40
0.5599201642363953
 50
297.145056106543791
 51
354.2890496933272857
  0
ARC
  5
4FE0
  8
0
 10
298.8473870826859979
 20
22.4799335209332298
 30
0.0
 40
3.967121543147099
 50
268.2028343712420906
 51
286.4811786331998178
  0
ARC
  5
4FE1
  8
0
 10
294.4403242111798136
 20
225.8672069979425032
 30
0.0
 40
207.3966657531431963
 50
270.2618552675390902
 51
271.1832164124803057
  0
ARC
  5
4FE2
  8
0
 10
290.8059739122841734
 20
531.0363923665518087
 30
0.0
 40
512.5841666528259566
 50
270.0984933363620257
 51
270.5121971525505273
  0
LINE
  5
4FE3
  8
0
 10
300.2408958505783971
 20
18.9754037604852108
 30
0.0
 11
299.7824497921989746
 21
17.2247612806805996
 31
0.0
  0
ARC
  5
4FE4
  8
0
 10
299.761946081250926
 20
17.2301306496835593
 30
0.0
 40
0.0211951005219292
 50
268.7289185024486073
 51
345.3253080368617134
  0
ARC
  5
4FE5
  8
0
 10
299.6655857942819239
 20
18.3534038850991905
 30
0.0
 40
1.1484732254828229
 50
270.8946918571207902
 51
274.7894044370759161
  0
ARC
  5
4FE6
  8
0
 10
297.7726754417449797
 20
134.9246670988252959
 30
0.0
 40
117.7351039583217016
 50
270.204178813224928
 51
270.929952626996112
  0
ARC
  5
4FE7
  8
0
 10
292.266073430630513
 20
1312.2815089604359855
 30
0.0
 40
1295.1047568326519013
 50
269.9743870593287056
 51
270.2621758593163008
  0
LINE
  5
4FE8
  8
0
 10
296.2874076284634839
 20
17.1829953168486611
 30
0.0
 11
296.2481102392624166
 21
17.1436979273040393
 31
0.0
  0
ARC
  5
4FE9
  8
0
 10
296.1924187815569098
 20
17.1993962168951384
 30
0.0
 40
0.0787644458161732
 50
270.0100082858118071
 51
314.9964858685410718
  0
LINE
  5
4FEA
  8
0
 10
295.518259785857083
 20
17.1808354780727406
 30
0.0
 11
295.5455527090830969
 21
17.143697931828779
 31
0.0
  0
ARC
  5
4FEB
  8
0
 10
295.5910280132990806
 20
17.1765513094054683
 30
0.0
 40
0.0561012273638791
 50
215.8460170691780036
 51
265.3875196818274844
  0
ARC
  5
4FEC
  8
0
 10
293.4479139528328915
 20
18.7761159441463015
 30
0.0
 40
6.5035631427950964
 50
345.2530580145884187
 51
346.0548311592498862
  0
ARC
  5
4FED
  8
0
 10
292.1237326725204753
 20
-23.7086904184579303
 30
0.0
 40
46.1340672283601805
 50
90.5422519723577039
 51
93.3129021854884968
  0
ARC
  5
4FEE
  8
0
 10
290.1977740511701995
 20
6.690925881857857
 30
0.0
 40
15.6748338013276705
 50
92.7061832552458043
 51
107.3325281640534001
  0
ARC
  5
4FEF
  8
0
 10
286.7337093162190058
 20
17.5233367321864186
 30
0.0
 40
4.3030362040180483
 50
106.2724452828567934
 51
143.3289123224047046
  0
ARC
  5
4FF0
  8
0
 10
291.7307135533014844
 20
-34.0980425891265426
 30
0.0
 40
54.8947155002350868
 50
90.0454976210913287
 51
96.3353509078881416
  0
ARC
  5
4FF1
  8
0
 10
303.6015761032423939
 20
-117.7399761384734944
 30
0.0
 40
139.3594486577511873
 50
97.3914913731973542
 51
98.3466519918923439
  0
ARC
  5
4FF2
  8
0
 10
283.432586085918274
 20
19.9300123375384608
 30
0.0
 40
0.2218168996722276
 50
105.877802242417502
 51
150.6444235982916098
  0
ARC
  5
4FF3
  8
0
 10
284.5490316997826881
 20
19.3693836644289306
 30
0.0
 40
1.470910964255836
 50
152.9304697843309953
 51
189.8273761089529046
  0
ARC
  5
4FF4
  8
0
 10
283.6568451768717978
 20
19.1740464368113983
 30
0.0
 40
0.5599201642363953
 50
185.7110224105994973
 51
242.8550159973827078
  0
ARC
  5
4FF5
  8
0
 10
284.5268541660569213
 20
22.47992451008923
 30
0.0
 40
3.967121543147099
 50
253.5188934707261978
 51
271.7972377326829019
  0
ARC
  5
4FF6
  8
0
 10
288.933661084655796
 20
225.8672035330098993
 30
0.0
 40
207.3966657531431963
 50
268.8168556914448004
 51
269.7382168363886876
  0
ARC
  5
4FF7
  8
0
 10
292.5676284276569277
 20
531.0365455174448925
 30
0.0
 40
512.5843186988623756
 50
269.487874982056212
 51
269.9015785466199873
  0
LINE
  5
4FF8
  8
0
 10
283.1333498084443931
 20
18.9753929959815792
 30
0.0
 11
283.5917980699210261
 21
17.2247510931102283
 31
0.0
  0
ARC
  5
4FF9
  8
0
 10
283.6123017741119838
 20
17.2301204879160892
 30
0.0
 40
0.0211951005219292
 50
194.6747640670645012
 51
271.2711536014787157
  0
ARC
  5
4FFA
  8
0
 10
283.7086606474966857
 20
18.3533938445955407
 30
0.0
 40
1.1484732254828229
 50
265.2106676668543059
 51
269.105380246806078
  0
ARC
  5
4FFB
  8
0
 10
285.6014243008173139
 20
134.9246594403641097
 30
0.0
 40
117.7351039583217016
 50
269.0701194769306994
 51
269.7958932907009171
  0
ARC
  5
4FFC
  8
0
 10
291.1065440162694813
 20
1312.2813124575359325
 30
0.0
 40
1295.1045610584319547
 50
269.7378962337385815
 51
270.0256849551652181
  0
LINE
  5
4FFD
  8
0
 10
287.0872612281087868
 20
17.1825685867786113
 30
0.0
 11
287.1261377248691247
 21
17.1436921875266393
 31
0.0
  0
ARC
  5
4FFE
  8
0
 10
287.1818153543646872
 20
17.1993699566708003
 30
0.0
 40
0.078740157499996
 50
225.000071853460895
 51
270.4056168866856069
  0
LINE
  5
4FFF
  8
0
 10
287.855851009784601
 20
17.1806440743846984
 30
0.0
 11
287.828695255047819
 21
17.1436930761855493
 31
0.0
  0
ARC
  5
5000
  8
0
 10
287.7832199094875136
 20
17.1765463965337801
 30
0.0
 40
0.0561012273638791
 50
265.3255411535429857
 51
324.1540550347503995
  0
ARC
  5
5001
  8
0
 10
288.2441279132758041
 20
18.3458756090197284
 30
0.0
 40
4.7672700489532946
 50
193.7991471373518095
 51
194.8928163245680878
  0
LINE
  5
5002
  8
0
 10
295.8015387250965773
 20
48.0655416745282622
 30
0.0
 11
287.5726826380001171
 21
48.0655416745282622
 31
0.0
  0
LINE
  5
5003
  8
0
 10
295.8012849413967729
 20
42.1600298633017232
 30
0.0
 11
287.5728728446197806
 21
42.1600298633017232
 31
0.0
  0
LINE
  5
5004
  8
0
 10
295.9193932071935933
 20
42.2780386919055005
 30
0.0
 11
295.9193932071935933
 21
47.9474843387005834
 31
0.0
  0
LINE
  5
5005
  8
0
 10
287.4548262975990269
 20
47.9474071851166173
 30
0.0
 11
287.4548262975990269
 21
42.2781112304385971
 31
0.0
  0
ARC
  5
5006
  8
0
 10
287.5729801184796202
 20
47.9473882266164324
 30
0.0
 40
0.1181538224015117
 50
90.1442559686342122
 51
179.9908068415344076
  0
ARC
  5
5007
  8
0
 10
295.8012425464957005
 20
47.9473913484653735
 30
0.0
 40
0.1181506972917652
 50
0.0450945177602149
 51
89.8563715494070721
  0
ARC
  5
5008
  8
0
 10
295.8013259704287066
 20
42.2780971073886533
 30
0.0
 40
0.118067251215836
 50
269.9800893951394869
 51
359.9716520790962022
  0
ARC
  5
5009
  8
0
 10
287.5728967110675853
 20
42.2781002748663894
 30
0.0
 40
0.1180704139768132
 50
179.9946836177846023
 51
269.9884183822741761
  0
LINE
  5
500A
  8
0
 10
291.6281473738973204
 20
45.2747498308015892
 30
0.0
 11
291.6281473738973204
 21
43.5311279752015921
 31
0.0
  0
ARC
  5
500B
  8
0
 10
291.6996374820303117
 20
43.5319132311788621
 30
0.0
 40
0.0714944206761702
 50
180.6293184498483981
 51
276.0645983634228173
  0
ARC
  5
500C
  8
0
 10
289.7336300225355785
 20
61.0367624740146582
 30
0.0
 40
17.6863996786576791
 50
276.4067698989670134
 51
282.0270577032724191
  0
ARC
  5
500D
  8
0
 10
292.7426732919429924
 20
46.6030903800122402
 30
0.0
 40
2.9432606367887941
 50
283.284779163886526
 51
292.3557022287043878
  0
ARC
  5
500E
  8
0
 10
293.4840774206999185
 20
44.740703229318207
 30
0.0
 40
0.9391268033680527
 50
293.7400625250622852
 51
321.9950866849754902
  0
ARC
  5
500F
  8
0
 10
293.9018099357300002
 20
44.4006601515245407
 30
0.0
 40
0.4007404097552626
 50
323.5293331043590115
 51
12.7443671113437809
  0
ARC
  5
5010
  8
0
 10
293.7727303223820172
 20
44.3442261231935007
 30
0.0
 40
0.5397437604635728
 50
15.5658572028568791
 51
47.122111361762947
  0
ARC
  5
5011
  8
0
 10
293.470202423086505
 20
44.0322665473163681
 30
0.0
 40
0.9742465716720419
 50
46.5678205540715027
 51
67.4879124249887781
  0
ARC
  5
5012
  8
0
 10
292.5127219847847186
 20
41.5486782062944968
 30
0.0
 40
3.635787209199326
 50
68.5342455722693131
 51
81.2893701641970949
  0
ARC
  5
5013
  8
0
 10
289.5474666240518786
 20
26.2418308431970608
 30
0.0
 40
19.2249260940468183
 50
79.4623831914403951
 51
83.5503123177418558
  0
ARC
  5
5014
  8
0
 10
291.70091370068468
 20
45.2725362569143712
 30
0.0
 40
0.0727999877986433
 50
85.1916522848493116
 51
178.2575822286306106
  0
ARC
  5
5015
  8
0
 10
291.4906598021584045
 20
45.2958508343951323
 30
0.0
 40
0.0850916211555031
 50
354.8167132096339174
 51
81.7744818734696537
  0
ARC
  5
5016
  8
0
 10
285.4139848826048933
 20
-17.2057808832838184
 30
0.0
 40
62.8813362412946404
 50
84.4432982312177103
 51
85.5696676520144166
  0
ARC
  5
5017
  8
0
 10
287.455819421942806
 20
4.8363930612976729
 30
0.0
 40
40.7486601034496232
 50
86.0379598315052618
 51
90.0013968702716767
  0
LINE
  5
5018
  8
0
 10
291.5754034661305809
 20
45.2881634806614173
 30
0.0
 11
291.5751967299972875
 21
43.5045814009015928
 31
0.0
  0
ARC
  5
5019
  8
0
 10
291.4915134690616014
 20
43.5113251741045914
 30
0.0
 40
0.0839545510252585
 50
277.7408508623531134
 51
355.3926681903639064
  0
ARC
  5
501A
  8
0
 10
286.1928498817238733
 20
96.8203492805476458
 30
0.0
 40
53.6556080352929783
 50
274.3936639302776825
 51
275.6795140406476889
  0
ARC
  5
501B
  8
0
 10
236.629590614640307
 20
946.1214040475774709
 30
0.0
 40
904.393095967469435
 50
273.332959600542722
 51
273.4023783014943092
  0
ARC
  5
501C
  8
0
 10
289.513526590260085
 20
-9.7769375241198162
 30
0.0
 40
53.0358641077078374
 50
90.3284663937213139
 51
92.2246185835853112
  0
ARC
  5
501D
  8
0
 10
287.3820385234096761
 20
8.5099499055684422
 30
0.0
 40
37.1563915386785766
 50
88.4392415195658259
 51
89.8877603985786635
  0
ARC
  5
501E
  8
0
 10
287.6811209739872197
 20
9.8673133381460651
 30
0.0
 40
35.7923445123520807
 50
82.48096719265628
 51
88.8586519960018677
  0
ARC
  5
501F
  8
0
 10
291.2079774767585718
 20
36.0642948395875607
 30
0.0
 40
9.3593612065693002
 50
74.4383107630366112
 51
82.9003776690912844
  0
ARC
  5
5020
  8
0
 10
293.3603075122077826
 20
43.8658078403600413
 30
0.0
 40
1.266567373789083
 50
43.7842743887157084
 51
73.5549579570616316
  0
ARC
  5
5021
  8
0
 10
293.9045426506128251
 20
44.4040939103015901
 30
0.0
 40
0.5013368152036828
 50
317.5912793302986756
 51
42.4087206697013173
  0
ARC
  5
5022
  8
0
 10
287.3820385234096761
 20
80.2982379150347185
 30
0.0
 40
37.1563915386785766
 50
270.1122396014213223
 51
271.5607584804341741
  0
ARC
  5
5023
  8
0
 10
287.6811209739872197
 20
78.9408744824571045
 30
0.0
 40
35.7923445123520807
 50
271.1413480039980755
 51
277.5190328073405226
  0
ARC
  5
5024
  8
0
 10
291.2079774767585718
 20
52.7438929810156267
 30
0.0
 40
9.3593612065693002
 50
277.0996223309086872
 51
285.5616892369633888
  0
ARC
  5
5025
  8
0
 10
293.3603075122077826
 20
44.9423799802431319
 30
0.0
 40
1.266567373789083
 50
286.4450420429383826
 51
316.2157256112843129
  0
LINE
  5
5027
  8
0
 10
315.687120369598972
 20
35.0763939476983282
 30
0.0
 11
315.687120369598972
 21
38.0972672530806022
 31
0.0
  0
LINE
  5
5028
  8
0
 10
315.687120369598972
 20
38.0972672530806022
 30
0.0
 11
315.6083800438989897
 21
38.0986415739967015
 31
0.0
  0
LINE
  5
5029
  8
0
 10
315.6083800438989897
 20
38.0986415739967015
 30
0.0
 11
315.6083804515989755
 21
35.0750195268805882
 31
0.0
  0
LINE
  5
502A
  8
0
 10
315.6005064276844223
 20
35.0748820842441305
 30
0.0
 11
315.687120369598972
 21
35.0763939476395095
 31
0.0
  0
LINE
  5
502B
  8
0
 10
315.6005064349990903
 20
35.0195287386805916
 30
0.0
 11
315.6005060280990051
 21
38.0987242651805929
 31
0.0
  0
LINE
  5
502C
  8
0
 10
315.6005060280990051
 20
38.0987242651805929
 30
0.0
 11
315.0023268867840898
 21
38.0882002381443172
 31
0.0
  0
ARC
  5
502D
  8
0
 10
315.0081239698945978
 20
38.0762404808162103
 30
0.0
 40
0.0132906722153729
 50
115.8602002738578989
 51
168.8166286589519984
  0
LINE
  5
502E
  8
0
 10
314.9950856677990032
 20
38.0788182019805888
 30
0.0
 11
314.5208054367989803
 21
35.1034667622805898
 31
0.0
  0
ARC
  5
502F
  8
0
 10
314.748299383177482
 20
35.0797765066204903
 30
0.0
 40
0.2287241217101655
 50
174.0548886006837961
 51
196.7019424223767032
  0
ARC
  5
5030
  8
0
 10
315.0995060772312968
 20
28.2522482468019014
 30
0.0
 40
6.7858003665186928
 50
85.7659602104910164
 51
94.8208480691265692
  0
LINE
  5
5031
  8
0
 10
314.9934412745474788
 20
38.0685022589817521
 30
0.0
 11
314.9739272937990222
 21
38.0905667919805921
 31
0.0
  0
ARC
  5
5032
  8
0
 10
314.9673635968686085
 20
38.0847618263579832
 30
0.0
 40
0.0087624051077983
 50
41.48970159295461
 51
78.2238584146918754
  0
LINE
  5
5033
  8
0
 10
314.9691519023352839
 20
38.0933398043733007
 30
0.0
 11
314.730554971899096
 21
38.1344571503805909
 31
0.0
  0
ARC
  5
5034
  8
0
 10
314.7292120873955241
 20
38.1266943351824494
 30
0.0
 40
0.0078781113593522
 50
80.1855700053136076
 51
169.5772746260022075
  0
LINE
  5
5035
  8
0
 10
314.7214639664990159
 20
38.1281195583805967
 30
0.0
 11
314.3332033441989779
 21
35.6266792386806017
 31
0.0
  0
ARC
  5
5036
  8
0
 10
314.3409749374396824
 20
35.6254078060259971
 30
0.0
 40
0.0078749096816352
 50
170.7087205580301941
 51
262.1705473756687184
  0
LINE
  5
5037
  8
0
 10
314.3399021790991128
 20
35.6176063066805995
 30
0.0
 11
314.580018347299017
 21
35.5846177466805926
 31
0.0
  0
ARC
  5
5038
  8
0
 10
314.5835791393180898
 20
35.6105359357550526
 30
0.0
 40
0.0261616468270361
 50
262.1773434492752131
 51
303.9053383037860954
  0
LINE
  5
5039
  8
0
 10
315.6083800447046883
 20
38.0926660478598791
 30
0.0
 11
315.600506028882819
 21
38.0927928197247283
 31
0.0
  0
ENDSEC
  0
EOF
