  0
SECTION
  2
HEADER
  9
$ACADVER
  1
AC1009
  9
$INSBASE
 10
4456.143113095939043
 20
307.0580736294576241
 30
0.0
  9
$EXTMIN
 10
4447.3560490022973681
 20
269.040327671894488
 30
-0.0000000000112498
  9
$EXTMAX
 10
4480.1713005542260362
 20
307.0643311678239229
 30
0.0000000000002956
  9
$LIMMIN
 10
0.0
 20
0.0
  9
$LIMMAX
 10
11.6929133858000007
 20
8.2677165353999982
  9
$ORTHOMODE
 70
     0
  9
$REGENMODE
 70
     1
  9
$FILLMODE
 70
     1
  9
$QTEXTMODE
 70
     0
  9
$MIRRTEXT
 70
     0
  9
$DRAGMODE
 70
     2
  9
$LTSCALE
 40
0.6431102362
  9
$OSMODE
 70
     7
  9
$ATTMODE
 70
     1
  9
$TEXTSIZE
 40
0.2
  9
$TRACEWID
 40
0.05
  9
$TEXTSTYLE
  7
STANDARD
  9
$CLAYER
  8
0
  9
$CELTYPE
  6
BYLAYER
  9
$CECOLOR
 62
   256
  9
$DIMSCALE
 40
1.0
  9
$DIMASZ
 40
0.1875
  9
$DIMEXO
 40
0.0625
  9
$DIMDLI
 40
0.4443307087
  9
$DIMRND
 40
0.0
  9
$DIMDLE
 40
0.0
  9
$DIMEXE
 40
0.125
  9
$DIMTP
 40
0.01
  9
$DIMTM
 40
0.01
  9
$DIMTXT
 40
2.0
  9
$DIMCEN
 40
0.1052362205
  9
$DIMTSZ
 40
0.0
  9
$DIMTOL
 70
     1
  9
$DIMLIM
 70
     0
  9
$DIMTIH
 70
     1
  9
$DIMTOH
 70
     1
  9
$DIMSE1
 70
     0
  9
$DIMSE2
 70
     0
  9
$DIMTAD
 70
     0
  9
$DIMZIN
 70
     0
  9
$DIMBLK
  1

  9
$DIMASO
 70
     1
  9
$DIMSHO
 70
     1
  9
$DIMPOST
  1
\X
  9
$DIMAPOST
  1

  9
$DIMALT
 70
     1
  9
$DIMALTD
 70
     2
  9
$DIMALTF
 40
25.3999999999999986
  9
$DIMLFAC
 40
1.0
  9
$DIMTOFL
 70
     0
  9
$DIMTVP
 40
0.0
  9
$DIMTIX
 70
     0
  9
$DIMSOXD
 70
     0
  9
$DIMSAH
 70
     0
  9
$DIMBLK1
  1

  9
$DIMBLK2
  1

  9
$DIMSTYLE
  2
STANDARD
  9
$DIMCLRD
 70
     0
  9
$DIMCLRE
 70
     0
  9
$DIMCLRT
 70
     0
  9
$DIMTFAC
 40
1.0
  9
$DIMGAP
 40
0.09
  9
$LUNITS
 70
     2
  9
$LUPREC
 70
     4
  9
$SKETCHINC
 40
0.1
  9
$FILLETRAD
 40
0.0
  9
$AUNITS
 70
     0
  9
$AUPREC
 70
     0
  9
$MENU
  1
.
  9
$ELEVATION
 40
0.0
  9
$PELEVATION
 40
0.0
  9
$THICKNESS
 40
0.0
  9
$LIMCHECK
 70
     0
  9
$BLIPMODE
 70
     0
  9
$CHAMFERA
 40
0.0
  9
$CHAMFERB
 40
0.0
  9
$SKPOLY
 70
     0
  9
$TDCREATE
 40
2458060.468368056230247
  9
$TDUPDATE
 40
2459563.5924074067734182
  9
$TDINDWG
 40
0.5244052083
  9
$TDUSRTIMER
 40
0.5244052083
  9
$USRTIMER
 70
     1
  9
$ANGBASE
 50
0.0
  9
$ANGDIR
 70
     0
  9
$PDMODE
 70
     0
  9
$PDSIZE
 40
0.3125
  9
$PLINEWID
 40
0.0
  9
$COORDS
 70
     1
  9
$SPLFRAME
 70
     0
  9
$SPLINETYPE
 70
     6
  9
$SPLINESEGS
 70
     8
  9
$ATTDIA
 70
     1
  9
$ATTREQ
 70
     1
  9
$HANDLING
 70
     1
  9
$HANDSEED
  5
C89D
  9
$SURFTAB1
 70
     6
  9
$SURFTAB2
 70
     6
  9
$SURFTYPE
 70
     6
  9
$SURFU
 70
     6
  9
$SURFV
 70
     6
  9
$UCSNAME
  2

  9
$UCSORG
 10
0.0
 20
0.0
 30
0.0
  9
$UCSXDIR
 10
1.0
 20
0.0
 30
0.0
  9
$UCSYDIR
 10
0.0
 20
1.0
 30
0.0
  9
$PUCSNAME
  2

  9
$PUCSORG
 10
0.0
 20
0.0
 30
0.0
  9
$PUCSXDIR
 10
1.0
 20
0.0
 30
0.0
  9
$PUCSYDIR
 10
0.0
 20
1.0
 30
0.0
  9
$USERI1
 70
     0
  9
$USERI2
 70
     0
  9
$USERI3
 70
     0
  9
$USERI4
 70
     0
  9
$USERI5
 70
     0
  9
$USERR1
 40
0.0
  9
$USERR2
 40
0.0
  9
$USERR3
 40
0.0
  9
$USERR4
 40
0.0
  9
$USERR5
 40
0.0
  9
$WORLDVIEW
 70
     1
  9
$SHADEDGE
 70
     3
  9
$SHADEDIF
 70
    70
  9
$TILEMODE
 70
     1
  9
$MAXACTVP
 70
    64
  9
$PLIMCHECK
 70
     0
  9
$PEXTMIN
 10
1.0000000000000000E+20
 20
1.0000000000000000E+20
 30
1.0000000000000000E+20
  9
$PEXTMAX
 10
-1.0000000000000000E+20
 20
-1.0000000000000000E+20
 30
-1.0000000000000000E+20
  9
$PLIMMIN
 10
0.0
 20
0.0
  9
$PLIMMAX
 10
12.0
 20
9.0
  9
$UNITMODE
 70
     0
  9
$VISRETAIN
 70
     1
  9
$PLINEGEN
 70
     0
  9
$PSLTSCALE
 70
     1
  0
ENDSEC
  0
SECTION
  2
TABLES
  0
TABLE
  2
VPORT
 70
     1
  0
VPORT
  2
*ACTIVE
 70
     0
 10
0.0
 20
0.0
 11
1.0
 21
1.0
 12
434.9768095438867022
 22
152.1779702889998021
 13
0.0
 23
0.0
 14
1.0
 24
1.0
 15
0.0
 25
0.0
 16
0.0
 26
0.0
 36
47.0568789906323275
 17
4028.786865234375
 27
135.8743591308592897
 37
0.0
 40
38.2962517309837835
 41
1.8876941457586609
 42
50.0
 43
0.0
 44
0.0
 50
0.0
 51
0.0
 71
     0
 72
   100
 73
     1
 74
     1
 75
     0
 76
     0
 77
     0
 78
     0
  0
ENDTAB
  0
TABLE
  2
LTYPE
 70
     2
  0
LTYPE
  2
CONTINUOUS
 70
     0
  3
Solid line
 72
    65
 73
     0
 40
0.0
  0
LTYPE
  2
PHANTOM2
 70
     0
  3
___ _ _ ___ _ _ ___ _ _ ___ _ _
 72
    65
 73
     6
 40
1.25
 49
0.625
 49
-0.125
 49
0.125
 49
-0.125
 49
0.125
 49
-0.125
  0
ENDTAB
  0
TABLE
  2
LAYER
 70
     2
  0
LAYER
  2
0
 70
     0
 62
   255
  6
CONTINUOUS
  0
LAYER
  2
DEFPOINTS
 70
     0
 62
     7
  6
CONTINUOUS
  0
ENDTAB
  0
TABLE
  2
STYLE
 70
     1
  0
STYLE
  2
STANDARD
 70
     0
 40
0.0
 41
0.8
 50
0.0
 71
     0
 42
0.2
  3
txt
  4

  0
ENDTAB
  0
TABLE
  2
VIEW
 70
     0
  0
ENDTAB
  0
TABLE
  2
UCS
 70
     0
  0
ENDTAB
  0
TABLE
  2
APPID
 70
     9
  0
APPID
  2
ACAD
 70
     0
  0
APPID
  2
ACAD_MLEADERVER
 70
     0
  0
APPID
  2
ACAD_EXEMPT_FROM_CAD_STANDARDS
 70
     0
  0
APPID
  2
ACAD_NAV_VCDISPLAY
 70
     0
  0
APPID
  2
ACAECLAYERSTANDARD
 70
     0
  0
APPID
  2
ACCMTRANSPARENCY
 70
     0
  0
APPID
  2
ACAD_DSTYLE_DIMJAG
 70
     0
  0
APPID
  2
ACAD_DSTYLE_DIMTALN
 70
     0
  0
APPID
  2
ACDBATTR
 70
     0
  0
ENDTAB
  0
TABLE
  2
DIMSTYLE
 70
     1
  0
DIMSTYLE
  2
STANDARD
 70
     0
  3

  4

  5

  6

  7

 40
1.0
 41
0.1875
 42
0.0625
 43
0.38
 44
0.125
 45
0.0
 46
0.0
 47
0.01
 48
0.01
140
0.15625
141
0.09
142
0.0
143
25.3999999999999986
144
1.0
145
0.0
146
1.0
147
0.09
 71
     1
 72
     0
 73
     1
 74
     1
 75
     0
 76
     0
 77
     0
 78
     4
170
     0
171
     2
172
     0
173
     0
174
     0
175
     0
176
     0
177
     0
178
     0
  0
ENDTAB
  0
ENDSEC
  0
SECTION
  2
BLOCKS
  0
BLOCK
  8
0
  2
$MODEL_SPACE
 70
     0
 10
0.0
 20
0.0
 30
0.0
  3
$MODEL_SPACE
  1

  0
ENDBLK
  5
21
  8
0
  0
BLOCK
 67
     1
  8
0
  2
$PAPER_SPACE
 70
     0
 10
0.0
 20
0.0
 30
0.0
  3
$PAPER_SPACE
  1

  0
ENDBLK
  5
1D
 67
     1
  8
0
  0
BLOCK
  8
0
  2
A$CC496C78B
 70
     2
 10
0.0
 20
0.0
 30
0.0
  3
A$CC496C78B
  1

  0
ATTDEF
  5
A153
  8
DEFPOINTS
 10
-0.0000000134750735
 20
-0.0000000035004177
 30
0.0
 40
0.001
  1
BATHROOM SINK FAUCET
  3

  2
PRODUCT
 70
     0
1001
ACDBATTR
1070
     0
1070
     1
  0
ATTDEF
  5
A154
  8
DEFPOINTS
 10
-0.0000000134750735
 20
0.0016666631662474
 30
0.0
 40
0.001
  1
FAIRFAX
  3

  2
TRADENAME
 70
     0
1001
ACDBATTR
1070
     0
1070
     1
  0
ATTDEF
  5
A155
  8
DEFPOINTS
 10
-0.0000000134750735
 20
0.0033333298329126
 30
0.0
 40
0.001
  1
K-11549IN-4
  3

  2
MODELNUMBER
 70
     0
1001
ACDBATTR
1070
     0
1070
     1
  0
ENDBLK
  5
A159
  8
0
  0
ENDSEC
  0
SECTION
  2
ENTITIES
  0
ATTDEF
  5
7608
  8
DEFPOINTS
 10
4456.1431149439122237
 20
307.0614093304387211
 30
0.0
 40
0.001
  1
K-5402IN
  3

  2
MODELNUMBER
 70
     0
1001
ACDBATTR
1070
     0
1070
     1
  0
ATTDEF
  5
7609
  8
DEFPOINTS
 10
4456.1431149439122237
 20
307.0597426637719991
 30
0.0
 40
0.001
  1
VEIL
  3

  2
TRADENAME
 70
     0
1001
ACDBATTR
1070
     0
1070
     1
  0
ATTDEF
  5
760A
  8
DEFPOINTS
 10
4456.1431149439122237
 20
307.0580759971053908
 30
0.0
 40
0.001
  1
TOILET
  3

  2
PRODUCT
 70
     0
1001
ACDBATTR
1070
     0
1070
     1
  0
INSERT
  5
A15A
  8
0
 66
     1
  2
A$CC496C78B
 10
4340.9125275624146525
 20
141.4091978713580033
 30
0.0
  0
SEQEND
  5
A15B
  8
0
  0
INSERT
  5
A15C
  8
0
 66
     1
  2
A$CC496C78B
 10
4336.918191327526074
 20
141.5075808773540871
 30
0.0
  0
SEQEND
  5
A15D
  8
0
  0
ARC
  5
C70A
  8
0
 10
4457.7740749496888384
 20
299.4898334589706224
 30
0.0
 40
6.7985822593839851
 50
22.4274921796232505
 51
54.0199859077428997
  0
LINE
  5
C70B
  8
0
 10
4460.3753833330620182
 20
307.0599137382498043
 30
0.0
 11
4460.3753837215299427
 21
306.7264661679791971
 31
0.0
  0
LINE
  5
C70C
  8
0
 10
4460.3360129492521082
 20
306.6871471055313236
 30
0.0
 11
4451.9501872121300039
 21
306.6871481810309774
 31
0.0
  0
ARC
  5
C70D
  8
0
 10
4459.6686587072772454
 20
305.0989881476426717
 30
0.0
 40
1.5894229991896349
 50
92.2851315158560368
 51
120.4176885679281952
  0
ARC
  5
C70E
  8
0
 10
4458.8520361344881167
 20
306.4913866453157993
 30
0.0
 40
0.0247895517853169
 50
267.497873961366281
 51
298.6819615114735029
  0
ARC
  5
C70F
  8
0
 10
4456.6460669832949861
 20
297.2876821602333735
 30
0.0
 40
9.2511668686009791
 50
56.3800850448621489
 51
84.3177279394483179
  0
LINE
  5
C710
  8
0
 10
4458.6841957529522915
 20
306.4549171567313124
 30
0.0
 11
4456.1233915432521826
 21
306.5427164869312833
 31
0.0
  0
ARC
  5
C711
  8
0
 10
4460.336003529698246
 20
306.7265273437532755
 30
0.0
 40
0.0393802393486204
 50
270.013704860265193
 51
359.9109930479506829
  0
LINE
  5
C712
  8
0
 10
4451.9108168119500988
 20
306.6871796566313151
 30
0.0
 11
4451.9108168119355469
 21
307.0580736289580841
 31
0.0
  0
ARC
  5
C713
  8
0
 10
4456.1236293924393976
 20
306.5758067525110278
 30
0.0
 40
0.0330911203856011
 50
221.1516932980916863
 51
269.5881713355030911
  0
ARC
  5
C714
  8
0
 10
4451.9491110542649039
 20
306.725427485461978
 30
0.0
 40
0.0382944295365546
 50
180.1791623122610986
 51
271.6103983980664793
  0
ARC
  5
C715
  8
0
 10
4410.1339345384767512
 20
-970.7180872260712476
 30
0.0
 40
1278.0882300342809685
 50
87.9449426397610239
 51
88.1268386424298171
  0
ARC
  5
C716
  8
0
 10
4455.9683238411107595
 20
306.579263441386388
 30
0.0
 40
0.0312389402261466
 50
265.6561000772762782
 51
315.7405889322010921
  0
LINE
  5
C717
  8
0
 10
4458.850953910451608
 20
306.4666207278312982
 30
0.0
 11
4452.0554713879382689
 21
306.6824429655359836
 31
0.0
  0
ARC
  5
C718
  8
0
 10
4458.6833238837671161
 20
306.4971513787805861
 30
0.0
 40
0.0422432203790666
 50
271.1826269737205735
 51
321.5680490928060067
  0
ARC
  5
C719
  8
0
 10
4453.1672160474909106
 20
297.9514063642691895
 30
0.0
 40
11.6487568284554897
 50
11.3639871591035497
 51
20.7769902123215111
  0
ARC
  5
C71A
  8
0
 10
4464.5308947392777554
 20
300.2352939052985903
 30
0.0
 40
0.0578407425604335
 50
310.8729575733545971
 51
11.3639871591068999
  0
ARC
  5
C71B
  8
0
 10
4455.5169985805341639
 20
70.5741222505578207
 30
0.0
 40
229.811725000021795
 50
88.2849948760548955
 51
89.8438993328125548
  0
ARC
  5
C71C
  8
0
 10
4457.8365739602077156
 20
148.0445530851752949
 30
0.0
 40
152.3065762443214908
 50
87.5007312981754239
 51
88.2849948760548955
  0
ARC
  5
C71D
  8
0
 10
4464.4629498602880631
 20
299.8579778783279153
 30
0.0
 40
0.3486057228797859
 50
72.4559862393485759
 51
87.5007312981754239
  0
ARC
  5
C71E
  8
0
 10
4464.5462002243093593
 20
300.1213087763875933
 30
0.0
 40
0.0724286329852414
 50
28.3882681445698211
 51
72.4559862393489738
  0
ARC
  5
C71F
  8
0
 10
4445.4270801276197744
 20
293.9443436060869885
 30
0.0
 40
18.8541892261199315
 50
333.7342228344267028
 51
345.6829050942430968
  0
ARC
  5
C720
  8
0
 10
4450.7336604970287226
 20
291.2924160135953002
 30
0.0
 40
12.92197022571718
 50
317.8051382399634122
 51
333.8662117865322898
  0
ARC
  5
C721
  8
0
 10
4454.5556455062423993
 20
287.8617072059554971
 30
0.0
 40
7.7861874283518873
 50
299.0098657034812959
 51
317.6185183404011241
  0
ARC
  5
C722
  8
0
 10
4456.0097086351461257
 20
286.167750431713273
 30
0.0
 40
5.6176610256399018
 50
271.3607498080526739
 51
294.4139702696829772
  0
ARC
  5
C723
  8
0
 10
4454.5121086282806573
 20
299.4898334589706224
 30
0.0
 40
6.7985822593839851
 50
125.9800140922570932
 51
157.5725078203766998
  0
ARC
  5
C724
  8
0
 10
4455.9744804605707031
 20
296.6008113003044855
 30
0.0
 40
10.0087934339940396
 50
94.649510693809205
 51
123.0367288253879963
  0
ARC
  5
C725
  8
0
 10
4459.1189675304804041
 20
297.9514063642691895
 30
0.0
 40
11.6487568284554897
 50
159.2230097876785067
 51
168.6360128408963988
  0
ARC
  5
C726
  8
0
 10
4447.7552888386917402
 20
300.2352939052985903
 30
0.0
 40
0.0578407425604335
 50
168.6360128408931018
 51
229.127042426644806
  0
ARC
  5
C727
  8
0
 10
4456.7691704884500723
 20
70.5747494057085873
 30
0.0
 40
229.8110976915758954
 50
90.1560868515736473
 51
91.7150061877825067
  0
ARC
  5
C728
  8
0
 10
4454.4496096177617801
 20
148.0445530851752949
 30
0.0
 40
152.3065762443214908
 50
91.7150051239451045
 51
92.4992687018246045
  0
ARC
  5
C729
  8
0
 10
4447.8232337176832516
 20
299.8579778783279153
 30
0.0
 40
0.3486057228797859
 50
92.4992687018246045
 51
107.5440137606513957
  0
ARC
  5
C72A
  8
0
 10
4447.7399833536619553
 20
300.1213087763875933
 30
0.0
 40
0.0724286329852414
 50
107.5440137606509978
 51
151.6117318554300937
  0
ARC
  5
C72B
  8
0
 10
4473.0917538394542134
 20
297.4322582668692121
 30
0.0
 40
25.5609951473242596
 50
173.8836090754105044
 51
179.0720135584018067
  0
ARC
  5
C72C
  8
0
 10
4407.7632252469629748
 20
296.2039258332342797
 30
0.0
 40
39.8047805998506732
 50
0.798536637158163
 51
2.3646456656927648
  0
ARC
  5
C72D
  8
0
 10
4483.2771462230130055
 20
297.8522506355873247
 30
0.0
 40
35.7297457172169075
 50
181.7539250132128075
 51
193.8785868541260982
  0
ARC
  5
C72E
  8
0
 10
4466.8591034503497212
 20
293.9443436060869885
 30
0.0
 40
18.8541892261199315
 50
194.3170949057567896
 51
206.265777165573212
  0
ARC
  5
C72F
  8
0
 10
4461.5525230809416826
 20
291.2924160135953002
 30
0.0
 40
12.92197022571718
 50
206.1337882134675965
 51
222.1948617600365878
  0
ARC
  5
C730
  8
0
 10
4457.7305380717298249
 20
287.8617072059554971
 30
0.0
 40
7.7861874283518873
 50
222.3814816595977106
 51
240.9901342965187041
  0
ARC
  5
C731
  8
0
 10
4456.2079957224923419
 20
285.8684565770590211
 30
0.0
 40
5.3171788259502204
 50
244.9249314579049894
 51
269.300833571888802
  0
LINE
  5
C732
  8
0
 10
4449.5859919506392544
 20
307.0580735688575942
 30
0.0
 11
4462.7002342412388316
 21
307.0580736900575971
 31
0.0
  0
ARC
  5
C733
  8
0
 10
4477.6158269087063672
 20
297.8501882863881747
 30
0.0
 40
29.5035048621609803
 50
161.8144922567917945
 51
170.5681278810324102
  0
ARC
  5
C734
  8
0
 10
4434.6721291658532209
 20
297.8533254068025258
 30
0.0
 40
29.5008824457004692
 50
9.4285016949677782
 51
18.1807680241731688
  0
ARC
  5
C735
  8
0
 10
4439.1736934051177741
 20
297.4305099575623217
 30
0.0
 40
25.5817997233382783
 50
0.9311479028271469
 51
6.1153358680780476
  0
ARC
  5
C736
  8
0
 10
4504.2963457727655623
 20
296.2086333739010229
 30
0.0
 40
39.5781244731518598
 50
177.6286255036440878
 51
179.2037055975607984
  0
ARC
  5
C737
  8
0
 10
4429.0090373549573997
 20
297.852250635587211
 30
0.0
 40
35.7297457172169075
 50
346.1214131458738734
 51
358.2460749867871073
  0
LINE
  5
C738
  8
0
 10
4480.1431108839351509
 20
269.049637710605225
 30
0.0
 11
4480.1431108839351509
 21
274.5705109287580967
 31
0.0
  0
LINE
  5
C739
  8
0
 10
4480.1431108839351509
 20
274.5705109287580967
 30
0.0
 11
4480.0643707260351221
 21
274.5718853432720721
 31
0.0
  0
LINE
  5
C73A
  8
0
 10
4480.0643707260351221
 20
274.5718853432720721
 30
0.0
 11
4480.0643707260360316
 21
269.0482632960777778
 31
0.0
  0
LINE
  5
C73B
  8
0
 10
4480.0643707260360316
 20
269.0482632960777778
 30
0.0
 11
4480.1431108839351509
 21
269.049637710605225
 31
0.0
  0
LINE
  5
C73C
  8
0
 10
4480.0564967010350301
 20
269.0482632962580851
 30
0.0
 11
4480.0564967814352713
 21
274.5720170265581146
 31
0.0
  0
LINE
  5
C73D
  8
0
 10
4480.0564967814352713
 20
274.5720170265581146
 30
0.0
 11
4479.2684329529347451
 21
274.5581340286581167
 31
0.0
  0
LINE
  5
C73E
  8
0
 10
4479.2314747050340884
 20
274.5675129315580989
 30
0.0
 11
4478.993827590435103
 21
274.5717096350580846
 31
0.0
  0
ARC
  5
C73F
  8
0
 10
4478.9923060620203614
 20
274.4855499056786812
 30
0.0
 40
0.0861731629653571
 50
88.988296541954341
 51
128.1588682525969887
  0
ARC
  5
C740
  8
0
 10
4479.0408231337141842
 20
274.4238045471269061
 30
0.0
 40
0.1646995632939664
 50
128.1588682525969887
 51
151.8765601756697095
  0
ARC
  5
C741
  8
0
 10
4479.5413489957618367
 20
274.1825709221458283
 30
0.0
 40
0.7202145255102154
 50
153.7211004305484039
 51
170.8800881725707939
  0
ARC
  5
C742
  8
0
 10
4483.2150846052272755
 20
273.7010920989275746
 30
0.0
 40
4.425116012595419
 50
172.2643385886449892
 51
178.9758675661965981
  0
ARC
  5
C743
  8
0
 10
4566.6216015896752651
 20
273.1606985228805797
 30
0.0
 40
87.8331107513522085
 50
179.5958901071267917
 51
179.7882725654718001
  0
LINE
  5
C744
  8
0
 10
4478.7890905420936178
 20
273.4852710662581217
 30
0.0
 11
4478.7890905420936178
 21
270.1348773667580758
 31
0.0
  0
ARC
  5
C745
  8
0
 10
4478.989024134563806
 20
274.4868397391542203
 30
0.0
 40
0.0850057199399619
 50
40.7499888765947134
 51
86.7606361594289837
  0
ARC
  5
C746
  8
0
 10
4478.7782272968252073
 20
274.3234943116854083
 30
0.0
 40
0.3515964320900708
 50
14.0066105559923297
 51
38.4916303452919735
  0
ARC
  5
C747
  8
0
 10
4477.7451601911279795
 20
274.0221631167755163
 30
0.0
 40
1.4275084214096221
 50
6.3116971642242587
 51
15.7060461110330092
  0
ARC
  5
C748
  8
0
 10
4475.8523771309055519
 20
273.8236326509666014
 30
0.0
 40
3.3306617086387571
 50
1.4890297579743439
 51
6.1265934664460149
  0
ARC
  5
C749
  8
0
 10
4466.5924216266848816
 20
273.5605629971400958
 30
0.0
 40
12.5943461490698301
 50
359.657471016665113
 51
1.5907336890370609
  0
LINE
  5
C74A
  8
0
 10
4479.1865427181346604
 20
273.4852711881698042
 30
0.0
 11
4479.1774189430352635
 21
270.1348774862581195
 31
0.0
  0
ARC
  5
C74B
  8
0
 10
4479.2253532024624292
 20
274.4658829249885912
 30
0.0
 40
0.1018141985631429
 50
64.9681978240014217
 51
86.5530552180564712
  0
ARC
  5
C74C
  8
0
 10
4479.2197750709810862
 20
274.4623100929770771
 30
0.0
 40
0.10747007083671
 50
39.6732455210974706
 51
63.0792587823746871
  0
ARC
  5
C74D
  8
0
 10
4479.051538396786782
 20
274.3363684291280151
 30
0.0
 40
0.3175362350525399
 50
15.9407497474251798
 51
37.784306479491498
  0
ARC
  5
C74E
  8
0
 10
4478.1198306040960233
 20
274.0433332108088962
 30
0.0
 40
1.294155249813103
 50
7.1025329269272026
 51
17.0865926513472814
  0
ARC
  5
C74F
  8
0
 10
4475.3879778604450621
 20
273.7587940136340876
 30
0.0
 40
4.0406071458963249
 50
0.1714317607174698
 51
6.3165807897694801
  0
ARC
  5
C750
  8
0
 10
4460.6152560754007936
 20
273.5394126673480173
 30
0.0
 40
18.8147347513792198
 50
359.8351248989098963
 51
0.7049074760336369
  0
LINE
  5
C751
  8
0
 10
4479.4299129276350868
 20
273.4852712098225993
 30
0.0
 11
4479.4299153912998008
 21
272.1413377449557061
 31
0.0
  0
ARC
  5
C752
  8
0
 10
4479.4225630171313242
 20
272.1406259113011856
 30
0.0
 40
0.0073825936871217
 50
283.1388807983025231
 51
5.2913698068298514
  0
ARC
  5
C753
  8
0
 10
4479.4427401202783585
 20
271.7939204362381247
 30
0.0
 40
0.34001973875909
 50
93.1187463437124592
 51
97.5643661891490552
  0
ARC
  5
C754
  8
0
 10
4479.4115174901726277
 20
272.0321416459278794
 30
0.0
 40
0.0997623171683478
 50
97.7989765980468206
 51
144.1499784930815906
  0
ARC
  5
C755
  8
0
 10
4479.4129388433939312
 20
272.0283693295268108
 30
0.0
 40
0.1031477201310531
 50
142.9138305686902015
 51
175.585663181897786
  0
ARC
  5
C756
  8
0
 10
4479.6406727748480989
 20
272.0099021001275901
 30
0.0
 40
0.3316286580229532
 50
175.4329154318567987
 51
180.5144077069959963
  0
LINE
  5
C757
  8
0
 10
4479.3090574824345822
 20
272.0069247421581053
 30
0.0
 11
4479.3090600817349696
 21
271.6132239551581051
 31
0.0
  0
LINE
  5
C758
  8
0
 10
4479.4294680469929517
 20
273.6796683364718774
 30
0.0
 11
4479.450526832534706
 21
273.5058213192580752
 31
0.0
  0
LINE
  5
C759
  8
0
 10
4479.450526832534706
 20
273.5058213192580752
 30
0.0
 11
4479.4505296654342601
 21
270.1165267745579968
 31
0.0
  0
LINE
  5
C75A
  8
0
 10
4479.4505279833592795
 20
272.1289719436006749
 30
0.0
 11
4479.4207540115157826
 21
272.1289728735820859
 31
0.0
  0
ARC
  5
C75B
  8
0
 10
4479.4207503526204164
 20
272.0118309279749269
 30
0.0
 40
0.1171419456644362
 50
89.9982103827774722
 51
126.8130491313833943
  0
ARC
  5
C75C
  8
0
 10
4479.4148815965791073
 20
272.0278658652147783
 30
0.0
 40
0.1009073771795396
 50
129.6019247216918018
 51
171.6398323889127084
  0
ARC
  5
C75D
  8
0
 10
4479.6949249095032428
 20
272.0054820720430939
 30
0.0
 40
0.3816814117155759
 50
174.4287079792225938
 51
179.7834361371672003
  0
LINE
  5
C75E
  8
0
 10
4479.3132462242347174
 20
272.006924729858099
 30
0.0
 11
4479.3132508688513553
 21
271.6132240997123972
 31
0.0
  0
ARC
  5
C75F
  8
0
 10
4469.3990211597993039
 20
273.5782608500592801
 30
0.0
 40
9.7759286870842477
 50
359.4549882870214788
 51
2.5376317566143469
  0
ARC
  5
C760
  8
0
 10
4477.201018908689548
 20
273.9240376816828757
 30
0.0
 40
1.966272453229041
 50
2.5376317566143469
 51
10.12574868253202
  0
ARC
  5
C761
  8
0
 10
4478.2836215593206362
 20
274.117380582987721
 30
0.0
 40
0.8665406783678236
 50
10.12574868253202
 51
24.9218407983681303
  0
ARC
  5
C762
  8
0
 10
4478.964744831666394
 20
274.4338631192646858
 30
0.0
 40
0.1154813545475264
 50
24.9218407983681303
 51
57.4763229249734309
  0
ARC
  5
C763
  8
0
 10
4478.9925946604325873
 20
274.4702314817823208
 30
0.0
 40
0.0699536693917418
 50
60.6958650879778574
 51
128.8898024345247961
  0
ARC
  5
C764
  8
0
 10
4479.1025726244170073
 20
274.3544153603018003
 30
0.0
 40
0.2295088207570568
 50
132.1093445975014049
 51
160.3538372866659074
  0
ARC
  5
C765
  8
0
 10
4480.2379308972585932
 20
273.9842456251203089
 30
0.0
 40
1.423614094583344
 50
161.6860564364289985
 51
177.6944087247923107
  0
ARC
  5
C766
  8
0
 10
4487.9113410356640088
 20
273.5832244654250758
 30
0.0
 40
9.1074099033821234
 50
177.1156123279671135
 51
180.6162481433871108
  0
LINE
  5
C767
  8
0
 10
4478.8044579091347259
 20
273.4852710684580757
 30
0.0
 11
4478.8044582378352061
 21
270.1348773676580777
 31
0.0
  0
LINE
  5
C768
  8
0
 10
4480.0643707055351115
 20
274.5659437146580899
 30
0.0
 11
4480.0564967813488693
 21
274.5660827552122214
 31
0.0
  0
LINE
  5
C769
  8
0
 10
4479.174507573135088
 20
273.4852711859580836
 30
0.0
 11
4479.174507573135088
 21
270.1348774862581195
 31
0.0
  0
LINE
  5
C76A
  8
0
 10
4480.0564967010350301
 20
269.0482632962580851
 30
0.0
 11
4479.2684329529347451
 21
269.0620146106580819
 31
0.0
  0
LINE
  5
C76B
  8
0
 10
4479.2314747050340884
 20
269.0526357077580997
 30
0.0
 11
4478.993827590435103
 21
269.048439004258114
 31
0.0
  0
ARC
  5
C76C
  8
0
 10
4478.9923060620203614
 20
269.1345987336375174
 30
0.0
 40
0.0861731629653571
 50
231.8411317474030113
 51
271.0117034580457016
  0
ARC
  5
C76D
  8
0
 10
4479.0408231337141842
 20
269.1963440921892925
 30
0.0
 40
0.1646995632939664
 50
208.1234398243302905
 51
231.8411317474030113
  0
ARC
  5
C76E
  8
0
 10
4479.5413489957618367
 20
269.4375777171704271
 30
0.0
 40
0.7202145255102154
 50
189.1199118274292061
 51
206.2788995694515961
  0
ARC
  5
C76F
  8
0
 10
4483.2150846052272755
 20
269.9190565403886239
 30
0.0
 40
4.425116012595419
 50
181.0241324338034019
 51
187.7356614113548972
  0
ARC
  5
C770
  8
0
 10
4464.1322305903240704
 20
269.9086468404648258
 30
0.0
 40
14.6586057964878407
 50
359.7315402231315034
 51
0.8842975350488673
  0
ARC
  5
C771
  8
0
 10
4478.989024134563806
 20
269.1333089001619214
 30
0.0
 40
0.0850057199399619
 50
273.2393638405710021
 51
319.2500111234052724
  0
ARC
  5
C772
  8
0
 10
4478.7782272968252073
 20
269.2966543276306766
 30
0.0
 40
0.3515964320900708
 50
321.5083696547080194
 51
345.9933894439926121
  0
ARC
  5
C773
  8
0
 10
4477.7451601911279795
 20
269.5979855225406823
 30
0.0
 40
1.4275084214096221
 50
344.2939538889669961
 51
353.6883028357756871
  0
ARC
  5
C774
  8
0
 10
4475.8523771309055519
 20
269.7965159883494835
 30
0.0
 40
3.3306617086387571
 50
353.8734065335539754
 51
358.5109702420256781
  0
ARC
  5
C775
  8
0
 10
4475.6299951442988458
 20
269.8848848467050061
 30
0.0
 40
3.5562233918214119
 50
357.180687729338274
 51
4.0314597942529948
  0
ARC
  5
C776
  8
0
 10
4479.2253532024624292
 20
269.1542657143274937
 30
0.0
 40
0.1018141985631429
 50
273.4469447819436141
 51
295.0318021759986209
  0
ARC
  5
C777
  8
0
 10
4479.2197750709810862
 20
269.1578385463391214
 30
0.0
 40
0.10747007083671
 50
296.9207412176252774
 51
320.3267544789026147
  0
ARC
  5
C778
  8
0
 10
4479.051538396786782
 20
269.2837802101881834
 30
0.0
 40
0.3175362350525399
 50
322.2156935205085233
 51
344.0592502525748273
  0
ARC
  5
C779
  8
0
 10
4478.1198306040960233
 20
269.5768154285071887
 30
0.0
 40
1.294155249813103
 50
342.9134073486526972
 51
352.8974670730727894
  0
ARC
  5
C77A
  8
0
 10
4475.3879778604450621
 20
269.861354625682111
 30
0.0
 40
4.0406071458963249
 50
353.683419210230511
 51
359.8285682392825038
  0
ARC
  5
C77B
  8
0
 10
4460.6152560754007936
 20
270.0807359719681813
 30
0.0
 40
18.8147347513792198
 50
359.2950925239663889
 51
0.1648751010901044
  0
LINE
  5
C77C
  8
0
 10
4479.4299129276350868
 20
270.1348774294935993
 30
0.0
 11
4479.4299153912998008
 21
271.4788108943606062
 31
0.0
  0
ARC
  5
C77D
  8
0
 10
4479.4225630171313242
 20
271.4795227280150129
 30
0.0
 40
0.0073825936871217
 50
354.7086301931702224
 51
76.8611192016974627
  0
ARC
  5
C77E
  8
0
 10
4479.4427401202783585
 20
271.8262282030781876
 30
0.0
 40
0.34001973875909
 50
262.4356338108510158
 51
266.8812536562875266
  0
ARC
  5
C77F
  8
0
 10
4479.4115174901726277
 20
271.5880069933883192
 30
0.0
 40
0.0997623171683478
 50
215.8500215069184094
 51
262.2010234019535915
  0
ARC
  5
C780
  8
0
 10
4479.4129388433939312
 20
271.5917793097895014
 30
0.0
 40
0.1031477201310531
 50
184.414336818102214
 51
217.0861694313097985
  0
ARC
  5
C781
  8
0
 10
4479.6393581439160698
 20
271.6101708137500736
 30
0.0
 40
0.3303121728794851
 50
179.4703961212013894
 51
184.5721485747488941
  0
LINE
  5
C782
  8
0
 10
4479.4294680469929517
 20
269.9404803028442075
 30
0.0
 11
4479.450526832534706
 21
270.1143273200581234
 31
0.0
  0
LINE
  5
C783
  8
0
 10
4479.4505285164495945
 20
271.491176695732122
 30
0.0
 11
4479.4207540115157826
 21
271.4911757657341127
 31
0.0
  0
ARC
  5
C784
  8
0
 10
4479.4207503526204164
 20
271.6083177113412717
 30
0.0
 40
0.1171419456644362
 50
233.186950868615412
 51
270.0017896172225278
  0
ARC
  5
C785
  8
0
 10
4479.4148815965791073
 20
271.5922827741013066
 30
0.0
 40
0.1009073771795396
 50
188.3601676110872916
 51
230.3980752783070045
  0
ARC
  5
C786
  8
0
 10
4479.6928141550415603
 20
271.6145103552864271
 30
0.0
 40
0.3795654656042966
 50
180.1941619127593981
 51
185.5787560794859132
  0
ARC
  5
C787
  8
0
 10
4469.3990207274991917
 20
270.0418878025930098
 30
0.0
 40
9.7759291195506393
 50
357.4623682774804934
 51
0.5450118035370282
  0
ARC
  5
C788
  8
0
 10
4477.201018908689548
 20
269.6961109576333229
 30
0.0
 40
1.966272453229041
 50
349.8742513174680084
 51
357.4623682433855834
  0
ARC
  5
C789
  8
0
 10
4478.2836215593206362
 20
269.5027680563284775
 30
0.0
 40
0.8665406783678236
 50
335.0781592016318768
 51
349.8742513174680084
  0
ARC
  5
C78A
  8
0
 10
4478.964744831666394
 20
269.1862855200515128
 30
0.0
 40
0.1154813545475264
 50
302.523677075026626
 51
335.0781592016318768
  0
ARC
  5
C78B
  8
0
 10
4478.9925946604325873
 20
269.149917157533821
 30
0.0
 40
0.0699536693917418
 50
231.1101975654750902
 51
299.3041349120222208
  0
ARC
  5
C78C
  8
0
 10
4479.1025726244170073
 20
269.2657332790142846
 30
0.0
 40
0.2295088207570568
 50
199.646162713332302
 51
227.8906554024985098
  0
ARC
  5
C78D
  8
0
 10
4480.2379308972585932
 20
269.635903014195776
 30
0.0
 40
1.423614094583344
 50
182.3055912752076893
 51
198.313943563570092
  0
ARC
  5
C78E
  8
0
 10
4487.9109866590260935
 20
270.0369117416361746
 30
0.0
 40
9.1070553501037583
 50
179.3836509222313964
 51
182.884421746122996
  0
LINE
  5
C78F
  8
0
 10
4480.0643707055351115
 20
269.0542049246581087
 30
0.0
 11
4480.0564967813488693
 21
269.0540658841039203
 31
0.0
  0
ENDSEC
  0
EOF
