  0
SECTION
  2
HEADER
  9
$ACADVER
  1
AC1009
  9
$INSBASE
 10
138.9340949441836983
 20
-21.7793549158017115
 30
0.0
  9
$EXTMIN
 10
130.3888337661917092
 20
-21.7800845192899111
 30
-0.0015258207003583
  9
$EXTMAX
 10
140.3120269265328943
 20
-12.11305340515338
 30
0.0000000349246037
  9
$LIMMIN
 10
0.0
 20
0.0
  9
$LIMMAX
 10
11.6929133858000007
 20
8.2677165353999982
  9
$ORTHOMODE
 70
     0
  9
$REGENMODE
 70
     1
  9
$FILLMODE
 70
     1
  9
$QTEXTMODE
 70
     0
  9
$MIRRTEXT
 70
     0
  9
$DRAGMODE
 70
     2
  9
$LTSCALE
 40
0.6431102362
  9
$OSMODE
 70
  2047
  9
$ATTMODE
 70
     1
  9
$TEXTSIZE
 40
0.2
  9
$TRACEWID
 40
0.05
  9
$TEXTSTYLE
  7
STANDARD
  9
$CLAYER
  8
0
  9
$CELTYPE
  6
BYLAYER
  9
$CECOLOR
 62
   256
  9
$DIMSCALE
 40
1.0
  9
$DIMASZ
 40
0.1875
  9
$DIMEXO
 40
0.0625
  9
$DIMDLI
 40
0.4443307087
  9
$DIMRND
 40
0.0
  9
$DIMDLE
 40
0.0
  9
$DIMEXE
 40
0.125
  9
$DIMTP
 40
0.01
  9
$DIMTM
 40
0.01
  9
$DIMTXT
 40
1.0
  9
$DIMCEN
 40
0.1052362205
  9
$DIMTSZ
 40
0.0
  9
$DIMTOL
 70
     1
  9
$DIMLIM
 70
     0
  9
$DIMTIH
 70
     1
  9
$DIMTOH
 70
     1
  9
$DIMSE1
 70
     0
  9
$DIMSE2
 70
     0
  9
$DIMTAD
 70
     0
  9
$DIMZIN
 70
     0
  9
$DIMBLK
  1

  9
$DIMASO
 70
     1
  9
$DIMSHO
 70
     1
  9
$DIMPOST
  1
\X
  9
$DIMAPOST
  1

  9
$DIMALT
 70
     1
  9
$DIMALTD
 70
     2
  9
$DIMALTF
 40
25.3999999999999986
  9
$DIMLFAC
 40
1.0
  9
$DIMTOFL
 70
     0
  9
$DIMTVP
 40
0.0
  9
$DIMTIX
 70
     0
  9
$DIMSOXD
 70
     0
  9
$DIMSAH
 70
     0
  9
$DIMBLK1
  1

  9
$DIMBLK2
  1

  9
$DIMSTYLE
  2
STANDARD
  9
$DIMCLRD
 70
     0
  9
$DIMCLRE
 70
     0
  9
$DIMCLRT
 70
     0
  9
$DIMTFAC
 40
1.0
  9
$DIMGAP
 40
0.09
  9
$LUNITS
 70
     2
  9
$LUPREC
 70
     4
  9
$SKETCHINC
 40
0.1
  9
$FILLETRAD
 40
0.0
  9
$AUNITS
 70
     0
  9
$AUPREC
 70
     0
  9
$MENU
  1
.
  9
$ELEVATION
 40
0.0
  9
$PELEVATION
 40
0.0
  9
$THICKNESS
 40
0.0
  9
$LIMCHECK
 70
     0
  9
$BLIPMODE
 70
     0
  9
$CHAMFERA
 40
0.0
  9
$CHAMFERB
 40
0.0
  9
$SKPOLY
 70
     0
  9
$TDCREATE
 40
2458172.4620254631154239
  9
$TDUPDATE
 40
2459044.8428587960079312
  9
$TDINDWG
 40
0.0789411227
  9
$TDUSRTIMER
 40
0.0789411227
  9
$USRTIMER
 70
     1
  9
$ANGBASE
 50
0.0
  9
$ANGDIR
 70
     0
  9
$PDMODE
 70
     0
  9
$PDSIZE
 40
0.3125
  9
$PLINEWID
 40
0.0
  9
$COORDS
 70
     1
  9
$SPLFRAME
 70
     0
  9
$SPLINETYPE
 70
     6
  9
$SPLINESEGS
 70
     8
  9
$ATTDIA
 70
     1
  9
$ATTREQ
 70
     1
  9
$HANDLING
 70
     1
  9
$HANDSEED
  5
4738
  9
$SURFTAB1
 70
     6
  9
$SURFTAB2
 70
     6
  9
$SURFTYPE
 70
     6
  9
$SURFU
 70
     6
  9
$SURFV
 70
     6
  9
$UCSNAME
  2

  9
$UCSORG
 10
0.0
 20
0.0
 30
0.0
  9
$UCSXDIR
 10
1.0
 20
0.0
 30
0.0
  9
$UCSYDIR
 10
0.0
 20
1.0
 30
0.0
  9
$PUCSNAME
  2

  9
$PUCSORG
 10
0.0
 20
0.0
 30
0.0
  9
$PUCSXDIR
 10
1.0
 20
0.0
 30
0.0
  9
$PUCSYDIR
 10
0.0
 20
1.0
 30
0.0
  9
$USERI1
 70
     0
  9
$USERI2
 70
     0
  9
$USERI3
 70
     0
  9
$USERI4
 70
     0
  9
$USERI5
 70
     0
  9
$USERR1
 40
0.0
  9
$USERR2
 40
0.0
  9
$USERR3
 40
0.0
  9
$USERR4
 40
0.0
  9
$USERR5
 40
0.0
  9
$WORLDVIEW
 70
     1
  9
$SHADEDGE
 70
     3
  9
$SHADEDIF
 70
    70
  9
$TILEMODE
 70
     1
  9
$MAXACTVP
 70
    64
  9
$PLIMCHECK
 70
     0
  9
$PEXTMIN
 10
1.0000000000000000E+20
 20
1.0000000000000000E+20
 30
1.0000000000000000E+20
  9
$PEXTMAX
 10
-1.0000000000000000E+20
 20
-1.0000000000000000E+20
 30
-1.0000000000000000E+20
  9
$PLIMMIN
 10
0.0
 20
0.0
  9
$PLIMMAX
 10
12.0
 20
9.0
  9
$UNITMODE
 70
     0
  9
$VISRETAIN
 70
     1
  9
$PLINEGEN
 70
     0
  9
$PSLTSCALE
 70
     1
  0
ENDSEC
  0
SECTION
  2
TABLES
  0
TABLE
  2
VPORT
 70
     1
  0
VPORT
  2
*ACTIVE
 70
     0
 10
0.0
 20
0.0
 11
1.0
 21
1.0
 12
10.7392717462896403
 22
-22.2588431325994698
 13
0.0
 23
0.0
 14
1.0
 24
1.0
 15
0.0
 25
0.0
 16
0.0
 26
0.0
 36
30.6214257250603907
 17
124.6111586000725993
 27
5.3122741703778242
 37
0.0
 40
9.7537309447565832
 41
2.8398203592814371
 42
50.0
 43
0.0
 44
0.0
 50
0.0
 51
0.0
 71
     0
 72
   100
 73
     1
 74
     1
 75
     0
 76
     0
 77
     0
 78
     0
  0
ENDTAB
  0
TABLE
  2
LTYPE
 70
     2
  0
LTYPE
  2
CONTINUOUS
 70
     0
  3
Solid line
 72
    65
 73
     0
 40
0.0
  0
LTYPE
  2
PHANTOM2
 70
     0
  3
___ _ _ ___ _ _ ___ _ _ ___ _ _
 72
    65
 73
     6
 40
1.25
 49
0.625
 49
-0.125
 49
0.125
 49
-0.125
 49
0.125
 49
-0.125
  0
ENDTAB
  0
TABLE
  2
LAYER
 70
     2
  0
LAYER
  2
0
 70
     0
 62
   255
  6
CONTINUOUS
  0
LAYER
  2
DEFPOINTS
 70
     0
 62
     7
  6
CONTINUOUS
  0
ENDTAB
  0
TABLE
  2
STYLE
 70
     1
  0
STYLE
  2
STANDARD
 70
     0
 40
0.0
 41
0.8
 50
0.0
 71
     0
 42
0.2
  3
txt
  4

  0
ENDTAB
  0
TABLE
  2
VIEW
 70
     0
  0
ENDTAB
  0
TABLE
  2
UCS
 70
     0
  0
ENDTAB
  0
TABLE
  2
APPID
 70
     9
  0
APPID
  2
ACAD
 70
     0
  0
APPID
  2
ACAD_MLEADERVER
 70
     0
  0
APPID
  2
ACAD_EXEMPT_FROM_CAD_STANDARDS
 70
     0
  0
APPID
  2
ACAD_DSTYLE_DIMJAG
 70
     0
  0
APPID
  2
ACAD_DSTYLE_DIMTALN
 70
     0
  0
APPID
  2
ACAD_NAV_VCDISPLAY
 70
     0
  0
APPID
  2
ACAECLAYERSTANDARD
 70
     0
  0
APPID
  2
ACCMTRANSPARENCY
 70
     0
  0
APPID
  2
ACDBATTR
 70
     0
  0
ENDTAB
  0
TABLE
  2
DIMSTYLE
 70
     1
  0
DIMSTYLE
  2
STANDARD
 70
     0
  3

  4

  5

  6

  7

 40
1.0
 41
0.1875
 42
0.0625
 43
0.38
 44
0.125
 45
0.0
 46
0.0
 47
0.01
 48
0.01
140
0.15625
141
0.09
142
0.0
143
25.3999999999999986
144
1.0
145
0.0
146
1.0
147
0.09
 71
     1
 72
     0
 73
     1
 74
     1
 75
     0
 76
     0
 77
     0
 78
     4
170
     0
171
     2
172
     0
173
     0
174
     0
175
     0
176
     0
177
     0
178
     0
  0
ENDTAB
  0
ENDSEC
  0
SECTION
  2
BLOCKS
  0
BLOCK
  8
0
  2
$MODEL_SPACE
 70
     0
 10
0.0
 20
0.0
 30
0.0
  3
$MODEL_SPACE
  1

  0
ENDBLK
  5
21
  8
0
  0
BLOCK
 67
     1
  8
0
  2
$PAPER_SPACE
 70
     0
 10
0.0
 20
0.0
 30
0.0
  3
$PAPER_SPACE
  1

  0
ENDBLK
  5
1D
 67
     1
  8
0
  0
BLOCK
  8
0
  2
_FILLED
 70
     0
 10
0.0
 20
0.0
 30
0.0
  3
_FILLED
  1

  0
SOLID
  5
364D
  8
0
  6
BYBLOCK
 62
     0
 10
0.0
 20
0.0
 30
0.0
 11
-1.0
 21
0.1666666667
 31
0.0
 12
-1.0
 22
-0.1666666667
 32
0.0
 13
-1.0
 23
-0.1666666667
 33
0.0
  0
ENDBLK
  5
364E
  8
0
  6
BYBLOCK
 62
     0
  0
ENDSEC
  0
SECTION
  2
ENTITIES
  0
ATTDEF
  5
2E1C
  8
DEFPOINTS
 10
138.9351283507699861
 20
-21.7753325409525296
 30
0.0
 40
0.001
  1
K-5323T-4
  3

  2
MODELNUMBER
 70
     0
1001
ACDBATTR
1070
     0
1070
     1
  0
ATTDEF
  5
2E1D
  8
DEFPOINTS
 10
138.9351283507699861
 20
-21.7769992076191983
 30
0.0
 40
0.001
  1
REFINIA
  3

  2
TRADENAME
 70
     0
1001
ACDBATTR
1070
     0
1070
     1
  0
ATTDEF
  5
2E1E
  8
DEFPOINTS
 10
138.9351283507699861
 20
-21.7786658742858599
 30
0.0
 40
0.001
  1
BATHROOM SINK FAUCET
  3

  2
PRODUCT
 70
     0
1001
ACDBATTR
1070
     0
1070
     1
  0
LINE
  5
4561
  8
0
 10
137.5800113222196899
 20
-21.7793549158017115
 30
0.0
 11
140.2881785661477068
 21
-21.7793549158017115
 31
0.0
  0
ARC
  5
4562
  8
0
 10
137.5800113222196899
 20
-21.7593545191357016
 30
0.0
 40
0.0200003966686255
 50
155.8421878178019142
 51
270.0009259752965818
  0
LINE
  5
4563
  8
0
 10
137.5617625262524939
 20
-21.7511693305215701
 30
0.0
 11
137.5854729596337052
 21
-21.6983132388362812
 31
0.0
  0
ARC
  5
4564
  8
0
 10
137.6402681137095101
 20
-21.7229186222819202
 30
0.0
 40
0.0600660786525985
 50
116.9541699343146064
 51
155.8178667171513894
  0
ARC
  5
4565
  8
0
 10
135.9362419764086951
 20
-18.3719554405852499
 30
0.0
 40
3.6992768588420621
 50
296.9541699343146206
 51
298.5729759055740828
  0
ARC
  5
4566
  8
0
 10
137.0113204768908872
 20
-20.3460036865031313
 30
0.0
 40
1.4514645313977641
 50
298.5729759055740828
 51
309.0991471511534883
  0
ARC
  5
4567
  8
0
 10
137.7332900553471973
 20
-21.2344140723001296
 30
0.0
 40
0.3066880965388918
 50
309.0991471511534883
 51
336.5868126447646773
  0
ARC
  5
4568
  8
0
 10
138.0523364613162016
 20
-21.3699199095965895
 30
0.0
 40
0.0400072268495709
 50
90.9071554475072645
 51
160.0651398381585864
  0
ARC
  5
4569
  8
0
 10
139.8148214905266116
 20
-21.3699207463859295
 30
0.0
 40
0.0400080635921675
 50
19.9339405046605087
 51
89.0928582670437947
  0
ARC
  5
456A
  8
0
 10
140.080010524803896
 20
-21.2737459417606516
 30
0.0
 40
0.2420820229859276
 50
199.9339405046611091
 51
233.3928462989119055
  0
ARC
  5
456B
  8
0
 10
140.8948188281985097
 20
-20.3032113608157516
 30
0.0
 40
1.5089439136205269
 50
230.5314111751019084
 51
244.8744505472685091
  0
ARC
  5
456C
  8
0
 10
140.2244051790729031
 20
-21.725287679869961
 30
0.0
 40
0.0633136198249021
 50
25.2156014783428404
 51
62.0130154234596915
  0
LINE
  5
456D
  8
0
 10
140.2816857124705052
 20
-21.6983144533478516
 30
0.0
 11
140.3053914750921933
 21
-21.7511600571817283
 31
0.0
  0
ARC
  5
456E
  8
0
 10
140.2870775276907978
 20
-21.7593310800249995
 30
0.0
 40
0.0200540839954492
 50
273.147318694115711
 51
24.0446640150486495
  0
LINE
  5
456F
  8
0
 10
138.3605836330081047
 20
-18.9448276007324097
 30
0.0
 11
139.50657449809691
 21
-18.9448276007324097
 31
0.0
  0
LINE
  5
4570
  8
0
 10
138.351935191497887
 20
-18.9244974344324213
 30
0.0
 11
139.5173504751820985
 21
-18.9244974344324213
 31
0.0
  0
LINE
  5
4571
  8
0
 10
140.2816881478692039
 20
-21.6983179627301617
 30
0.0
 11
137.5854699832256074
 21
-21.6983179627301617
 31
0.0
  0
LINE
  5
4572
  8
0
 10
138.0517030593834136
 20
-21.3299176971304689
 30
0.0
 11
139.8154548961317118
 21
-21.3299176971304689
 31
0.0
  0
ARC
  5
4573
  8
0
 10
39.6120422842940201
 20
-13.2245624005229399
 30
0.0
 40
98.4521511872640644
 50
355.1077975948919061
 51
357.8698920288575778
  0
ARC
  5
4574
  8
0
 10
138.842750389555988
 20
-18.7179046707769388
 30
0.0
 40
1.834183308669723
 50
90.8305325730062947
 51
99.9382080083431248
  0
ARC
  5
4575
  8
0
 10
138.8324988928727919
 20
-18.6593966335356782
 30
0.0
 40
1.774783951719749
 50
99.9382080083431248
 51
104.7136708184163041
  0
ARC
  5
4576
  8
0
 10
138.3948269919935115
 20
-17.00189930410275
 30
0.0
 40
0.0605219195590812
 50
102.5037594426432008
 51
203.6819858210660925
  0
ARC
  5
4577
  8
0
 10
139.3331532750067083
 20
-16.6353187642036211
 30
0.0
 40
1.067865639936336
 50
201.4720744452924919
 51
255.8564282052471981
  0
ARC
  5
4578
  8
0
 10
140.0849994927881141
 20
-13.6516983647755694
 30
0.0
 40
4.1447574844891193
 50
255.8564282052471981
 51
258.1871462521468743
  0
ARC
  5
4579
  8
0
 10
139.2469343454309012
 20
-17.6455937479842397
 30
0.0
 40
0.0639389892610394
 50
260.6102983641313813
 51
321.5032579384076143
  0
ARC
  5
457A
  8
0
 10
138.8690168481693092
 20
-17.2731042507763988
 30
0.0
 40
0.5942487453121652
 50
316.0683532051958764
 51
336.8887280531274087
  0
ARC
  5
457B
  8
0
 10
138.8828749633360076
 20
-17.3027645155133811
 30
0.0
 40
0.5702790017744184
 50
339.0835537959001726
 51
13.1769461303914799
  0
ARC
  5
457C
  8
0
 10
137.5466092013427044
 20
-17.5610866036151094
 30
0.0
 40
1.9309787556940929
 50
11.6013688829774608
 51
17.1456509611130912
  0
ARC
  5
457D
  8
0
 10
139.3312128760670134
 20
-17.0108453235210391
 30
0.0
 40
0.0634743534658271
 50
17.4314574641382087
 51
85.875710896076896
  0
ARC
  5
457E
  8
0
 10
138.5031095663298117
 20
-21.0734335462412403
 30
0.0
 40
4.2090821614883058
 50
78.5901069301646515
 51
83.2768201195168132
  0
ARC
  5
457F
  8
0
 10
138.8001990078197139
 20
-18.9157125170697107
 30
0.0
 40
2.031861179704769
 50
84.4735629389191445
 51
89.5498076483979446
  0
ARC
  5
4580
  8
0
 10
137.582601271976614
 20
-17.5068189776842615
 30
0.0
 40
0.9660239075970277
 50
0.6413028956794017
 51
9.6639669739615162
  0
ARC
  5
4581
  8
0
 10
135.1444666649258011
 20
-17.3527405659347203
 30
0.0
 40
3.4071114434200682
 50
347.8579025878198081
 51
357.590051650110297
  0
ARC
  5
4582
  8
0
 10
164.1644045628092954
 20
-22.9192937071753491
 30
0.0
 40
26.142853417942181
 50
169.308795100666714
 51
171.1593485732340127
  0
ARC
  5
4583
  8
0
 10
138.3520150419423089
 20
-18.9044069460985718
 30
0.0
 40
0.0200906470176128
 50
171.6182660312408075
 51
269.772276843962004
  0
ARC
  5
4584
  8
0
 10
138.3635860158524906
 20
-18.9847299863215717
 30
0.0
 40
0.0400151805999998
 50
94.3030089902878217
 51
173.0713240560997974
  0
ARC
  5
4585
  8
0
 10
-68.7367351222217167
 20
6.4948408929857422
 30
0.0
 40
208.6217962898892893
 50
352.3447907679299078
 51
352.9861253022571077
  0
ARC
  5
4586
  8
0
 10
138.0555494597292068
 20
-21.2998893937886997
 30
0.0
 40
0.0300573931710681
 50
172.5080434008854979
 51
267.4790304910653731
  0
ARC
  5
4587
  8
0
 10
139.8115108247168052
 20
-21.2997926508395885
 30
0.0
 40
0.0301422117539636
 50
271.9337416277767261
 51
7.2850098885575676
  0
ARC
  5
4588
  8
0
 10
346.6072359553097044
 20
6.4953202863005428
 30
0.0
 40
208.6251728367973897
 50
187.0138933378134141
 51
187.6552174316369133
  0
ARC
  5
4589
  8
0
 10
139.5032218122696861
 20
-18.9850963501737304
 30
0.0
 40
0.0404080769627076
 50
7.3841008809028086
 51
85.2406585765716756
  0
ARC
  5
458A
  8
0
 10
139.4267584215081115
 20
-18.9243790022495304
 30
0.0
 40
0.0204501936032145
 50
180.3318160356232056
 51
269.2843701167261088
  0
ARC
  5
458B
  8
0
 10
138.4403590129010979
 20
-18.9243450101680004
 30
0.0
 40
0.0204911142768837
 50
271.6526629605517087
 51
359.5737983074272961
  0
ARC
  5
458C
  8
0
 10
141.2405597361035916
 20
-17.6531283766081408
 30
0.0
 40
1.896656506362068
 50
179.305858969316688
 51
193.8177812105411135
  0
ARC
  5
458D
  8
0
 10
108.5990082279410984
 20
-23.7819508553547792
 30
0.0
 40
31.3183937388802214
 50
8.9652344708583414
 51
10.4414163922476906
  0
ARC
  5
458E
  8
0
 10
139.5148294307537071
 20
-18.9044694006683685
 30
0.0
 40
0.0201860793980413
 50
277.174417691744793
 51
8.6174796381044718
  0
ARC
  5
458F
  8
0
 10
138.3450168739277899
 20
-17.1925420849802606
 30
0.0
 40
0.1667455408995025
 50
84.2553052551041475
 51
91.9766133608925855
  0
ARC
  5
4590
  8
0
 10
139.2285628306935905
 20
11.7633304906319207
 30
0.0
 40
28.8030118604229202
 50
268.275365876435103
 51
270.0197736871813277
  0
ARC
  5
4591
  8
0
 10
139.2470964820153938
 20
-16.7233564429474093
 30
0.0
 40
0.3164399129444383
 50
268.4438789805129204
 51
297.8876601629701213
  0
ARC
  5
4592
  8
0
 10
134.6997753615964086
 20
-17.3019821433113101
 30
0.0
 40
4.6313689424090816
 50
358.3965922857973965
 51
3.3603329337657262
  0
ARC
  5
4593
  8
0
 10
137.5386483207346942
 20
-17.3814480214789988
 30
0.0
 40
1.791383994575797
 50
352.1530213852227007
 51
358.3965922857973965
  0
ARC
  5
4594
  8
0
 10
139.0792946086691018
 20
-17.5937773841385017
 30
0.0
 40
0.2361750881026424
 50
337.1750112335876111
 51
352.1530213852223028
  0
LINE
  5
4595
  8
0
 10
140.0926586946754071
 20
-21.5812766387412189
 30
0.0
 11
140.0916308779524968
 21
-21.5443546080215818
 31
0.0
  0
ARC
  5
4596
  8
0
 10
140.8772789803369108
 20
-21.31500758074381
 30
0.0
 40
0.8184393683721156
 50
167.2481694619837072
 51
196.2736233113174933
  0
ARC
  5
4597
  8
0
 10
84.4461605886044993
 20
-23.012342119566231
 30
0.0
 40
55.6645540097235809
 50
1.9333880073250591
 51
2.9543911422933351
  0
ARC
  5
4598
  8
0
 10
105.618448440681405
 20
-21.9196487841538392
 30
0.0
 40
34.4640881748307493
 50
2.9543911422933351
 51
5.6681561781478811
  0
ARC
  5
4599
  8
0
 10
121.3622499914183948
 20
-20.35704524526124
 30
0.0
 40
18.6429309134687209
 50
5.6681561781478811
 51
11.6738310186822893
  0
ARC
  5
459A
  8
0
 10
132.2977877398164992
 20
-17.9532666578829385
 30
0.0
 40
7.4485520444014437
 50
10.5863943456402598
 51
31.5332964691271407
  0
ARC
  5
459B
  8
0
 10
135.46653244310491
 20
-16.1266643191484711
 30
0.0
 40
3.7937412018906072
 50
33.0491022989814809
 51
65.5718512765944581
  0
ARC
  5
459C
  8
0
 10
134.3074476383065985
 20
-19.0777670707128095
 30
0.0
 40
6.9619627334674661
 50
66.9308028002024713
 51
90.4628829624998616
  0
ARC
  5
459D
  8
0
 10
134.0785362658388067
 20
-27.3875312240758397
 30
0.0
 40
15.2724757955523405
 50
89.3522119434087898
 51
97.9406848213053536
  0
ARC
  5
459E
  8
0
 10
133.0661785489670024
 20
-19.7399500281503002
 30
0.0
 40
7.5585592921882636
 50
98.3488552906998166
 51
110.2614873811594975
  0
ARC
  5
459F
  8
0
 10
130.4766909949806859
 20
-12.7240606824712899
 30
0.0
 40
0.0800477283562872
 50
110.5360378903560985
 51
216.8323118072565023
  0
ARC
  5
45A0
  8
0
 10
132.3988705787232902
 20
-11.2280821064912608
 30
0.0
 40
2.5157532946840102
 50
217.8588877990862045
 51
233.3735388413664964
  0
ARC
  5
45A1
  8
0
 10
130.918380388979898
 20
-13.2185893714460203
 30
0.0
 40
0.0350392691982506
 50
234.4001148331965965
 51
253.3864895126932879
  0
LINE
  5
45A2
  8
0
 10
130.9083621959761103
 20
-13.2521659424866005
 30
0.0
 11
132.026911814252486
 21
-13.5518804093215692
 31
0.0
  0
ARC
  5
45A3
  8
0
 10
132.0347757534999005
 20
-13.5214519839168101
 30
0.0
 40
0.0314281818293781
 50
255.5095074014469958
 51
277.8911568042502154
  0
ARC
  5
45A4
  8
0
 10
125.6808806378425061
 20
36.8378322862269485
 30
0.0
 40
50.7899669445982127
 50
277.1915166600156226
 51
278.831530935900787
  0
ARC
  5
45A5
  8
0
 10
134.9920014461019093
 20
-22.2267081097514207
 30
0.0
 40
9.0048157359347591
 50
87.2864836458618072
 51
99.6750776139336949
  0
ARC
  5
45A6
  8
0
 10
135.3364932583945972
 20
-15.8619016936739001
 30
0.0
 40
2.6311848310750681
 50
33.95960003085262
 51
88.2181372369404926
  0
ARC
  5
45A7
  8
0
 10
133.4142347696794104
 20
-16.4699200404658299
 30
0.0
 40
4.6005932022934681
 50
354.8371353196765199
 51
26.8490630685699401
  0
ARC
  5
45A8
  8
0
 10
129.8079769076975936
 20
8.9981106136953457
 30
0.0
 40
21.7785521722483892
 50
271.5909236181282722
 51
274.5545588229251166
  0
ARC
  5
45A9
  8
0
 10
130.9310086971819089
 20
-5.099718724416511
 30
0.0
 40
7.6360632665882697
 50
274.5545588229251166
 51
278.2259518484710838
  0
ARC
  5
45AA
  8
0
 10
134.2243902764651011
 20
-26.9235450171590891
 30
0.0
 40
14.4350872677075408
 50
88.267904011628616
 51
98.7697606344612922
  0
ARC
  5
45AB
  8
0
 10
134.5354460948090889
 20
-18.5339418738911093
 30
0.0
 40
6.0401874940122333
 50
68.6565398569155718
 51
88.8117127976192648
  0
ARC
  5
45AC
  8
0
 10
135.4597137700770872
 20
-15.6579374240024904
 30
0.0
 40
3.0307428566006971
 50
28.2827039528117794
 51
65.1405398550491839
  0
ARC
  5
45AD
  8
0
 10
130.9448852237605081
 20
-18.0304733609601513
 30
0.0
 40
8.1309070270321246
 50
8.0396669054685415
 51
27.9309092182369483
  0
ENDSEC
  0
EOF
