  0
SECTION
  2
HEADER
  9
$ACADVER
  1
AC1009
  9
$INSBASE
 10
124.5928545893720951
 20
-4.5727573231050354
 30
0.0
  9
$EXTMIN
 10
117.1230309078282943
 20
-13.1015480055334894
 30
-0.0015258207003583
  9
$EXTMAX
 10
132.0649173033312991
 20
-3.189349850527925
 30
0.0000000349246037
  9
$LIMMIN
 10
0.0
 20
0.0
  9
$LIMMAX
 10
11.6929133858000007
 20
8.2677165353999982
  9
$ORTHOMODE
 70
     0
  9
$REGENMODE
 70
     1
  9
$FILLMODE
 70
     1
  9
$QTEXTMODE
 70
     0
  9
$MIRRTEXT
 70
     0
  9
$DRAGMODE
 70
     2
  9
$LTSCALE
 40
0.6431102362
  9
$OSMODE
 70
  2047
  9
$ATTMODE
 70
     1
  9
$TEXTSIZE
 40
0.2
  9
$TRACEWID
 40
0.05
  9
$TEXTSTYLE
  7
STANDARD
  9
$CLAYER
  8
0
  9
$CELTYPE
  6
BYLAYER
  9
$CECOLOR
 62
   256
  9
$DIMSCALE
 40
1.0
  9
$DIMASZ
 40
0.1875
  9
$DIMEXO
 40
0.0625
  9
$DIMDLI
 40
0.4443307087
  9
$DIMRND
 40
0.0
  9
$DIMDLE
 40
0.0
  9
$DIMEXE
 40
0.125
  9
$DIMTP
 40
0.01
  9
$DIMTM
 40
0.01
  9
$DIMTXT
 40
1.0
  9
$DIMCEN
 40
0.1052362205
  9
$DIMTSZ
 40
0.0
  9
$DIMTOL
 70
     1
  9
$DIMLIM
 70
     0
  9
$DIMTIH
 70
     1
  9
$DIMTOH
 70
     1
  9
$DIMSE1
 70
     0
  9
$DIMSE2
 70
     0
  9
$DIMTAD
 70
     0
  9
$DIMZIN
 70
     0
  9
$DIMBLK
  1

  9
$DIMASO
 70
     1
  9
$DIMSHO
 70
     1
  9
$DIMPOST
  1
\X
  9
$DIMAPOST
  1

  9
$DIMALT
 70
     1
  9
$DIMALTD
 70
     2
  9
$DIMALTF
 40
25.3999999999999986
  9
$DIMLFAC
 40
1.0
  9
$DIMTOFL
 70
     0
  9
$DIMTVP
 40
0.0
  9
$DIMTIX
 70
     0
  9
$DIMSOXD
 70
     0
  9
$DIMSAH
 70
     0
  9
$DIMBLK1
  1

  9
$DIMBLK2
  1

  9
$DIMSTYLE
  2
STANDARD
  9
$DIMCLRD
 70
     0
  9
$DIMCLRE
 70
     0
  9
$DIMCLRT
 70
     0
  9
$DIMTFAC
 40
1.0
  9
$DIMGAP
 40
0.09
  9
$LUNITS
 70
     2
  9
$LUPREC
 70
     4
  9
$SKETCHINC
 40
0.1
  9
$FILLETRAD
 40
0.0
  9
$AUNITS
 70
     0
  9
$AUPREC
 70
     0
  9
$MENU
  1
.
  9
$ELEVATION
 40
0.0
  9
$PELEVATION
 40
0.0
  9
$THICKNESS
 40
0.0
  9
$LIMCHECK
 70
     0
  9
$BLIPMODE
 70
     0
  9
$CHAMFERA
 40
0.0
  9
$CHAMFERB
 40
0.0
  9
$SKPOLY
 70
     0
  9
$TDCREATE
 40
2458172.4620254631154239
  9
$TDUPDATE
 40
2459044.843344908207655
  9
$TDINDWG
 40
0.0807929745
  9
$TDUSRTIMER
 40
0.0807929745
  9
$USRTIMER
 70
     1
  9
$ANGBASE
 50
0.0
  9
$ANGDIR
 70
     0
  9
$PDMODE
 70
     0
  9
$PDSIZE
 40
0.3125
  9
$PLINEWID
 40
0.0
  9
$COORDS
 70
     1
  9
$SPLFRAME
 70
     0
  9
$SPLINETYPE
 70
     6
  9
$SPLINESEGS
 70
     8
  9
$ATTDIA
 70
     1
  9
$ATTREQ
 70
     1
  9
$HANDLING
 70
     1
  9
$HANDSEED
  5
4B28
  9
$SURFTAB1
 70
     6
  9
$SURFTAB2
 70
     6
  9
$SURFTYPE
 70
     6
  9
$SURFU
 70
     6
  9
$SURFV
 70
     6
  9
$UCSNAME
  2

  9
$UCSORG
 10
0.0
 20
0.0
 30
0.0
  9
$UCSXDIR
 10
1.0
 20
0.0
 30
0.0
  9
$UCSYDIR
 10
0.0
 20
1.0
 30
0.0
  9
$PUCSNAME
  2

  9
$PUCSORG
 10
0.0
 20
0.0
 30
0.0
  9
$PUCSXDIR
 10
1.0
 20
0.0
 30
0.0
  9
$PUCSYDIR
 10
0.0
 20
1.0
 30
0.0
  9
$USERI1
 70
     0
  9
$USERI2
 70
     0
  9
$USERI3
 70
     0
  9
$USERI4
 70
     0
  9
$USERI5
 70
     0
  9
$USERR1
 40
0.0
  9
$USERR2
 40
0.0
  9
$USERR3
 40
0.0
  9
$USERR4
 40
0.0
  9
$USERR5
 40
0.0
  9
$WORLDVIEW
 70
     1
  9
$SHADEDGE
 70
     3
  9
$SHADEDIF
 70
    70
  9
$TILEMODE
 70
     1
  9
$MAXACTVP
 70
    64
  9
$PLIMCHECK
 70
     0
  9
$PEXTMIN
 10
1.0000000000000000E+20
 20
1.0000000000000000E+20
 30
1.0000000000000000E+20
  9
$PEXTMAX
 10
-1.0000000000000000E+20
 20
-1.0000000000000000E+20
 30
-1.0000000000000000E+20
  9
$PLIMMIN
 10
0.0
 20
0.0
  9
$PLIMMAX
 10
12.0
 20
9.0
  9
$UNITMODE
 70
     0
  9
$VISRETAIN
 70
     1
  9
$PLINEGEN
 70
     0
  9
$PSLTSCALE
 70
     1
  0
ENDSEC
  0
SECTION
  2
TABLES
  0
TABLE
  2
VPORT
 70
     1
  0
VPORT
  2
*ACTIVE
 70
     0
 10
0.0
 20
0.0
 11
1.0
 21
1.0
 12
-0.0171844944928381
 22
-13.4577230984085308
 13
0.0
 23
0.0
 14
1.0
 24
1.0
 15
0.0
 25
0.0
 16
0.0
 26
0.0
 36
30.6214257250603907
 17
124.6111586000725993
 27
5.3122741703778242
 37
0.0
 40
9.9946852409002052
 41
2.6486111111111108
 42
50.0
 43
0.0
 44
0.0
 50
0.0
 51
0.0
 71
     0
 72
   100
 73
     1
 74
     1
 75
     0
 76
     0
 77
     0
 78
     0
  0
ENDTAB
  0
TABLE
  2
LTYPE
 70
     2
  0
LTYPE
  2
CONTINUOUS
 70
     0
  3
Solid line
 72
    65
 73
     0
 40
0.0
  0
LTYPE
  2
PHANTOM2
 70
     0
  3
___ _ _ ___ _ _ ___ _ _ ___ _ _
 72
    65
 73
     6
 40
1.25
 49
0.625
 49
-0.125
 49
0.125
 49
-0.125
 49
0.125
 49
-0.125
  0
ENDTAB
  0
TABLE
  2
LAYER
 70
     2
  0
LAYER
  2
0
 70
     0
 62
   255
  6
CONTINUOUS
  0
LAYER
  2
DEFPOINTS
 70
     0
 62
     7
  6
CONTINUOUS
  0
ENDTAB
  0
TABLE
  2
STYLE
 70
     1
  0
STYLE
  2
STANDARD
 70
     0
 40
0.0
 41
0.8
 50
0.0
 71
     0
 42
0.2
  3
txt
  4

  0
ENDTAB
  0
TABLE
  2
VIEW
 70
     0
  0
ENDTAB
  0
TABLE
  2
UCS
 70
     0
  0
ENDTAB
  0
TABLE
  2
APPID
 70
     9
  0
APPID
  2
ACAD
 70
     0
  0
APPID
  2
ACAD_MLEADERVER
 70
     0
  0
APPID
  2
ACAD_EXEMPT_FROM_CAD_STANDARDS
 70
     0
  0
APPID
  2
ACAD_DSTYLE_DIMJAG
 70
     0
  0
APPID
  2
ACAD_DSTYLE_DIMTALN
 70
     0
  0
APPID
  2
ACAD_NAV_VCDISPLAY
 70
     0
  0
APPID
  2
ACAECLAYERSTANDARD
 70
     0
  0
APPID
  2
ACCMTRANSPARENCY
 70
     0
  0
APPID
  2
ACDBATTR
 70
     0
  0
ENDTAB
  0
TABLE
  2
DIMSTYLE
 70
     1
  0
DIMSTYLE
  2
STANDARD
 70
     0
  3

  4

  5

  6

  7

 40
1.0
 41
0.1875
 42
0.0625
 43
0.38
 44
0.125
 45
0.0
 46
0.0
 47
0.01
 48
0.01
140
0.15625
141
0.09
142
0.0
143
25.3999999999999986
144
1.0
145
0.0
146
1.0
147
0.09
 71
     1
 72
     0
 73
     1
 74
     1
 75
     0
 76
     0
 77
     0
 78
     4
170
     0
171
     2
172
     0
173
     0
174
     0
175
     0
176
     0
177
     0
178
     0
  0
ENDTAB
  0
ENDSEC
  0
SECTION
  2
BLOCKS
  0
BLOCK
  8
0
  2
$MODEL_SPACE
 70
     0
 10
0.0
 20
0.0
 30
0.0
  3
$MODEL_SPACE
  1

  0
ENDBLK
  5
21
  8
0
  0
BLOCK
 67
     1
  8
0
  2
$PAPER_SPACE
 70
     0
 10
0.0
 20
0.0
 30
0.0
  3
$PAPER_SPACE
  1

  0
ENDBLK
  5
1D
 67
     1
  8
0
  0
BLOCK
  8
0
  2
_FILLED
 70
     0
 10
0.0
 20
0.0
 30
0.0
  3
_FILLED
  1

  0
SOLID
  5
364D
  8
0
  6
BYBLOCK
 62
     0
 10
0.0
 20
0.0
 30
0.0
 11
-1.0
 21
0.1666666667
 31
0.0
 12
-1.0
 22
-0.1666666667
 32
0.0
 13
-1.0
 23
-0.1666666667
 33
0.0
  0
ENDBLK
  5
364E
  8
0
  6
BYBLOCK
 62
     0
  0
BLOCK
  8
0
  2
A$C66DC7577
 70
     0
 10
0.0
 20
0.0
 30
0.0
  3
A$C66DC7577
  1

  0
LINE
  5
45CE
  8
0
 10
-1.354083621964004
 20
0.0
 30
0.0
 11
1.354083621964008
 21
0.0
 31
0.0
  0
ARC
  5
45CF
  8
0
 10
-1.354083621964004
 20
0.0200003966660161
 30
0.0
 40
0.0200003966686255
 50
155.8421878178016016
 51
270.0009259752965818
  0
LINE
  5
45D0
  8
0
 10
-1.3723324179312391
 20
0.0281855852801369
 30
0.0
 11
-1.3486219845500209
 21
0.0810416769654325
 31
0.0
  0
ARC
  5
45D1
  8
0
 10
-1.293826830474202
 20
0.0564362935197873
 30
0.0
 40
0.0600660786525985
 50
116.9541699343147059
 51
155.8178667171513894
  0
ARC
  5
45D2
  8
0
 10
-2.9978529677750099
 20
3.4073994752164558
 30
0.0
 40
3.6992768588420621
 50
296.9541699343146774
 51
298.5729759055740828
  0
ARC
  5
45D3
  8
0
 10
-1.9227744672927889
 20
1.4333512292985779
 30
0.0
 40
1.4514645313977641
 50
298.5729759055740828
 51
309.0991471511533177
  0
ARC
  5
45D4
  8
0
 10
-1.200804888836593
 20
0.5449408435015788
 30
0.0
 40
0.3066880965388918
 50
309.0991471511533177
 51
336.5868126447645068
  0
ARC
  5
45D5
  8
0
 10
-0.881758482867518
 20
0.4094350062051202
 30
0.0
 40
0.0400072268495709
 50
90.9071554475064829
 51
160.0651398381588137
  0
ARC
  5
45D6
  8
0
 10
0.8807265463428883
 20
0.4094341694157833
 30
0.0
 40
0.0400080635921675
 50
19.9339405046603311
 51
89.0928582670439937
  0
ARC
  5
45D7
  8
0
 10
1.1459155806201791
 20
0.5056089740410618
 30
0.0
 40
0.2420820229859276
 50
199.9339405046607965
 51
233.3928462989121044
  0
ARC
  5
45D8
  8
0
 10
1.9607238840147261
 20
1.4761435549859601
 30
0.0
 40
1.5089439136205269
 50
230.5314111751021926
 51
244.8744505472681112
  0
ARC
  5
45D9
  8
0
 10
1.2903102348891691
 20
0.0540672359317451
 30
0.0
 40
0.0633136198249021
 50
25.2156014783430003
 51
62.0130154234590165
  0
LINE
  5
45DA
  8
0
 10
1.347590768286814
 20
0.0810404624538634
 30
0.0
 11
1.3712965309083951
 21
0.0281948586199796
 31
0.0
  0
ARC
  5
45DB
  8
0
 10
1.352982583507035
 20
0.0200238357767138
 30
0.0
 40
0.0200540839954492
 50
273.1473186941150857
 51
24.0446640150489799
  0
LINE
  5
45DC
  8
0
 10
-0.5735113111756079
 20
2.8345273150693018
 30
0.0
 11
0.5724795539131265
 21
2.8345273150693018
 31
0.0
  0
LINE
  5
45DD
  8
0
 10
-0.5821597526858362
 20
2.8548574813692862
 30
0.0
 11
0.5832555309983967
 21
2.8548574813692862
 31
0.0
  0
LINE
  5
45DE
  8
0
 10
1.3475932036854339
 20
0.0810369530715503
 30
0.0
 11
-1.34862496095814
 21
0.0810369530715503
 31
0.0
  0
LINE
  5
45DF
  8
0
 10
-0.8823918848003806
 20
0.4494372186712386
 30
0.0
 11
0.8813599519479247
 21
0.4494372186712386
 31
0.0
  0
ARC
  5
45E0
  8
0
 10
-99.3220526598897351
 20
8.5547925152787734
 30
0.0
 40
98.4521511872640644
 50
355.1077975948920198
 51
357.8698920288575778
  0
ARC
  5
45E1
  8
0
 10
-0.0913445546276748
 20
3.0614502450247669
 30
0.0
 40
1.834183308669723
 50
90.8305325730060957
 51
99.9382080083427553
  0
ARC
  5
45E2
  8
0
 10
-0.1015960513108993
 20
3.1199582822660248
 30
0.0
 40
1.774783951719749
 50
99.9382080083427553
 51
104.713670818416702
  0
ARC
  5
45E3
  8
0
 10
-0.5392679521901727
 20
4.777455611698957
 30
0.0
 40
0.0605219195590812
 50
102.5037594426428029
 51
203.6819858210662915
  0
ARC
  5
45E4
  8
0
 10
0.3990583308229993
 20
5.1440361515980939
 30
0.0
 40
1.067865639936336
 50
201.4720744452926056
 51
255.8564282052471128
  0
ARC
  5
45E5
  8
0
 10
1.1509045486044149
 20
8.127656551026142
 30
0.0
 40
4.1447574844891193
 50
255.8564282052471128
 51
258.1871462521464764
  0
ARC
  5
45E6
  8
0
 10
0.3128394012472135
 20
4.1337611678174708
 30
0.0
 40
0.0639389892610394
 50
260.6102983641310971
 51
321.503257938407387
  0
ARC
  5
45E7
  8
0
 10
-0.0650780960144708
 20
4.5062506650253056
 30
0.0
 40
0.5942487453121652
 50
316.0683532051962743
 51
336.8887280531275792
  0
ARC
  5
45E8
  8
0
 10
-0.0512199808477227
 20
4.4765904002883259
 30
0.0
 40
0.5702790017744184
 50
339.0835537959004
 51
13.1769461303914603
  0
ARC
  5
45E9
  8
0
 10
-1.387485742841047
 20
4.2182683121865976
 30
0.0
 40
1.9309787556940929
 50
11.6013688829773791
 51
17.1456509611128496
  0
ARC
  5
45EA
  8
0
 10
0.3971179318833258
 20
4.7685095922806626
 30
0.0
 40
0.0634743534658271
 50
17.4314574641384112
 51
85.8757108960762992
  0
ARC
  5
45EB
  8
0
 10
-0.4309853778539754
 20
0.7059213695604796
 30
0.0
 40
4.2090821614883058
 50
78.5901069301644668
 51
83.2768201195172253
  0
ARC
  5
45EC
  8
0
 10
-0.1338959363640022
 20
2.863642398731995
 30
0.0
 40
2.031861179704769
 50
84.4735629389199403
 51
89.5498076483981436
  0
ARC
  5
45ED
  8
0
 10
-1.351493672207112
 20
4.2725359381174499
 30
0.0
 40
0.9660239075970277
 50
0.6413028956794595
 51
9.6639669739615996
  0
ARC
  5
45EE
  8
0
 10
-3.7896282792579181
 20
4.426614349866985
 30
0.0
 40
3.4071114434200682
 50
347.8579025878199786
 51
357.5900516501104107
  0
ARC
  5
45EF
  8
0
 10
25.2303096186255793
 20
-1.139938791373637
 30
0.0
 40
26.142853417942181
 50
169.308795100666913
 51
171.1593485732338991
  0
ARC
  5
45F0
  8
0
 10
-0.5820799022414676
 20
2.8749479697031441
 30
0.0
 40
0.0200906470176128
 50
171.6182660312408075
 51
269.772276843962004
  0
ARC
  5
45F1
  8
0
 10
-0.5705089283312433
 20
2.7946249294801371
 30
0.0
 40
0.0400151805999998
 50
94.3030089902874238
 51
173.0713240560997122
  0
ARC
  5
45F2
  8
0
 10
-207.6708300664053866
 20
28.2741958087874501
 30
0.0
 40
208.6217962898892893
 50
352.3447907679296804
 51
352.9861253022571077
  0
ARC
  5
45F3
  8
0
 10
-0.8785454844544808
 20
0.4794655220130073
 30
0.0
 40
0.0300573931710681
 50
172.5080434008854979
 51
267.4790304910656005
  0
ARC
  5
45F4
  8
0
 10
0.87741588053305
 20
0.4795622649621239
 30
0.0
 40
0.0301422117539636
 50
271.9337416277767829
 51
7.2850098885574903
  0
ARC
  5
45F5
  8
0
 10
207.6731410111258924
 20
28.2746752021022516
 30
0.0
 40
208.6251728367973897
 50
187.0138933378133004
 51
187.6552174316369985
  0
ARC
  5
45F6
  8
0
 10
0.5691268680859416
 20
2.794258565627977
 30
0.0
 40
0.0404080769627076
 50
7.3841008809029134
 51
85.2406585765720877
  0
ARC
  5
45F7
  8
0
 10
0.4926634773243635
 20
2.8549759135521802
 30
0.0
 40
0.0204501936032145
 50
180.3318160356232056
 51
269.2843701167267909
  0
ARC
  5
45F8
  8
0
 10
-0.4937359312826502
 20
2.8550099056337159
 30
0.0
 40
0.0204911142768837
 50
271.6526629605518792
 51
359.5737983074272961
  0
ARC
  5
45F9
  8
0
 10
2.306464791919836
 20
4.1262265391935742
 30
0.0
 40
1.896656506362068
 50
179.3058589693166027
 51
193.8177812105411135
  0
ARC
  5
45FA
  8
0
 10
-30.3350867162426603
 20
-2.0025959395530739
 30
0.0
 40
31.3183937388802214
 50
8.9652344708582774
 51
10.4414163922477403
  0
ARC
  5
45FB
  8
0
 10
0.5807344865699591
 20
2.874885515133335
 30
0.0
 40
0.0201860793980413
 50
277.1744176917454183
 51
8.6174796381044576
  0
ARC
  5
45FC
  8
0
 10
-0.5890780702559688
 20
4.5868128308214491
 30
0.0
 40
0.1667455408995025
 50
84.2553052551047728
 51
91.9766133608924008
  0
ARC
  5
45FD
  8
0
 10
0.2944678865098673
 20
33.542685406433641
 30
0.0
 40
28.8030118604229202
 50
268.275365876435103
 51
270.0197736871807024
  0
ARC
  5
45FE
  8
0
 10
0.3130015378316386
 20
5.0559984728543022
 30
0.0
 40
0.3164399129444383
 50
268.4438789805129204
 51
297.8876601629701781
  0
ARC
  5
45FF
  8
0
 10
-4.2343195825873137
 20
4.4773727724903987
 30
0.0
 40
4.6313689424090816
 50
358.3965922857973965
 51
3.360332933765624
  0
ARC
  5
4600
  8
0
 10
-1.395446623449011
 20
4.3979068943227091
 30
0.0
 40
1.791383994575797
 50
352.1530213852227007
 51
358.3965922857973965
  0
ARC
  5
4601
  8
0
 10
0.1451996644853857
 20
4.185577531663208
 30
0.0
 40
0.2361750881026424
 50
337.1750112335874974
 51
352.1530213852224165
  0
LINE
  5
4602
  8
0
 10
1.1585637504916659
 20
0.198078277060493
 30
0.0
 11
1.1575359337687621
 21
0.2350003077801372
 31
0.0
  0
ARC
  5
4603
  8
0
 10
1.9431840361531549
 20
0.4643473350578984
 30
0.0
 40
0.8184393683721156
 50
167.2481694619837924
 51
196.273623311317607
  0
ARC
  5
4604
  8
0
 10
-54.487934355579263
 20
-1.2329872037645151
 30
0.0
 40
55.6645540097235809
 50
1.9333880073250569
 51
2.954391142293268
  0
ARC
  5
4605
  8
0
 10
-33.315646503502343
 20
-0.1402938683521295
 30
0.0
 40
34.4640881748307493
 50
2.954391142293268
 51
5.6681561781479131
  0
ARC
  5
4606
  8
0
 10
-17.5718449527653391
 20
1.4223096705404721
 30
0.0
 40
18.6429309134687209
 50
5.6681561781479131
 51
11.6738310186822893
  0
ARC
  5
4607
  8
0
 10
-6.6363072043672062
 20
3.8260882579187681
 30
0.0
 40
7.4485520444014437
 50
10.5863943456400502
 51
31.5332964691269915
  0
ARC
  5
4608
  8
0
 10
-3.4675625010788842
 20
5.6526905966532404
 30
0.0
 40
3.7937412018906072
 50
33.0491022989819285
 51
65.5718512765946429
  0
ARC
  5
4609
  8
0
 10
-4.6266473058770989
 20
2.701587845088897
 30
0.0
 40
6.9619627334674661
 50
66.9308028002030113
 51
90.4628829625002453
  0
ARC
  5
460A
  8
0
 10
-4.8555586783449547
 20
-5.6081763082741318
 30
0.0
 40
15.2724757955523405
 50
89.3522119434086051
 51
97.9406848213053536
  0
ARC
  5
460B
  8
0
 10
-5.867916395216767
 20
2.0394048876514099
 30
0.0
 40
7.5585592921882636
 50
98.3488552906998166
 51
110.2614873811594975
  0
ARC
  5
460C
  8
0
 10
-8.4574039492030053
 20
9.0552942333304181
 30
0.0
 40
0.0800477283562872
 50
110.5360378903563969
 51
216.8323118072565023
  0
ARC
  5
460D
  8
0
 10
-6.5352243654603903
 20
10.5512728093104506
 30
0.0
 40
2.5157532946840102
 50
217.8588877990864887
 51
233.3735388413664111
  0
ARC
  5
460E
  8
0
 10
-8.0157145552038216
 20
8.5607655443556876
 30
0.0
 40
0.0350392691982506
 50
234.4001148331961133
 51
253.3864895126932026
  0
LINE
  5
460F
  8
0
 10
-8.0257327482075738
 20
8.5271889733151127
 30
0.0
 11
-6.9071831299312398
 21
8.2274745064801351
 31
0.0
  0
ARC
  5
4610
  8
0
 10
-6.8993191906838121
 20
8.2579029318848995
 30
0.0
 40
0.0314281818293781
 50
255.5095074014475074
 51
277.8911568042506133
  0
ARC
  5
4611
  8
0
 10
-13.2532143063412597
 20
58.6171872020286528
 30
0.0
 40
50.7899669445982127
 50
277.1915166600156226
 51
278.8315309359012986
  0
ARC
  5
4612
  8
0
 10
-3.942093498081884
 20
-0.4473531939497102
 30
0.0
 40
9.0048157359347591
 50
87.2864836458618356
 51
99.6750776139344907
  0
ARC
  5
4613
  8
0
 10
-3.5976016857891149
 20
5.9174532221278122
 30
0.0
 40
2.6311848310750681
 50
33.9596000308524566
 51
88.2181372369398957
  0
ARC
  5
4614
  8
0
 10
-5.5198601745043296
 20
5.3094348753358744
 30
0.0
 40
4.6005932022934681
 50
354.8371353196765199
 51
26.8490630685697589
  0
ARC
  5
4615
  8
0
 10
-9.1261180364861474
 20
30.7774655294970607
 30
0.0
 40
21.7785521722483892
 50
271.5909236181281017
 51
274.5545588229251734
  0
ARC
  5
4616
  8
0
 10
-8.0030862470018675
 20
16.6796361913851996
 30
0.0
 40
7.6360632665882697
 50
274.5545588229251734
 51
278.2259518484705723
  0
ARC
  5
4617
  8
0
 10
-4.7097046677186292
 20
-5.1441901013573759
 30
0.0
 40
14.4350872677075408
 50
88.2679040116290139
 51
98.7697606344608801
  0
ARC
  5
4618
  8
0
 10
-4.398648849374605
 20
3.2454130419105991
 30
0.0
 40
6.0401874940122333
 50
68.6565398569155292
 51
88.8117127976192648
  0
ARC
  5
4619
  8
0
 10
-3.4743811741066351
 20
6.1214174917992237
 30
0.0
 40
3.0307428566006971
 50
28.2827039528115094
 51
65.1405398550484449
  0
ARC
  5
461A
  8
0
 10
-7.9892097204231858
 20
3.748881554841565
 30
0.0
 40
8.1309070270321246
 50
8.0396669054686196
 51
27.9309092182365895
  0
LINE
  5
461B
  8
0
 10
0.0
 20
-3.1884777704674008
 30
0.0
 11
0.0
 21
-13.1046828095715462
 31
0.0
  0
ENDBLK
  5
461F
  8
0
  0
ENDSEC
  0
SECTION
  2
ENTITIES
  0
ATTDEF
  5
3AA2
  8
DEFPOINTS
 10
124.5933798082947987
 20
-4.5689758746525291
 30
0.0
 40
0.001
  1
K-5323T-4
  3

  2
MODELNUMBER
 70
     0
1001
ACDBATTR
1070
     0
1070
     1
  0
ATTDEF
  5
3AA3
  8
DEFPOINTS
 10
124.5933798082947987
 20
-4.5706425413191951
 30
0.0
 40
0.001
  1
REFINIA
  3

  2
TRADENAME
 70
     0
1001
ACDBATTR
1070
     0
1070
     1
  0
ATTDEF
  5
3AA4
  8
DEFPOINTS
 10
124.5933798082947987
 20
-4.5723092079858603
 30
0.0
 40
0.001
  1
BATHROOM SINK FAUCET
  3

  2
PRODUCT
 70
     0
1001
ACDBATTR
1070
     0
1070
     1
  0
ARC
  5
471F
  8
0
 10
124.6939690519846948
 20
-4.6860333511777741
 30
0.0
 40
1.2948894480688591
 50
98.4166025151263284
 51
123.5742664072239023
  0
ARC
  5
4720
  8
0
 10
124.997177848075907
 20
-5.2428637558437092
 30
0.0
 40
1.9272972965852091
 50
121.9296788804522009
 51
144.3310415930783108
  0
ARC
  5
4721
  8
0
 10
124.7407322410464019
 20
-5.0410719541534137
 30
0.0
 40
1.6013607287246721
 50
144.8463382251725875
 51
147.9959117239160946
  0
ARC
  5
4722
  8
0
 10
123.4503530823949973
 20
-4.2354699153872568
 30
0.0
 40
0.0801563457822951
 50
147.4840770541190977
 51
188.6897227205942045
  0
ARC
  5
4723
  8
0
 10
126.3047362454019975
 20
-3.9171389094969351
 30
0.0
 40
2.9521711008611491
 50
186.4266772790741129
 51
207.9179485304015884
  0
ARC
  5
4724
  8
0
 10
123.3111041641574985
 20
-4.3873688598466218
 30
0.0
 40
0.1724453573470157
 50
22.1600889844944007
 51
69.7437321910080641
  0
ARC
  5
4725
  8
0
 10
120.7590708506970003
 20
-5.4267612050604672
 30
0.0
 40
2.9280234237972489
 50
13.0987552791394108
 51
22.160088984494589
  0
ARC
  5
4726
  8
0
 10
119.8825771495308032
 20
-5.630707606163381
 30
0.0
 40
3.8279319428739011
 50
4.9656887999819652
 51
13.0987552791394108
  0
ARC
  5
4727
  8
0
 10
101.0515529334945057
 20
-7.2668461909348219
 30
0.0
 40
22.7299006893702717
 50
355.7668314449081777
 51
4.9656887999819652
  0
ARC
  5
4728
  8
0
 10
168.5990565179180862
 20
-11.5830461777141593
 30
0.0
 40
44.9570976453484192
 50
176.6355709683683983
 51
179.8671640847371123
  0
ARC
  5
4729
  8
0
 10
126.5537570864905064
 20
-11.46674788241382
 30
0.0
 40
2.911702401892363
 50
180.237487045888912
 51
189.7952137652781914
  0
ARC
  5
472A
  8
0
 10
125.6412328465293058
 20
-11.6568495395962302
 30
0.0
 40
1.980399306714778
 50
188.8669025222021105
 51
210.6358472960095867
  0
ARC
  5
472B
  8
0
 10
124.7317439221254034
 20
-12.2149001320419295
 30
0.0
 40
0.9136351298987602
 50
209.5883404759908899
 51
247.5304064831275923
  0
ARC
  5
472C
  8
0
 10
124.5970645172846929
 20
-12.5183710928379597
 30
0.0
 40
0.5817910560099891
 50
248.3646132867993117
 51
269.585395471365473
  0
ARC
  5
472D
  8
0
 10
124.5940761772791063
 20
-4.149469943567853
 30
0.0
 40
0.7497578962380106
 50
90.0933526178204147
 51
96.8666040545713258
  0
ARC
  5
472E
  8
0
 10
124.5937961648538987
 20
-4.0889528600885843
 30
0.0
 40
0.6838195825301704
 50
90.0788926196703557
 51
97.9086721619727882
  0
ARC
  5
472F
  8
0
 10
124.6082227864643954
 20
-4.192804456977794
 30
0.0
 40
0.788668433680448
 50
97.908672158258824
 51
102.0815483839334945
  0
ARC
  5
4730
  8
0
 10
124.5601525572983945
 20
-3.968224028430837
 30
0.0
 40
0.5590010310774538
 50
102.0815483839334945
 51
106.6630242038370966
  0
ARC
  5
4731
  8
0
 10
124.4290697152025018
 20
-3.5302755128075112
 30
0.0
 40
0.1018559623863185
 50
106.6630242038370966
 51
113.0076720392318066
  0
ARC
  5
4732
  8
0
 10
124.3911565010235023
 20
-3.4409908193840208
 30
0.0
 40
0.0048550949205601
 50
113.0076720392502949
 51
130.4000682603719099
  0
ARC
  5
4733
  8
0
 10
124.3883706524361941
 20
-3.4376916360503582
 30
0.0
 40
0.0005373373909366
 50
132.1854450969958918
 51
158.2227929464764031
  0
ARC
  5
4734
  8
0
 10
124.388039923982106
 20
-3.4375570415167882
 30
0.0
 40
0.0001802920413291
 50
158.9503521430397939
 51
199.2828318014003059
  0
ARC
  5
4735
  8
0
 10
124.3880823564705054
 20
-3.4375421961429931
 30
0.0
 40
0.0002252464759794
 50
199.2828318009057114
 51
250.1872258650647041
  0
ARC
  5
4736
  8
0
 10
124.389796989720594
 20
-3.4292050589926371
 30
0.0
 40
0.008734636166196
 50
258.1679568352784031
 51
277.0549589062586051
  0
ARC
  5
4737
  8
0
 10
124.3520593016398976
 20
-3.0844739172116329
 30
0.0
 40
0.3555243506871184
 50
276.2671305750197916
 51
279.7424619293319097
  0
ARC
  5
4738
  8
0
 10
124.7751968906113973
 20
-5.6445595400916568
 30
0.0
 40
2.2393023083278711
 50
98.0795778099444391
 51
99.3284175660442656
  0
ARC
  5
4739
  8
0
 10
124.5976000520097955
 20
-4.3862055909996487
 30
0.0
 40
0.9684786123475264
 50
90.2807455585682987
 51
98.1402520146574631
  0
ARC
  5
473A
  8
0
 10
124.5928545849720024
 20
-4.033185738202631
 30
0.0
 40
0.6199999999995393
 50
89.9999991867672833
 51
99.2193609392258224
  0
ARC
  5
473B
  8
0
 10
124.5928545849758962
 20
-4.0331857382264227
 30
0.0
 40
0.6200000000236401
 50
99.219360939224174
 51
102.3292362103255044
  0
ARC
  5
473C
  8
0
 10
124.4917401267593959
 20
-4.6860333511777741
 30
0.0
 40
1.2948894480688591
 50
56.4257335927760835
 51
81.5833974848736716
  0
ARC
  5
473D
  8
0
 10
124.1885313306681979
 20
-5.2428637558437092
 30
0.0
 40
1.9272972965852091
 50
35.6689584069215968
 51
58.0703211195477493
  0
ARC
  5
473E
  8
0
 10
124.4449769376977031
 20
-5.0410719541534137
 30
0.0
 40
1.6013607287246721
 50
32.0040882760838912
 51
35.1536617748273414
  0
ARC
  5
473F
  8
0
 10
125.735356096349193
 20
-4.2354699153872568
 30
0.0
 40
0.0801563457822951
 50
351.3102772794056818
 51
32.5159229458808596
  0
ARC
  5
4740
  8
0
 10
122.8809729333420933
 20
-3.9171389094969351
 30
0.0
 40
2.9521711008611491
 50
332.0820514695982979
 51
353.5733227209257734
  0
ARC
  5
4741
  8
0
 10
125.8746050145866064
 20
-4.3873688598466218
 30
0.0
 40
0.1724453573470157
 50
110.2562678089911969
 51
157.8399110155056064
  0
ARC
  5
4742
  8
0
 10
128.4266383280472041
 20
-5.4267612050604672
 30
0.0
 40
2.9280234237972489
 50
157.8399110155054075
 51
166.9012447208606034
  0
ARC
  5
4743
  8
0
 10
129.3031320292132875
 20
-5.630707606163381
 30
0.0
 40
3.8279319428739011
 50
166.9012447208606034
 51
175.0343112000180099
  0
ARC
  5
4744
  8
0
 10
148.1341562452496987
 20
-7.2668461909348219
 30
0.0
 40
22.7299006893702717
 50
175.0343112000180099
 51
184.2331685550917939
  0
ARC
  5
4745
  8
0
 10
80.5866526608260187
 20
-11.5830461777141593
 30
0.0
 40
44.9570976453484192
 50
0.1328359152628796
 51
3.3644290316315701
  0
ARC
  5
4746
  8
0
 10
122.6319520922535986
 20
-11.46674788241382
 30
0.0
 40
2.911702401892363
 50
350.2047862347218938
 51
359.7625129541111164
  0
ARC
  5
4747
  8
0
 10
123.5444763322148987
 20
-11.6568495395962302
 30
0.0
 40
1.980399306714778
 50
329.3641527039904986
 51
351.1330974777978895
  0
ARC
  5
4748
  8
0
 10
124.453965256618801
 20
-12.2149001320419295
 30
0.0
 40
0.9136351298987602
 50
292.4695935168724077
 51
330.4116595240091101
  0
ARC
  5
4749
  8
0
 10
124.5886446614594973
 20
-12.5183710928379597
 30
0.0
 40
0.5817910560099891
 50
270.414604528634527
 51
291.6353867132007167
  0
ARC
  5
474A
  8
0
 10
128.5258872744842904
 20
-4.5727573231050354
 30
0.0
 40
0.6108484291230104
 50
46.2061363095079614
 51
89.6271491882985316
  0
ARC
  5
474B
  8
0
 10
128.5260211142667117
 20
-4.5564318193367308
 30
0.0
 40
0.5945224007112023
 50
89.6298090677624799
 51
135.2590802389167095
  0
ARC
  5
474C
  8
0
 10
128.5331881329626071
 20
-4.5635343136632454
 30
0.0
 40
0.6046125732887752
 50
135.2590802389169085
 51
224.7409197610832052
  0
ARC
  5
474D
  8
0
 10
128.5247341544308881
 20
-4.5719121813800259
 30
0.0
 40
0.5927105389881198
 50
224.7409197610832052
 51
270.4957606252851861
  0
ARC
  5
474E
  8
0
 10
128.5245563510281102
 20
-4.5513636952616903
 30
0.0
 40
0.6132597943470265
 50
270.4957606252851861
 51
313.9650595441257792
  0
ARC
  5
474F
  8
0
 10
137.2742139279453966
 20
40.3587117756481035
 30
0.0
 40
46.1090463251178306
 50
259.599551508694617
 51
260.031929244052094
  0
ARC
  5
4750
  8
0
 10
130.9725340480524096
 20
4.5608973335463299
 30
0.0
 40
9.7608109040420636
 50
260.0904750453802876
 51
262.6678745559416939
  0
ARC
  5
4751
  8
0
 10
130.2740765451721074
 20
-1.8947514240799721
 30
0.0
 40
3.271441102773982
 50
260.370685670114824
 51
284.5854984721883056
  0
ARC
  5
4752
  8
0
 10
130.6987604151188123
 20
-3.6115156461542788
 30
0.0
 40
1.5032086546503991
 50
285.3983650641155236
 51
334.4587639641721921
  0
ARC
  5
4753
  8
0
 10
132.0003291954689928
 20
-4.2347367137507614
 30
0.0
 40
0.0603312625175694
 50
0.1842625468443145
 51
83.7712770637523505
  0
ARC
  5
4754
  8
0
 10
129.6298199795525932
 20
-23.5231969204549287
 30
0.0
 40
19.4939051944409201
 50
82.9960153614637051
 51
87.3110135226817334
  0
ARC
  5
4755
  8
0
 10
130.2012148706002108
 20
-13.0343574436385303
 30
0.0
 40
8.9901525568120295
 50
87.8125100542875714
 51
92.5475235823450504
  0
ARC
  5
4756
  8
0
 10
130.1958459488654967
 20
-13.0456420240447599
 30
0.0
 40
9.0011892575604904
 50
92.510189535067866
 51
95.6924389077925355
  0
ARC
  5
4757
  8
0
 10
129.6318579955513997
 20
-8.2823115419955062
 30
0.0
 40
4.2063434096602608
 50
94.4836044582636276
 51
99.3477910471662682
  0
ARC
  5
4758
  8
0
 10
130.7983599161335064
 20
-15.6456047187534608
 30
0.0
 40
11.5343292154449095
 50
83.9857678215222165
 51
84.8773610231420292
  0
ARC
  5
4759
  8
0
 10
130.5490929163198075
 20
-18.4261778026833198
 30
0.0
 40
14.3260528250222094
 50
84.8773610231420292
 51
86.8163248467778459
  0
ARC
  5
475A
  8
0
 10
130.724566201191692
 20
-15.2714811755408899
 30
0.0
 40
11.1664798027599392
 50
86.8163248467778459
 51
90.8669052295519037
  0
ARC
  5
475B
  8
0
 10
130.7503262154747858
 20
-16.9738904110952085
 30
0.0
 40
12.8690839210553598
 50
90.8669052295519037
 51
95.2456764871097477
  0
ARC
  5
475C
  8
0
 10
127.6413521372381012
 20
13.8297380087653092
 30
0.0
 40
18.0919381733386189
 50
273.3498385797088872
 51
276.1314558260007175
  0
ARC
  5
475D
  8
0
 10
128.4862017233377003
 20
-1.8107426731955429
 30
0.0
 40
2.4298378470600688
 50
266.2695707187996277
 51
275.0125841444483967
  0
ARC
  5
475E
  8
0
 10
128.3517412458859894
 20
-3.8729649658914211
 30
0.0
 40
0.3632366749806803
 50
241.1353460567601985
 51
266.2699953900796004
  0
ARC
  5
475F
  8
0
 10
128.2966264075182039
 20
-3.972951060622234
 30
0.0
 40
0.2490663436864841
 50
228.5314937198861003
 51
241.1353460567601985
  0
ARC
  5
4760
  8
0
 10
127.7423634529960026
 20
-4.6001256839869749
 30
0.0
 40
0.5879255505086727
 50
48.5314937198868677
 51
51.9645980921264297
  0
ARC
  5
4761
  8
0
 10
128.5364289419242994
 20
-4.5697234111792344
 30
0.0
 40
1.380121439420029
 50
90.2726036300324637
 51
179.7410087001804868
  0
ARC
  5
4762
  8
0
 10
128.5363389891460884
 20
-4.5508172958937907
 30
0.0
 40
1.3612151101441241
 50
21.4508526796763306
 51
90.2726036300324637
  0
ARC
  5
4763
  8
0
 10
128.5241001914401124
 20
-4.5573401180039301
 30
0.0
 40
1.3794258716759471
 50
270.2393380376556138
 51
335.5347398819245086
  0
ARC
  5
4764
  8
0
 10
128.5241498784679948
 20
-4.5689267819827801
 30
0.0
 40
1.3678391012333071
 50
179.7720524587259092
 51
270.2392841491516151
  0
ARC
  5
4765
  8
0
 10
131.9928374038649963
 20
-4.233258594266716
 30
0.0
 40
0.0678348969977537
 50
344.9363016232089763
 51
358.9153424998061155
  0
ARC
  5
4766
  8
0
 10
132.0108629183773985
 20
-4.238119739524139
 30
0.0
 40
0.049165408931759
 50
334.0420987357028935
 51
344.9472602385912978
  0
ARC
  5
4767
  8
0
 10
124.5916330014649986
 20
-4.149469943567885
 30
0.0
 40
0.7497578962380425
 50
83.1333959454294842
 51
89.9066473821795853
  0
ARC
  5
4768
  8
0
 10
124.5919130138903057
 20
-4.0889528600885621
 30
0.0
 40
0.6838195825301492
 50
82.091327838027226
 51
89.9211073803296443
  0
ARC
  5
4769
  8
0
 10
124.5774863922796953
 20
-4.192804456977794
 30
0.0
 40
0.788668433680448
 50
77.9184516160664344
 51
82.0913278417412045
  0
ARC
  5
476A
  8
0
 10
124.6255566214456962
 20
-3.968224028430837
 30
0.0
 40
0.5590010310774538
 50
73.3369757961628892
 51
77.9184516160664344
  0
ARC
  5
476B
  8
0
 10
124.7566394635416032
 20
-3.5302755128075112
 30
0.0
 40
0.1018559623863185
 50
66.9923279607681508
 51
73.3369757961628892
  0
ARC
  5
476C
  8
0
 10
124.7945526777207021
 20
-3.4409908193840208
 30
0.0
 40
0.0048550949205601
 50
49.5999317396280688
 51
66.9923279607496625
  0
ARC
  5
476D
  8
0
 10
124.7973385263078967
 20
-3.4376916360503582
 30
0.0
 40
0.0005373373909366
 50
21.7772070535235507
 51
47.8145549030039376
  0
ARC
  5
476E
  8
0
 10
124.7976692547620985
 20
-3.4375570415167882
 30
0.0
 40
0.0001802920413291
 50
340.7171681985996088
 51
21.0496478569600995
  0
ARC
  5
476F
  8
0
 10
124.7976268222736991
 20
-3.4375421961429931
 30
0.0
 40
0.0002252464759794
 50
289.8127741349352959
 51
340.7171681990943171
  0
ARC
  5
4770
  8
0
 10
124.7959121890234968
 20
-3.4292050589926371
 30
0.0
 40
0.008734636166196
 50
262.9450410937413949
 51
281.8320431647215969
  0
ARC
  5
4771
  8
0
 10
124.8336498771041931
 20
-3.0844739172116329
 30
0.0
 40
0.3555243506871184
 50
260.257538070668204
 51
263.7328694249802084
  0
ARC
  5
4772
  8
0
 10
124.4105122881326935
 20
-5.6445595400916568
 30
0.0
 40
2.2393023083278711
 50
80.6715824339557344
 51
81.9204221900555467
  0
ARC
  5
4773
  8
0
 10
124.5881091267343947
 20
-4.3862055909996487
 30
0.0
 40
0.9684786123475264
 50
81.8597479853425369
 51
89.719254441431687
  0
ARC
  5
4774
  8
0
 10
124.5928545937721026
 20
-4.0331857382026728
 30
0.0
 40
0.619999999999582
 50
80.780639060775016
 51
90.0000000000016058
  0
ARC
  5
4775
  8
0
 10
124.5928545937681946
 20
-4.0331857382264227
 30
0.0
 40
0.6200000000236401
 50
77.6707637896745382
 51
80.780639060776636
  0
ARC
  5
4776
  8
0
 10
120.6598219042598004
 20
-4.5727573231050354
 30
0.0
 40
0.6108484291230104
 50
90.3728508117014826
 51
133.7938636904920031
  0
ARC
  5
4777
  8
0
 10
120.6596880644773933
 20
-4.5564318193367308
 30
0.0
 40
0.5945224007112023
 50
44.7409197610832408
 51
90.3701909322375343
  0
ARC
  5
4778
  8
0
 10
120.6525210457814978
 20
-4.5635343136632454
 30
0.0
 40
0.6046125732887752
 50
315.2590802389167948
 51
44.7409197610830986
  0
ARC
  5
4779
  8
0
 10
120.6609750243132027
 20
-4.5719121813800259
 30
0.0
 40
0.5927105389881198
 50
269.5042393747148139
 51
315.2590802389167948
  0
ARC
  5
477A
  8
0
 10
120.6611528277160943
 20
-4.5513636952616903
 30
0.0
 40
0.6132597943470265
 50
226.0349404558741924
 51
269.5042393747148139
  0
ARC
  5
477B
  8
0
 10
111.9114952507987937
 20
40.3587117756481035
 30
0.0
 40
46.1090463251178306
 50
279.9680707559471102
 51
280.4004484913062925
  0
ARC
  5
477C
  8
0
 10
118.2131751306916954
 20
4.5608973335463299
 30
0.0
 40
9.7608109040420636
 50
277.3321254440581924
 51
279.9095249546195987
  0
ARC
  5
477D
  8
0
 10
118.911632633572097
 20
-1.8947514240799721
 30
0.0
 40
3.271441102773982
 50
255.4145015278116944
 51
279.629314329885176
  0
ARC
  5
477E
  8
0
 10
118.4869487636253069
 20
-3.6115156461542788
 30
0.0
 40
1.5032086546503991
 50
205.5412360358276942
 51
254.6016349358845048
  0
ARC
  5
477F
  8
0
 10
117.185379983275098
 20
-4.2347367137507614
 30
0.0
 40
0.0603312625175694
 50
96.2287229362476353
 51
179.8157374531556911
  0
ARC
  5
4780
  8
0
 10
119.5558891991915971
 20
-23.5231969204549287
 30
0.0
 40
19.4939051944409201
 50
92.6889864773182524
 51
97.0039846385362949
  0
ARC
  5
4781
  8
0
 10
118.9844943081439936
 20
-13.0343574436385303
 30
0.0
 40
8.9901525568120295
 50
87.4524764176549354
 51
92.1874899457116186
  0
ARC
  5
4782
  8
0
 10
118.9898632298785941
 20
-13.0456420240447599
 30
0.0
 40
9.0011892575604904
 50
84.3075610922074787
 51
87.4898104649321624
  0
ARC
  5
4783
  8
0
 10
119.5538511831927053
 20
-8.2823115419955062
 30
0.0
 40
4.2063434096602608
 50
80.6522089528337176
 51
85.5163955417363866
  0
ARC
  5
4784
  8
0
 10
118.387349262610698
 20
-15.6456047187534608
 30
0.0
 40
11.5343292154449095
 50
95.1226389768579992
 51
96.0142321784777835
  0
ARC
  5
4785
  8
0
 10
118.6366162624242975
 20
-18.4261778026833198
 30
0.0
 40
14.3260528250222094
 50
93.1836751532221541
 51
95.1226389768579992
  0
ARC
  5
4786
  8
0
 10
118.4611429775524982
 20
-15.2714811755408899
 30
0.0
 40
11.1664798027599392
 50
89.1330947704481247
 51
93.1836751532221541
  0
ARC
  5
4787
  8
0
 10
118.4353829632693049
 20
-16.9738904110952085
 30
0.0
 40
12.8690839210553598
 50
84.7543235128910482
 51
89.1330947704481247
  0
ARC
  5
4788
  8
0
 10
121.5443570415060037
 20
13.8297380087653092
 30
0.0
 40
18.0919381733386189
 50
263.8685441739992825
 51
266.6501614202902033
  0
ARC
  5
4789
  8
0
 10
120.6995074554064047
 20
-1.8107426731955429
 30
0.0
 40
2.4298378470600688
 50
264.9874158555514896
 51
273.7304292812003723
  0
ARC
  5
478A
  8
0
 10
120.8339679328581013
 20
-3.8729649658914211
 30
0.0
 40
0.3632366749806803
 50
273.7300046099202859
 51
298.8646539432397731
  0
ARC
  5
478B
  8
0
 10
120.8890827712259011
 20
-3.972951060622234
 30
0.0
 40
0.2490663436864841
 50
298.8646539432397731
 51
311.4685062801138997
  0
ARC
  5
478C
  8
0
 10
121.4433457257481024
 20
-4.6001256839869749
 30
0.0
 40
0.5879255505086727
 50
128.0354019078735064
 51
131.4685062801131039
  0
ARC
  5
478D
  8
0
 10
120.6492802368199051
 20
-4.5697234111792344
 30
0.0
 40
1.380121439420029
 50
0.2589912998194652
 51
89.7273963699675363
  0
ARC
  5
478E
  8
0
 10
120.6493701895980024
 20
-4.5508172958937907
 30
0.0
 40
1.3612151101441241
 50
89.7273963699675363
 51
158.5491473203236126
  0
ARC
  5
478F
  8
0
 10
120.6616089873041062
 20
-4.5573401180039301
 30
0.0
 40
1.3794258716759471
 50
204.4652601180754914
 51
269.7606619623443862
  0
ARC
  5
4790
  8
0
 10
120.6615593002761955
 20
-4.5689267819827801
 30
0.0
 40
1.3678391012333071
 50
269.7607158508483849
 51
0.2279475412740957
  0
ARC
  5
4791
  8
0
 10
117.1928717748791939
 20
-4.233258594266716
 30
0.0
 40
0.0678348969977537
 50
181.0846575001937993
 51
195.0636983767907964
  0
ARC
  5
4792
  8
0
 10
117.1748462603667065
 20
-4.238119739524139
 30
0.0
 40
0.049165408931759
 50
195.0527397614087022
 51
205.9579012642971065
  0
ENDSEC
  0
EOF
