  0
SECTION
  2
HEADER
  9
$ACADVER
  1
AC1009
  9
$INSBASE
 10
138.93472817759951
 20
-21.7789205968197415
 30
0.0
  9
$EXTMIN
 10
133.623422696085612
 20
-21.7797841269504708
 30
-0.0015258207003583
  9
$EXTMAX
 10
140.0558448291947116
 20
-15.5032684686802202
 30
0.0000000349246037
  9
$LIMMIN
 10
0.0
 20
0.0
  9
$LIMMAX
 10
11.6929133858000007
 20
8.2677165353999982
  9
$ORTHOMODE
 70
     0
  9
$REGENMODE
 70
     1
  9
$FILLMODE
 70
     1
  9
$QTEXTMODE
 70
     0
  9
$MIRRTEXT
 70
     0
  9
$DRAGMODE
 70
     2
  9
$LTSCALE
 40
0.6431102362
  9
$OSMODE
 70
  4095
  9
$ATTMODE
 70
     1
  9
$TEXTSIZE
 40
0.2
  9
$TRACEWID
 40
0.05
  9
$TEXTSTYLE
  7
STANDARD
  9
$CLAYER
  8
0
  9
$CELTYPE
  6
BYLAYER
  9
$CECOLOR
 62
   256
  9
$DIMSCALE
 40
1.0
  9
$DIMASZ
 40
0.1875
  9
$DIMEXO
 40
0.0625
  9
$DIMDLI
 40
0.4443307087
  9
$DIMRND
 40
0.0
  9
$DIMDLE
 40
0.0
  9
$DIMEXE
 40
0.125
  9
$DIMTP
 40
0.01
  9
$DIMTM
 40
0.01
  9
$DIMTXT
 40
1.0
  9
$DIMCEN
 40
0.1052362205
  9
$DIMTSZ
 40
0.0
  9
$DIMTOL
 70
     1
  9
$DIMLIM
 70
     0
  9
$DIMTIH
 70
     1
  9
$DIMTOH
 70
     1
  9
$DIMSE1
 70
     0
  9
$DIMSE2
 70
     0
  9
$DIMTAD
 70
     0
  9
$DIMZIN
 70
     0
  9
$DIMBLK
  1

  9
$DIMASO
 70
     1
  9
$DIMSHO
 70
     1
  9
$DIMPOST
  1
\X
  9
$DIMAPOST
  1

  9
$DIMALT
 70
     1
  9
$DIMALTD
 70
     2
  9
$DIMALTF
 40
25.3999999999999986
  9
$DIMLFAC
 40
1.0
  9
$DIMTOFL
 70
     0
  9
$DIMTVP
 40
0.0
  9
$DIMTIX
 70
     0
  9
$DIMSOXD
 70
     0
  9
$DIMSAH
 70
     0
  9
$DIMBLK1
  1

  9
$DIMBLK2
  1

  9
$DIMSTYLE
  2
STANDARD
  9
$DIMCLRD
 70
     0
  9
$DIMCLRE
 70
     0
  9
$DIMCLRT
 70
     0
  9
$DIMTFAC
 40
1.0
  9
$DIMGAP
 40
0.09
  9
$LUNITS
 70
     2
  9
$LUPREC
 70
     4
  9
$SKETCHINC
 40
0.1
  9
$FILLETRAD
 40
0.0
  9
$AUNITS
 70
     0
  9
$AUPREC
 70
     0
  9
$MENU
  1
.
  9
$ELEVATION
 40
0.0
  9
$PELEVATION
 40
0.0
  9
$THICKNESS
 40
0.0
  9
$LIMCHECK
 70
     0
  9
$BLIPMODE
 70
     0
  9
$CHAMFERA
 40
0.0
  9
$CHAMFERB
 40
0.0
  9
$SKPOLY
 70
     0
  9
$TDCREATE
 40
2458172.4620254631154239
  9
$TDUPDATE
 40
2459016.4841435188427567
  9
$TDINDWG
 40
0.0734550116
  9
$TDUSRTIMER
 40
0.0734550116
  9
$USRTIMER
 70
     1
  9
$ANGBASE
 50
0.0
  9
$ANGDIR
 70
     0
  9
$PDMODE
 70
     0
  9
$PDSIZE
 40
0.3125
  9
$PLINEWID
 40
0.0
  9
$COORDS
 70
     1
  9
$SPLFRAME
 70
     0
  9
$SPLINETYPE
 70
     6
  9
$SPLINESEGS
 70
     8
  9
$ATTDIA
 70
     1
  9
$ATTREQ
 70
     1
  9
$HANDLING
 70
     1
  9
$HANDSEED
  5
3548
  9
$SURFTAB1
 70
     6
  9
$SURFTAB2
 70
     6
  9
$SURFTYPE
 70
     6
  9
$SURFU
 70
     6
  9
$SURFV
 70
     6
  9
$UCSNAME
  2

  9
$UCSORG
 10
0.0
 20
0.0
 30
0.0
  9
$UCSXDIR
 10
1.0
 20
0.0
 30
0.0
  9
$UCSYDIR
 10
0.0
 20
1.0
 30
0.0
  9
$PUCSNAME
  2

  9
$PUCSORG
 10
0.0
 20
0.0
 30
0.0
  9
$PUCSXDIR
 10
1.0
 20
0.0
 30
0.0
  9
$PUCSYDIR
 10
0.0
 20
1.0
 30
0.0
  9
$USERI1
 70
     0
  9
$USERI2
 70
     0
  9
$USERI3
 70
     0
  9
$USERI4
 70
     0
  9
$USERI5
 70
     0
  9
$USERR1
 40
0.0
  9
$USERR2
 40
0.0
  9
$USERR3
 40
0.0
  9
$USERR4
 40
0.0
  9
$USERR5
 40
0.0
  9
$WORLDVIEW
 70
     1
  9
$SHADEDGE
 70
     3
  9
$SHADEDIF
 70
    70
  9
$TILEMODE
 70
     1
  9
$MAXACTVP
 70
    64
  9
$PLIMCHECK
 70
     0
  9
$PEXTMIN
 10
1.0000000000000000E+20
 20
1.0000000000000000E+20
 30
1.0000000000000000E+20
  9
$PEXTMAX
 10
-1.0000000000000000E+20
 20
-1.0000000000000000E+20
 30
-1.0000000000000000E+20
  9
$PLIMMIN
 10
0.0
 20
0.0
  9
$PLIMMAX
 10
12.0
 20
9.0
  9
$UNITMODE
 70
     0
  9
$VISRETAIN
 70
     1
  9
$PLINEGEN
 70
     0
  9
$PSLTSCALE
 70
     1
  0
ENDSEC
  0
SECTION
  2
TABLES
  0
TABLE
  2
VPORT
 70
     1
  0
VPORT
  2
*ACTIVE
 70
     0
 10
0.0
 20
0.0
 11
1.0
 21
1.0
 12
12.2284751625675092
 22
-23.9538004681931689
 13
0.0
 23
0.0
 14
1.0
 24
1.0
 15
0.0
 25
0.0
 16
0.0
 26
0.0
 36
30.6214257250603907
 17
124.6111586000725993
 27
5.3122741703778242
 37
0.0
 40
6.3287474113210394
 41
2.6486111111111108
 42
50.0
 43
0.0
 44
0.0
 50
0.0
 51
0.0
 71
     0
 72
   100
 73
     1
 74
     1
 75
     0
 76
     0
 77
     0
 78
     0
  0
ENDTAB
  0
TABLE
  2
LTYPE
 70
     2
  0
LTYPE
  2
CONTINUOUS
 70
     0
  3
Solid line
 72
    65
 73
     0
 40
0.0
  0
LTYPE
  2
PHANTOM2
 70
     0
  3
___ _ _ ___ _ _ ___ _ _ ___ _ _
 72
    65
 73
     6
 40
1.25
 49
0.625
 49
-0.125
 49
0.125
 49
-0.125
 49
0.125
 49
-0.125
  0
ENDTAB
  0
TABLE
  2
LAYER
 70
     2
  0
LAYER
  2
0
 70
     0
 62
   255
  6
CONTINUOUS
  0
LAYER
  2
DEFPOINTS
 70
     0
 62
     7
  6
CONTINUOUS
  0
ENDTAB
  0
TABLE
  2
STYLE
 70
     1
  0
STYLE
  2
STANDARD
 70
     0
 40
0.0
 41
0.8
 50
0.0
 71
     0
 42
0.2
  3
txt
  4

  0
ENDTAB
  0
TABLE
  2
VIEW
 70
     0
  0
ENDTAB
  0
TABLE
  2
UCS
 70
     0
  0
ENDTAB
  0
TABLE
  2
APPID
 70
     9
  0
APPID
  2
ACAD
 70
     0
  0
APPID
  2
ACAD_MLEADERVER
 70
     0
  0
APPID
  2
ACAD_EXEMPT_FROM_CAD_STANDARDS
 70
     0
  0
APPID
  2
ACAD_DSTYLE_DIMJAG
 70
     0
  0
APPID
  2
ACAD_DSTYLE_DIMTALN
 70
     0
  0
APPID
  2
ACAD_NAV_VCDISPLAY
 70
     0
  0
APPID
  2
ACAECLAYERSTANDARD
 70
     0
  0
APPID
  2
ACCMTRANSPARENCY
 70
     0
  0
APPID
  2
ACDBATTR
 70
     0
  0
ENDTAB
  0
TABLE
  2
DIMSTYLE
 70
     1
  0
DIMSTYLE
  2
STANDARD
 70
     0
  3

  4

  5

  6

  7

 40
1.0
 41
0.1875
 42
0.0625
 43
0.38
 44
0.125
 45
0.0
 46
0.0
 47
0.01
 48
0.01
140
0.15625
141
0.09
142
0.0
143
25.3999999999999986
144
1.0
145
0.0
146
1.0
147
0.09
 71
     1
 72
     0
 73
     1
 74
     1
 75
     0
 76
     0
 77
     0
 78
     4
170
     0
171
     2
172
     0
173
     0
174
     0
175
     0
176
     0
177
     0
178
     0
  0
ENDTAB
  0
ENDSEC
  0
SECTION
  2
BLOCKS
  0
BLOCK
  8
0
  2
$MODEL_SPACE
 70
     0
 10
0.0
 20
0.0
 30
0.0
  3
$MODEL_SPACE
  1

  0
ENDBLK
  5
21
  8
0
  0
BLOCK
 67
     1
  8
0
  2
$PAPER_SPACE
 70
     0
 10
0.0
 20
0.0
 30
0.0
  3
$PAPER_SPACE
  1

  0
ENDBLK
  5
1D
 67
     1
  8
0
  0
ENDSEC
  0
SECTION
  2
ENTITIES
  0
ATTDEF
  5
2E1C
  8
DEFPOINTS
 10
138.9351283507699861
 20
-21.7753325409525296
 30
0.0
 40
0.001
  1
K-5317T-4
  3

  2
MODELNUMBER
 70
     0
1001
ACDBATTR
1070
     0
1070
     1
  0
ATTDEF
  5
2E1D
  8
DEFPOINTS
 10
138.9351283507699861
 20
-21.7769992076191983
 30
0.0
 40
0.001
  1
REFINIA
  3

  2
TRADENAME
 70
     0
1001
ACDBATTR
1070
     0
1070
     1
  0
ATTDEF
  5
2E1E
  8
DEFPOINTS
 10
138.9351283507699861
 20
-21.7786658742858599
 30
0.0
 40
0.001
  1
BATHROOM SINK FAUCET
  3

  2
PRODUCT
 70
     0
1001
ACDBATTR
1070
     0
1070
     1
  0
LINE
  5
3302
  8
0
 10
140.036636279199513
 20
-21.7789205968197415
 30
0.0
 11
137.832820075999507
 21
-21.7789205968197415
 31
0.0
  0
ARC
  5
3303
  8
0
 10
137.832820075999507
 20
-21.7639205968461518
 30
0.0
 40
0.0149999999735966
 50
155.9999999653846032
 51
270.0
  0
LINE
  5
3304
  8
0
 10
137.8191168941625904
 20
-21.7578195472024696
 30
0.0
 11
137.8454498884447048
 21
-21.6986746737408716
 31
0.0
  0
ARC
  5
3305
  8
0
 10
137.9002798183543916
 20
-21.7230953312682189
 30
0.0
 40
0.060022410214547
 50
116.5378175381919021
 51
155.9923260671124012
  0
ARC
  5
3306
  8
0
 10
137.0214468816091085
 20
-19.9124849426343502
 30
0.0
 40
1.952606015436029
 50
295.8710966829430049
 51
303.6026593196610861
  0
ARC
  5
3307
  8
0
 10
137.8688347541747135
 20
-21.1443443679224501
 30
0.0
 40
0.4582565916819002
 50
300.5958886994687873
 51
333.4941061150325936
  0
ARC
  5
3308
  8
0
 10
138.3071859354994899
 20
-21.3589205968197504
 30
0.0
 40
0.03
 50
90.0
 51
160.4052571655346071
  0
LINE
  5
3309
  8
0
 10
138.3071859354994899
 20
-21.3289205968197386
 30
0.0
 11
139.5622582675993897
 21
-21.3289205968197386
 31
0.0
  0
LINE
  5
330A
  8
0
 10
139.2887407887994868
 20
-19.4826367872197395
 30
0.0
 11
138.5807155663995047
 21
-19.4826367872197501
 31
0.0
  0
ARC
  5
330B
  8
0
 10
138.5807155663995047
 20
-19.5126367872161417
 30
0.0
 40
0.0299999999963965
 50
90.0
 51
171.7243834941781984
  0
LINE
  5
330C
  8
0
 10
138.5510279523994086
 20
-19.5083187350201115
 30
0.0
 11
138.2912136498115956
 21
-21.2946025446517808
 31
0.0
  0
ARC
  5
330D
  8
0
 10
138.3209012637894944
 20
-21.2989205968445887
 30
0.0
 40
0.0299999999739862
 50
171.7243834941779994
 51
269.9999996419687136
  0
LINE
  5
330E
  8
0
 10
139.2985675858695913
 20
-19.4726368224533317
 30
0.0
 11
138.5708887693317024
 21
-19.4726367519861583
 31
0.0
  0
ARC
  5
330F
  8
0
 10
138.5709980010194045
 20
-19.4573929420768899
 30
0.0
 40
0.0152442012618457
 50
173.3982148825562035
 51
269.5894459705307895
  0
LINE
  5
3310
  8
0
 10
138.6472221015993966
 20
-19.4726367872197414
 30
0.0
 11
138.6472221015993966
 21
-19.4826367872197501
 31
0.0
  0
LINE
  5
3311
  8
0
 10
137.8454498884447048
 20
-21.6986746737408716
 30
0.0
 11
140.0240064667542015
 21
-21.6986746736883482
 31
0.0
  0
ARC
  5
3312
  8
0
 10
140.036636279199513
 20
-21.7639205968461518
 30
0.0
 40
0.0149999999735966
 50
270.0
 51
24.0000000346153506
  0
LINE
  5
3313
  8
0
 10
140.0503394610362875
 20
-21.7578195472024696
 30
0.0
 11
140.0240064667277124
 21
-21.6986746737146099
 31
0.0
  0
ARC
  5
3314
  8
0
 10
139.9691765369136078
 20
-21.7230953311745303
 30
0.0
 40
0.060022410099866
 50
24.0076739111831117
 51
63.4621824808330715
  0
ARC
  5
3315
  8
0
 10
140.8480094735897978
 20
-19.9124849426343502
 30
0.0
 40
1.952606015436029
 50
236.3973406803374928
 51
244.1289033170583878
  0
ARC
  5
3316
  8
0
 10
140.0006216010241928
 20
-21.1443443679224501
 30
0.0
 40
0.4582565916819002
 50
206.5058938849672074
 51
239.404111300531099
  0
ARC
  5
3317
  8
0
 10
139.5622704196995016
 20
-21.3589205968197504
 30
0.0
 40
0.03
 50
19.5947428344653503
 51
90.0
  0
ARC
  5
3318
  8
0
 10
139.2906856403836002
 20
-19.5127184508788787
 30
0.0
 40
0.0301444677542217
 50
8.3979586346697683
 51
93.6991609882683179
  0
LINE
  5
3319
  8
0
 10
139.3205068851995065
 20
-19.5083159182197399
 30
0.0
 11
139.5806480117994965
 21
-21.2945997429197398
 31
0.0
  0
ARC
  5
331A
  8
0
 10
139.5508098799535048
 20
-21.2988637826746512
 30
0.0
 40
0.0301412698320048
 50
265.7098471379044895
 51
8.1328300108514782
  0
ARC
  5
331B
  8
0
 10
139.2989983901979087
 20
-19.4575905004500385
 30
0.0
 40
0.0150524881064844
 50
268.3599627778899048
 51
6.3715521192054281
  0
LINE
  5
331C
  8
0
 10
139.222234253599396
 20
-19.4726367872197414
 30
0.0
 11
139.222234253599396
 21
-19.4826367872197501
 31
0.0
  0
ARC
  5
331D
  8
0
 10
98.1585514975934359
 20
-13.6472008392691908
 30
0.0
 40
40.8127419171887524
 50
351.8179257177872046
 51
353.2614863328998922
  0
ARC
  5
331E
  8
0
 10
138.1982819465046077
 20
-18.3780760424549783
 30
0.0
 40
0.4944930141227586
 50
353.2614863329001196
 51
14.0997179112478008
  0
ARC
  5
331F
  8
0
 10
139.4584701710197976
 20
-17.4695279027539598
 30
0.0
 40
1.1092349887653039
 50
205.9519795285777093
 51
225.2736382353961915
  0
ARC
  5
3320
  8
0
 10
139.2321178158292128
 20
-17.6981538415663913
 30
0.0
 40
0.7875127460386661
 50
225.2684607028234893
 51
253.5396833218447057
  0
ARC
  5
3321
  8
0
 10
139.8485778501533048
 20
-15.6117141787253999
 30
0.0
 40
2.9631169013470169
 50
253.5396833218447057
 51
257.1265809676332879
  0
ARC
  5
3322
  8
0
 10
139.2013665629835089
 20
-18.4436236409826684
 30
0.0
 40
0.0581911445225328
 50
257.1265809676315257
 51
298.8448041935415063
  0
ARC
  5
3323
  8
0
 10
139.1910320891963124
 20
-18.4222279856191307
 30
0.0
 40
0.0819278264809758
 50
297.9567258908265899
 51
333.017110926397379
  0
ARC
  5
3324
  8
0
 10
139.0046041458936088
 20
-18.3677778603145185
 30
0.0
 40
0.2751407522505358
 50
340.5488347558012947
 51
358.0829681102538871
  0
ARC
  5
3325
  8
0
 10
136.7383985535940951
 20
-18.2919256720139387
 30
0.0
 40
2.5426154138596391
 50
358.0829681102538871
 51
4.5006693636752093
  0
ARC
  5
3326
  8
0
 10
121.7782539448261048
 20
-19.4694904431536884
 30
0.0
 40
17.5490335576233214
 50
4.5006693636752093
 51
5.0028633690119912
  0
ARC
  5
3327
  8
0
 10
138.5150531332407127
 20
-17.9275925580729592
 30
0.0
 40
0.0605018232097399
 50
103.4335702352403956
 51
206.8820384159529056
  0
ARC
  5
3328
  8
0
 10
138.9053378860571968
 20
-19.6278710951311304
 30
0.0
 40
1.8049964044294311
 50
89.8036182957840623
 51
102.9447723693185992
  0
ARC
  5
3329
  8
0
 10
138.5948617171519004
 20
-20.9956917258543498
 30
0.0
 40
3.18856958302751
 50
77.9976486584815234
 51
84.3004539489247406
  0
ARC
  5
332A
  8
0
 10
139.2518646276236041
 20
-17.9402991733259185
 30
0.0
 40
0.0637611282742463
 50
44.122740742068558
 51
84.5408537030661336
  0
ARC
  5
332B
  8
0
 10
139.2560093960231882
 20
-17.936279422164489
 30
0.0
 40
0.0579872643612131
 50
14.7460005681500395
 51
44.1227407420678333
  0
ARC
  5
332C
  8
0
 10
137.9924009543132968
 20
-18.2688654452794914
 30
0.0
 40
1.3646317289083569
 50
5.9143766830519677
 51
14.7460005681500395
  0
ARC
  5
332D
  8
0
 10
138.8847815640320107
 20
-18.1764205663626583
 30
0.0
 40
0.4674755506207121
 50
338.4549205134624117
 51
5.9143766830519677
  0
ARC
  5
332E
  8
0
 10
138.6560021446792916
 20
-18.0881535316665314
 30
0.0
 40
0.7126870613619266
 50
327.9465244734487896
 51
338.6089287528200771
  0
ARC
  5
332F
  8
0
 10
138.9492471976018066
 20
-11.5042371985367904
 30
0.0
 40
6.4670643984595131
 50
265.6616596130730272
 51
270.5349093968237071
  0
ARC
  5
3330
  8
0
 10
139.1024953936249915
 20
-20.8271067757741584
 30
0.0
 40
2.8575966134832389
 50
88.4829764796673572
 51
91.8624632975188291
  0
ARC
  5
3331
  8
0
 10
139.1950476334351947
 20
-17.8912770194043205
 30
0.0
 40
0.0810172604630763
 50
257.9587481217515119
 51
323.8074880401100017
  0
ARC
  5
3332
  8
0
 10
139.2022929546859018
 20
-17.6838545997531007
 30
0.0
 40
0.2618002419752868
 50
282.8307926299744963
 51
294.7954588736686219
  0
ARC
  5
3333
  8
0
 10
153.9273893693070931
 20
-17.6065654419386313
 30
0.0
 40
14.7299861409596797
 50
183.9738798025418873
 51
187.2125376676634119
  0
ARC
  5
3334
  8
0
 10
141.1376188182092051
 20
-18.5350687815212005
 30
0.0
 40
1.907036406139486
 50
178.7578517355997008
 51
182.7744728206114075
  0
ARC
  5
3335
  8
0
 10
133.7125313611770991
 20
-15.9208888807251991
 30
0.0
 40
0.0798901877834958
 50
109.0609404793550965
 51
176.6838210102278026
  0
ARC
  5
3336
  8
0
 10
135.7967168632333141
 20
-22.3684138588122288
 30
0.0
 40
6.8558914434949436
 50
98.3595957845653999
 51
107.9269805298900025
  0
ARC
  5
3337
  8
0
 10
135.9283069875696981
 20
-23.3222733095718411
 30
0.0
 40
7.8187521188315108
 50
93.5789894748504167
 51
98.2974161741375383
  0
ARC
  5
3338
  8
0
 10
136.1285887582243106
 20
-19.842411571815191
 30
0.0
 40
4.3271733893267923
 50
66.091661159072487
 51
85.0765456805248874
  0
ARC
  5
3339
  8
0
 10
136.6844294924669896
 20
-18.4041022749531109
 30
0.0
 40
2.788012704246317
 50
39.2430865408260772
 51
64.5550306842133068
  0
ARC
  5
333A
  8
0
 10
138.7063992648176907
 20
-16.7395430855239411
 30
0.0
 40
0.1693370554218843
 50
10.8875296181681005
 51
35.848310319825039
  0
ARC
  5
333B
  8
0
 10
136.585063222672602
 20
-17.3574117076113517
 30
0.0
 40
2.3781373944810751
 50
13.7308666068335796
 51
15.8584352669679802
  0
ARC
  5
333C
  8
0
 10
139.1568563802568974
 20
-16.7405615399081711
 30
0.0
 40
0.2668101275651122
 50
181.3502363160228867
 51
191.5198356039869054
  0
ARC
  5
333D
  8
0
 10
138.9099381347961923
 20
-16.7463815098474917
 30
0.0
 40
0.0198233020228112
 50
41.4951518887776629
 51
181.350236316021693
  0
ARC
  5
333E
  8
0
 10
139.7894383905685061
 20
-15.8420417491623997
 30
0.0
 40
1.2417211112721971
 50
225.8664013609059964
 51
255.3978308325538933
  0
ARC
  5
333F
  8
0
 10
139.4731199844659955
 20
-17.0617896073867215
 30
0.0
 40
0.0184278063724509
 50
350.1489803757136769
 51
79.7690803046799743
  0
ARC
  5
3340
  8
0
 10
131.5624895162530947
 20
-16.3069676436654696
 30
0.0
 40
7.9649345390573272
 50
354.102981097495217
 51
354.5392431584742212
  0
ARC
  5
3341
  8
0
 10
139.4653788287519944
 20
-17.1232245958156284
 30
0.0
 40
0.0200031457610892
 50
287.935188330629785
 51
354.0698233126503851
  0
ARC
  5
3342
  8
0
 10
139.6173441942119098
 20
-17.9494851121797616
 30
0.0
 40
0.82029206922723
 50
100.2386425545124951
 51
113.7638192863174993
  0
ARC
  5
3343
  8
0
 10
139.3741811855338142
 20
-17.4014390594054902
 30
0.0
 40
0.2207322597805589
 50
113.3221414968103034
 51
156.7294845335204911
  0
ARC
  5
3344
  8
0
 10
139.325295518247998
 20
-17.3804153809079693
 30
0.0
 40
0.1675175670393028
 50
156.7294845335204911
 51
196.8705406980459998
  0
ARC
  5
3345
  8
0
 10
139.3410014883322958
 20
-17.3756523618095287
 30
0.0
 40
0.1839298748362621
 50
196.8705406980454029
 51
217.9798806171212959
  0
ARC
  5
3346
  8
0
 10
139.3997616421816872
 20
-17.3217027398906502
 30
0.0
 40
0.2635228480584642
 50
219.3637875810757123
 51
252.8156104600631977
  0
ARC
  5
3347
  8
0
 10
136.9805217576517862
 20
-17.3373625542396113
 30
0.0
 40
1.998453802188638
 50
14.0386437247461
 51
17.1461976000210115
  0
ARC
  5
3348
  8
0
 10
139.4753444337588064
 20
-16.7135458378498214
 30
0.0
 40
0.5731774857033932
 50
194.0386437247462936
 51
212.3900896789787964
  0
ARC
  5
3349
  8
0
 10
139.1884114153862129
 20
-16.8790363311744684
 30
0.0
 40
0.2426372411039807
 50
215.688608029985204
 51
261.8809051825737129
  0
ARC
  5
334A
  8
0
 10
139.2224895724484952
 20
-16.6970441066109707
 30
0.0
 40
0.4276936473401056
 50
260.8046236981165862
 51
279.8935210146527197
  0
ARC
  5
334B
  8
0
 10
139.0271821231009994
 20
-15.7523364494021703
 30
0.0
 40
1.3922347130967829
 50
281.1317501173303981
 51
289.4719072281982903
  0
ARC
  5
334C
  8
0
 10
139.3106249537107999
 20
-17.5899038814131217
 30
0.0
 40
0.0199392434507596
 50
27.9939384438385517
 51
55.5497100505624601
  0
ARC
  5
334D
  8
0
 10
145.6029225556926008
 20
-21.1310563139906016
 30
0.0
 40
5.685221193584403
 50
181.8377109493719956
 51
185.150888503554711
  0
ARC
  5
334E
  8
0
 10
115.434397439849306
 20
-22.1922336218423411
 30
0.0
 40
24.5019949596749989
 50
2.05557886361877
 51
7.1045686710357989
  0
ARC
  5
334F
  8
0
 10
132.4016833767410048
 20
-20.0629138310805999
 30
0.0
 40
7.4016410474110668
 50
6.9927359251234504
 51
19.3523212097774504
  0
ARC
  5
3350
  8
0
 10
139.3573819509803968
 20
-17.6202185612851991
 30
0.0
 40
0.0294986035896637
 50
19.881502920010039
 51
76.3534370014397155
  0
ARC
  5
3351
  8
0
 10
140.8071187632525039
 20
-12.7939191163656307
 30
0.0
 40
5.0098796448632203
 50
252.8308160061338015
 51
253.2625575739475039
  0
ARC
  5
3352
  8
0
 10
133.7144092782320115
 20
-15.9207746141029798
 30
0.0
 40
0.0817849126104287
 50
175.1443195485126125
 51
221.4588416706966996
  0
ARC
  5
3353
  8
0
 10
134.8187902829166092
 20
-15.0677179541360893
 30
0.0
 40
1.47709676495159
 50
217.8924441669331884
 51
233.5652391094187976
  0
ARC
  5
3354
  8
0
 10
133.9474888059259001
 20
-16.2478410245495191
 30
0.0
 40
0.0101765093657426
 50
234.172562738434209
 51
295.375738924832774
  0
ARC
  5
3355
  8
0
 10
134.3569476134848912
 20
-17.1164595556809189
 30
0.0
 40
0.9501123660076904
 50
110.8456860788160014
 51
115.2372927045937985
  0
ARC
  5
3356
  8
0
 10
134.3588541884527956
 20
-17.1204261449278192
 30
0.0
 40
0.9544978419661982
 50
97.1911668524703032
 51
110.8679114351839985
  0
ARC
  5
3357
  8
0
 10
134.3589468150493929
 20
-17.1209205968197189
 30
0.0
 40
0.9549999999999744
 50
74.9309444363680655
 51
97.1929668621151848
  0
ARC
  5
3358
  8
0
 10
134.3589534865633084
 20
-17.1209015763433605
 30
0.0
 40
0.9549798990979877
 50
57.892740859558387
 51
74.9310342576752362
  0
ARC
  5
3359
  8
0
 10
134.3594074716154978
 20
-17.1202768276351804
 30
0.0
 40
0.9542094085471789
 50
45.1216384849892407
 51
57.8958927866317126
  0
ARC
  5
335A
  8
0
 10
134.3598325544977001
 20
-17.120419706486711
 30
0.0
 40
0.9540107979372312
 50
40.961517880233977
 51
45.1457836585365726
  0
ARC
  5
335B
  8
0
 10
135.0878856511241111
 20
-16.4872997988566503
 30
0.0
 40
0.0108528615308392
 50
225.3151936477561037
 51
275.7009501914189968
  0
ARC
  5
335C
  8
0
 10
132.4705746343140049
 20
1.817045807117398
 30
0.0
 40
18.5013645468748713
 50
278.1360493645244105
 51
278.9757339348136043
  0
ARC
  5
335D
  8
0
 10
137.9437823292956864
 20
-31.7364055162468617
 30
0.0
 40
15.4960638279676903
 50
96.4929383237575706
 51
99.6091388490820151
  0
ARC
  5
335E
  8
0
 10
136.5417286915867976
 20
-18.7436756854545017
 30
0.0
 40
2.4293210123979478
 50
74.5198683914650957
 51
98.2896419723276438
  0
ARC
  5
335F
  8
0
 10
136.7366916985847922
 20
-17.7967792243629006
 30
0.0
 40
1.4661730626455971
 50
36.4285989986066667
 51
71.9851829654286632
  0
ARC
  5
3360
  8
0
 10
136.50115622161141
 20
-17.9497930265857804
 30
0.0
 40
1.7466273905631331
 50
8.3404900919388059
 51
35.8790868710667823
  0
ARC
  5
3361
  8
0
 10
124.6880515782541039
 20
-18.6378198035358515
 30
0.0
 40
13.5739418351757894
 50
353.57117005599099
 51
3.9767884875807509
  0
ARC
  5
3362
  8
0
 10
472.5729260641609812
 20
-45.7722115176040987
 30
0.0
 40
335.3758827483625282
 50
175.6197353484994892
 51
175.8596632432690967
  0
ARC
  5
3363
  8
0
 10
133.9623038981480931
 20
-16.2632741737400011
 30
0.0
 40
0.0049734345047421
 50
119.4176419014364967
 51
234.5741938992763949
  0
ARC
  5
3364
  8
0
 10
134.885773695483806
 20
-14.9610887776734902
 30
0.0
 40
1.6013703951085001
 50
234.6566507638665087
 51
240.7596544720927056
  0
ARC
  5
3365
  8
0
 10
134.1093722054646946
 20
-16.3480015171637589
 30
0.0
 40
0.0119282852270637
 50
240.7596544720867939
 51
287.4881654111089233
  0
ARC
  5
3366
  8
0
 10
134.3370650553416965
 20
-17.3710451897150087
 30
0.0
 40
1.0361921098983671
 50
87.3922698508663132
 51
102.4906706234369977
  0
ARC
  5
3367
  8
0
 10
134.3459152865802082
 20
-17.1502937047922401
 30
0.0
 40
0.8152674475587138
 50
65.7499860073156412
 51
87.3077505697667533
  0
ARC
  5
3368
  8
0
 10
134.0006983589312028
 20
-17.8589023572898604
 30
0.0
 40
1.603312446922204
 50
56.6694898529263611
 51
64.9024227534513045
  0
ARC
  5
3369
  8
0
 10
134.8882464404912866
 20
-16.5090650871052489
 30
0.0
 40
0.0121765083395112
 50
237.2929409628918904
 51
269.9296239021596193
  0
ARC
  5
336A
  8
0
 10
134.3016579625495979
 20
-11.0769245259117106
 30
0.0
 40
5.4758247552164718
 50
276.1493560307018811
 51
278.0328196468673809
  0
ARC
  5
336B
  8
0
 10
139.3948249866789126
 20
-17.3145182444662993
 30
0.0
 40
0.2742350691623184
 50
239.9934424385158991
 51
255.9461045923698066
  0
ARC
  5
336C
  8
0
 10
139.5700368472218997
 20
-17.1723318162310505
 30
0.0
 40
0.4916424997848529
 50
208.9859236684355892
 51
230.5553325743437938
  0
ARC
  5
336D
  8
0
 10
141.3391564076050884
 20
-16.1858367087505997
 30
0.0
 40
2.5172166031571641
 50
196.1664829908714012
 51
209.1138327781397095
  0
ARC
  5
336E
  8
0
 10
140.8191391701298016
 20
-16.3040976409882994
 30
0.0
 40
1.985080500358865
 50
194.28316762200771
 51
197.0671538602493911
  0
ARC
  5
336F
  8
0
 10
133.4303456863243866
 20
-6.1611366609717768
 30
0.0
 40
9.8098232083311387
 50
271.2728356862123746
 51
274.9405180866276055
  0
ARC
  5
3370
  8
0
 10
132.9576349949450957
 20
-0.692647954780508
 30
0.0
 40
15.2987050732910497
 50
274.9405180866276055
 51
277.0689567486218721
  0
ARC
  5
3371
  8
0
 10
136.1655531175248086
 20
-26.5616184040216687
 30
0.0
 40
10.7684077469828505
 50
90.3637603738443431
 51
97.0689567486235347
  0
ARC
  5
3372
  8
0
 10
136.1286006370484074
 20
-20.7413232883499603
 30
0.0
 40
4.9479953286635636
 50
75.6958014284099647
 51
90.3637603738443431
  0
ARC
  5
3373
  8
0
 10
136.7994207966083877
 20
-18.1103964649748015
 30
0.0
 40
2.2328939242171342
 50
46.0652563190030904
 51
75.6958014284099647
  0
ARC
  5
3374
  8
0
 10
136.628137220481193
 20
-18.0756027489974684
 30
0.0
 40
2.3313509909393071
 50
18.0364786466550804
 51
42.4381436862237322
  0
ARC
  5
3375
  8
0
 10
134.3229797826473089
 20
-18.94741498058087
 30
0.0
 40
4.7945498531580411
 50
13.4519025641036691
 51
19.4137814276734986
  0
ARC
  5
3377
  8
0
 10
135.0661985807984138
 20
-16.4940640608143916
 30
0.0
 40
0.0049960453687923
 50
277.474160175093175
 51
41.5810845161431786
  0
ARC
  5
3378
  8
0
 10
134.3589704959782125
 20
-17.1215531312286693
 30
0.0
 40
0.9504663502689007
 50
41.5810845161431786
 51
114.8288447287067982
  0
LINE
  5
3379
  8
0
 10
134.0188479867495062
 20
-16.2285394295197385
 30
0.0
 11
134.0170795997813116
 21
-16.2347065277559217
 31
0.0
  0
LINE
  5
337A
  8
0
 10
135.0327014535544095
 20
-16.4441179637246684
 30
0.0
 11
135.0311407031406929
 21
-16.4495609470505215
 31
0.0
  0
ARC
  5
337B
  8
0
 10
135.9040670237467907
 20
-22.9021675990614213
 30
0.0
 40
7.3979528566675814
 50
90.0177193876343864
 51
93.5947286112113943
  0
ARC
  5
337C
  8
0
 10
135.9120538548947081
 20
-21.9190793372369512
 30
0.0
 40
6.4148724696154122
 50
84.7415474966116449
 51
90.0917709842295551
  0
ENDSEC
  0
EOF
