  0
SECTION
  2
HEADER
  9
$ACADVER
  1
AC1009
  9
$INSBASE
 10
124.5993158524023983
 20
-7.5728127245890473
 30
0.0
  9
$EXTMIN
 10
117.6424442561976065
 20
-12.8757480277158791
 30
-0.0015258207003583
  9
$EXTMAX
 10
131.5528682187537015
 20
-6.4550403722631984
 30
0.0000000349246037
  9
$LIMMIN
 10
0.0
 20
0.0
  9
$LIMMAX
 10
11.6929133858000007
 20
8.2677165353999982
  9
$ORTHOMODE
 70
     0
  9
$REGENMODE
 70
     1
  9
$FILLMODE
 70
     1
  9
$QTEXTMODE
 70
     0
  9
$MIRRTEXT
 70
     0
  9
$DRAGMODE
 70
     2
  9
$LTSCALE
 40
0.6431102362
  9
$OSMODE
 70
  4095
  9
$ATTMODE
 70
     1
  9
$TEXTSIZE
 40
0.2
  9
$TRACEWID
 40
0.05
  9
$TEXTSTYLE
  7
STANDARD
  9
$CLAYER
  8
0
  9
$CELTYPE
  6
BYLAYER
  9
$CECOLOR
 62
   256
  9
$DIMSCALE
 40
1.0
  9
$DIMASZ
 40
0.1875
  9
$DIMEXO
 40
0.0625
  9
$DIMDLI
 40
0.4443307087
  9
$DIMRND
 40
0.0
  9
$DIMDLE
 40
0.0
  9
$DIMEXE
 40
0.125
  9
$DIMTP
 40
0.01
  9
$DIMTM
 40
0.01
  9
$DIMTXT
 40
1.0
  9
$DIMCEN
 40
0.1052362205
  9
$DIMTSZ
 40
0.0
  9
$DIMTOL
 70
     1
  9
$DIMLIM
 70
     0
  9
$DIMTIH
 70
     1
  9
$DIMTOH
 70
     1
  9
$DIMSE1
 70
     0
  9
$DIMSE2
 70
     0
  9
$DIMTAD
 70
     0
  9
$DIMZIN
 70
     0
  9
$DIMBLK
  1

  9
$DIMASO
 70
     1
  9
$DIMSHO
 70
     1
  9
$DIMPOST
  1
\X
  9
$DIMAPOST
  1

  9
$DIMALT
 70
     1
  9
$DIMALTD
 70
     2
  9
$DIMALTF
 40
25.3999999999999986
  9
$DIMLFAC
 40
1.0
  9
$DIMTOFL
 70
     0
  9
$DIMTVP
 40
0.0
  9
$DIMTIX
 70
     0
  9
$DIMSOXD
 70
     0
  9
$DIMSAH
 70
     0
  9
$DIMBLK1
  1

  9
$DIMBLK2
  1

  9
$DIMSTYLE
  2
STANDARD
  9
$DIMCLRD
 70
     0
  9
$DIMCLRE
 70
     0
  9
$DIMCLRT
 70
     0
  9
$DIMTFAC
 40
1.0
  9
$DIMGAP
 40
0.09
  9
$LUNITS
 70
     2
  9
$LUPREC
 70
     4
  9
$SKETCHINC
 40
0.1
  9
$FILLETRAD
 40
0.0
  9
$AUNITS
 70
     0
  9
$AUPREC
 70
     0
  9
$MENU
  1
.
  9
$ELEVATION
 40
0.0
  9
$PELEVATION
 40
0.0
  9
$THICKNESS
 40
0.0
  9
$LIMCHECK
 70
     0
  9
$BLIPMODE
 70
     0
  9
$CHAMFERA
 40
0.0
  9
$CHAMFERB
 40
0.0
  9
$SKPOLY
 70
     0
  9
$TDCREATE
 40
2458172.4620254631154239
  9
$TDUPDATE
 40
2459016.4849768518470228
  9
$TDINDWG
 40
0.0762096412
  9
$TDUSRTIMER
 40
0.0762096412
  9
$USRTIMER
 70
     1
  9
$ANGBASE
 50
0.0
  9
$ANGDIR
 70
     0
  9
$PDMODE
 70
     0
  9
$PDSIZE
 40
0.3125
  9
$PLINEWID
 40
0.0
  9
$COORDS
 70
     1
  9
$SPLFRAME
 70
     0
  9
$SPLINETYPE
 70
     6
  9
$SPLINESEGS
 70
     8
  9
$ATTDIA
 70
     1
  9
$ATTREQ
 70
     1
  9
$HANDLING
 70
     1
  9
$HANDSEED
  5
3470
  9
$SURFTAB1
 70
     6
  9
$SURFTAB2
 70
     6
  9
$SURFTYPE
 70
     6
  9
$SURFU
 70
     6
  9
$SURFV
 70
     6
  9
$UCSNAME
  2

  9
$UCSORG
 10
0.0
 20
0.0
 30
0.0
  9
$UCSXDIR
 10
1.0
 20
0.0
 30
0.0
  9
$UCSYDIR
 10
0.0
 20
1.0
 30
0.0
  9
$PUCSNAME
  2

  9
$PUCSORG
 10
0.0
 20
0.0
 30
0.0
  9
$PUCSXDIR
 10
1.0
 20
0.0
 30
0.0
  9
$PUCSYDIR
 10
0.0
 20
1.0
 30
0.0
  9
$USERI1
 70
     0
  9
$USERI2
 70
     0
  9
$USERI3
 70
     0
  9
$USERI4
 70
     0
  9
$USERI5
 70
     0
  9
$USERR1
 40
0.0
  9
$USERR2
 40
0.0
  9
$USERR3
 40
0.0
  9
$USERR4
 40
0.0
  9
$USERR5
 40
0.0
  9
$WORLDVIEW
 70
     1
  9
$SHADEDGE
 70
     3
  9
$SHADEDIF
 70
    70
  9
$TILEMODE
 70
     1
  9
$MAXACTVP
 70
    64
  9
$PLIMCHECK
 70
     0
  9
$PEXTMIN
 10
1.0000000000000000E+20
 20
1.0000000000000000E+20
 30
1.0000000000000000E+20
  9
$PEXTMAX
 10
-1.0000000000000000E+20
 20
-1.0000000000000000E+20
 30
-1.0000000000000000E+20
  9
$PLIMMIN
 10
0.0
 20
0.0
  9
$PLIMMAX
 10
12.0
 20
9.0
  9
$UNITMODE
 70
     0
  9
$VISRETAIN
 70
     1
  9
$PLINEGEN
 70
     0
  9
$PSLTSCALE
 70
     1
  0
ENDSEC
  0
SECTION
  2
TABLES
  0
TABLE
  2
VPORT
 70
     1
  0
VPORT
  2
*ACTIVE
 70
     0
 10
0.0
 20
0.0
 11
1.0
 21
1.0
 12
-0.8206477226470099
 22
-15.5110655005704405
 13
0.0
 23
0.0
 14
1.0
 24
1.0
 15
0.0
 25
0.0
 16
0.0
 26
0.0
 36
30.6214257250603907
 17
124.6111586000725993
 27
5.3122741703778242
 37
0.0
 40
26.5180747063143016
 41
2.6486111111111108
 42
50.0
 43
0.0
 44
0.0
 50
0.0
 51
0.0
 71
     0
 72
   100
 73
     1
 74
     1
 75
     0
 76
     0
 77
     0
 78
     0
  0
ENDTAB
  0
TABLE
  2
LTYPE
 70
     2
  0
LTYPE
  2
CONTINUOUS
 70
     0
  3
Solid line
 72
    65
 73
     0
 40
0.0
  0
LTYPE
  2
PHANTOM2
 70
     0
  3
___ _ _ ___ _ _ ___ _ _ ___ _ _
 72
    65
 73
     6
 40
1.25
 49
0.625
 49
-0.125
 49
0.125
 49
-0.125
 49
0.125
 49
-0.125
  0
ENDTAB
  0
TABLE
  2
LAYER
 70
     2
  0
LAYER
  2
0
 70
     0
 62
   255
  6
CONTINUOUS
  0
LAYER
  2
DEFPOINTS
 70
     0
 62
     7
  6
CONTINUOUS
  0
ENDTAB
  0
TABLE
  2
STYLE
 70
     1
  0
STYLE
  2
STANDARD
 70
     0
 40
0.0
 41
0.8
 50
0.0
 71
     0
 42
0.2
  3
txt
  4

  0
ENDTAB
  0
TABLE
  2
VIEW
 70
     0
  0
ENDTAB
  0
TABLE
  2
UCS
 70
     0
  0
ENDTAB
  0
TABLE
  2
APPID
 70
     9
  0
APPID
  2
ACAD
 70
     0
  0
APPID
  2
ACAD_MLEADERVER
 70
     0
  0
APPID
  2
ACAD_EXEMPT_FROM_CAD_STANDARDS
 70
     0
  0
APPID
  2
ACAD_DSTYLE_DIMJAG
 70
     0
  0
APPID
  2
ACAD_DSTYLE_DIMTALN
 70
     0
  0
APPID
  2
ACAD_NAV_VCDISPLAY
 70
     0
  0
APPID
  2
ACAECLAYERSTANDARD
 70
     0
  0
APPID
  2
ACCMTRANSPARENCY
 70
     0
  0
APPID
  2
ACDBATTR
 70
     0
  0
ENDTAB
  0
TABLE
  2
DIMSTYLE
 70
     1
  0
DIMSTYLE
  2
STANDARD
 70
     0
  3

  4

  5

  6

  7

 40
1.0
 41
0.1875
 42
0.0625
 43
0.38
 44
0.125
 45
0.0
 46
0.0
 47
0.01
 48
0.01
140
0.15625
141
0.09
142
0.0
143
25.3999999999999986
144
1.0
145
0.0
146
1.0
147
0.09
 71
     1
 72
     0
 73
     1
 74
     1
 75
     0
 76
     0
 77
     0
 78
     4
170
     0
171
     2
172
     0
173
     0
174
     0
175
     0
176
     0
177
     0
178
     0
  0
ENDTAB
  0
ENDSEC
  0
SECTION
  2
BLOCKS
  0
BLOCK
  8
0
  2
$MODEL_SPACE
 70
     0
 10
0.0
 20
0.0
 30
0.0
  3
$MODEL_SPACE
  1

  0
ENDBLK
  5
21
  8
0
  0
BLOCK
 67
     1
  8
0
  2
$PAPER_SPACE
 70
     0
 10
0.0
 20
0.0
 30
0.0
  3
$PAPER_SPACE
  1

  0
ENDBLK
  5
1D
 67
     1
  8
0
  0
ENDSEC
  0
SECTION
  2
ENTITIES
  0
ATTDEF
  5
1FF6
  8
DEFPOINTS
 10
124.5998304271904971
 20
-7.5713954148262932
 30
0.0
 40
0.001
  1
K-5317T-4
  3

  2
MODELNUMBER
 70
     0
1001
ACDBATTR
1070
     0
1070
     1
  0
ATTDEF
  5
1FF7
  8
DEFPOINTS
 10
124.5998304271904971
 20
-7.5730620814929583
 30
0.0
 40
0.001
  1
REFINIA
  3

  2
TRADENAME
 70
     0
1001
ACDBATTR
1070
     0
1070
     1
  0
ATTDEF
  5
1FF8
  8
DEFPOINTS
 10
124.5998304271904971
 20
-7.5747287481596226
 30
0.0
 40
0.001
  1
BATHROOM SINK FAUCET
  3

  2
PRODUCT
 70
     0
1001
ACDBATTR
1070
     0
1070
     1
  0
ARC
  5
324E
  8
0
 10
120.5993705285491018
 20
-7.5728127245890473
 30
0.0
 40
0.6557988128999988
 50
209.1629995821996033
 51
148.8083734006397094
  0
ARC
  5
324F
  8
0
 10
124.3216390701389997
 20
26.5465366320878289
 30
0.0
 40
34.0501858503666668
 50
262.7734640999379963
 51
263.3178681950461737
  0
ARC
  5
3250
  8
0
 10
118.9194742971409937
 20
-15.4414165635574303
 30
0.0
 40
8.2841532793543582
 50
82.2376175501779727
 51
98.4426423268769071
  0
ARC
  5
3251
  8
0
 10
117.7101130371326008
 20
-7.3067278122019594
 30
0.0
 40
0.0600907952948443
 50
96.6050596736328231
 51
204.9349235867485959
  0
ARC
  5
3252
  8
0
 10
118.7097737843823069
 20
-6.8274335602068614
 30
0.0
 40
1.1687096062734961
 50
205.5807077022886915
 51
233.8794719025773929
  0
ARC
  5
3253
  8
0
 10
118.8616884361047994
 20
-6.6192631815537144
 30
0.0
 40
1.4264167422952561
 50
233.8794742748368094
 51
266.2696837611329101
  0
ARC
  5
3254
  8
0
 10
118.9887725898290967
 20
-5.151907999292086
 30
0.0
 40
2.8991007145525232
 50
265.6501257215084024
 51
281.4829170642137228
  0
ARC
  5
3255
  8
0
 10
117.8122418104497058
 20
1.145174549144458
 30
0.0
 40
9.3049042623637952
 50
280.8633590245897267
 51
283.7678551653016257
  0
ARC
  5
3256
  8
0
 10
122.6576593599782967
 20
-18.5488975108784118
 30
0.0
 40
10.9764876809888801
 50
102.3434704226407064
 51
103.8682567431226005
  0
ARC
  5
3257
  8
0
 10
120.8613765457707956
 20
-10.3193975477912492
 30
0.0
 40
2.5532332307541559
 50
97.0380844652102041
 51
102.4438720004620933
  0
ARC
  5
3258
  8
0
 10
120.6691474777946951
 20
-8.7433821796909896
 30
0.0
 40
0.965542412258263
 50
87.8900733168325274
 51
97.176174461435707
  0
ARC
  5
3259
  8
0
 10
120.6937455695939008
 20
-8.0992640162488154
 30
0.0
 40
0.3209564884439286
 50
71.5580007711352835
 51
88.0448495613265152
  0
ARC
  5
325A
  8
0
 10
120.7230931495260933
 20
-7.9873709141077578
 30
0.0
 40
0.2056646418986447
 50
43.9319546835104475
 51
69.4524152959835135
  0
ARC
  5
325B
  8
0
 10
118.6407203591724056
 20
-15.7754433974295196
 30
0.0
 40
8.5797830645892006
 50
84.02480950832053
 51
96.27327873579965
  0
ARC
  5
325C
  8
0
 10
68.5287538282019284
 20
-494.2479018050192963
 30
0.0
 40
489.6692785085407991
 50
83.9654569320614144
 51
84.0210918298512581
  0
ARC
  5
325D
  8
0
 10
114.9414989665066997
 20
-55.2065044903085109
 30
0.0
 40
48.1814627453795481
 50
83.2562892638144234
 51
83.9654569320614144
  0
ARC
  5
325E
  8
0
 10
120.6821627825851948
 20
-6.4287602779386086
 30
0.0
 40
0.9333114296497997
 50
264.9107124323838889
 51
273.3882548072135137
  0
ARC
  5
325F
  8
0
 10
120.7173221615697969
 20
-7.1337730507763171
 30
0.0
 40
0.2275479188925948
 50
275.0426779757829081
 51
312.6332225754670162
  0
ARC
  5
3260
  8
0
 10
120.5993705285491018
 20
-7.5728127245890473
 30
0.0
 40
0.3844555654719635
 50
221.2559700681781862
 51
128.5983280863709126
  0
ARC
  5
3261
  8
0
 10
124.6288630607681966
 20
-7.5320402215759801
 30
0.0
 40
0.9654235511576273
 50
91.7505893257140031
 51
121.5191463153907989
  0
ARC
  5
3262
  8
0
 10
125.0043762084076064
 20
-8.1443625958960464
 30
0.0
 40
1.683719321814144
 50
121.5191463153907989
 51
143.9147157968344004
  0
ARC
  5
3263
  8
0
 10
123.7092145369648932
 20
-7.2003807027980971
 30
0.0
 40
0.0810510640778096
 50
143.9393933707667088
 51
182.8445551325708038
  0
ARC
  5
3264
  8
0
 10
126.548442331455206
 20
-7.0511741767007559
 30
0.0
 40
2.924196369105303
 50
183.0036949461126028
 51
188.8143893953136967
  0
ARC
  5
3265
  8
0
 10
125.5087604035302036
 20
-7.2123928189683779
 30
0.0
 40
1.8720889782613459
 50
188.8143893953136967
 51
201.8032360701186008
  0
ARC
  5
3266
  8
0
 10
124.6441937772865032
 20
-7.5582514421395484
 30
0.0
 40
0.9409103496212095
 50
201.8032360701184871
 51
222.5666932414320058
  0
ARC
  5
3267
  8
0
 10
123.6333288980697063
 20
-7.2967910446872617
 30
0.0
 40
0.0924122215144231
 50
75.0929039769218463
 51
93.1385011880066003
  0
ARC
  5
3268
  8
0
 10
123.6264954871066948
 20
-7.3224600968809108
 30
0.0
 40
0.1189752737846087
 50
31.294382315237911
 51
75.0929039769218321
  0
ARC
  5
3269
  8
0
 10
122.2173839097765011
 20
-8.0546690900512274
 30
0.0
 40
1.7067213294272521
 50
9.0664743373678611
 51
27.7247665638241401
  0
ARC
  5
326A
  8
0
 10
117.8229019659979002
 20
-8.7131655867623472
 30
0.0
 40
6.1502103477027639
 50
4.8355352459002443
 51
8.6731999717471808
  0
ARC
  5
326B
  8
0
 10
107.0471608827734968
 20
-9.2679126429776026
 30
0.0
 40
16.9380936650023983
 50
355.7280273219809033
 51
3.6326488708124018
  0
ARC
  5
326C
  8
0
 10
141.1858176357465879
 20
-11.8549500810349198
 30
0.0
 40
17.298465387769479
 50
175.6060403054794961
 51
179.3848239538982909
  0
ARC
  5
326D
  8
0
 10
125.6763418381873976
 20
-11.6884208056334398
 30
0.0
 40
1.788095581906032
 50
179.3848239538982057
 51
202.1285287547412963
  0
ARC
  5
326E
  8
0
 10
125.0159072442803989
 20
-11.9569786272834904
 30
0.0
 40
1.0751459648933479
 50
202.1285287547412963
 51
228.1057857459234128
  0
ARC
  5
326F
  8
0
 10
124.614875257645096
 20
-12.3903631815619004
 30
0.0
 40
0.4848373982750506
 50
229.1840853118901862
 51
268.1674073937847993
  0
ARC
  5
3270
  8
0
 10
124.6053811985962056
 20
-7.5697257065128323
 30
0.0
 40
0.5536827650046903
 50
90.6220030925035474
 51
139.7113289534717921
  0
ARC
  5
3271
  8
0
 10
124.4256809236973993
 20
-7.4136579291585756
 30
0.0
 40
0.3157014061899471
 50
140.227977148682811
 51
167.5248701700724041
  0
ARC
  5
3272
  8
0
 10
124.2997571874357021
 20
-7.3857986490938252
 30
0.0
 40
0.1867327013045393
 50
167.5248701700720915
 51
215.4388610267226056
  0
ARC
  5
3273
  8
0
 10
124.3585239568171943
 20
-7.3199856116427506
 30
0.0
 40
0.2734720059181773
 50
219.5373174168379933
 51
263.072019628556518
  0
ARC
  5
3274
  8
0
 10
124.5948535458805964
 20
-6.2079986938486993
 30
0.0
 40
1.4094320995215079
 50
258.9841009988904261
 51
270.1836235206814081
  0
ARC
  5
3275
  8
0
 10
124.6688546678951042
 20
-5.5415759001873868
 30
0.0
 40
2.0457459089939909
 50
259.8026841950967878
 51
268.0535640453578026
  0
ARC
  5
3276
  8
0
 10
124.3794955419127035
 20
-7.175314017270594
 30
0.0
 40
0.3866123032680893
 50
242.9983697260639985
 51
259.1437178962133885
  0
ARC
  5
3277
  8
0
 10
124.3300419368023029
 20
-7.3136409471869088
 30
0.0
 40
0.2416389292445085
 50
209.1580993912558029
 51
238.550455970599387
  0
ARC
  5
3278
  8
0
 10
124.5933598724020044
 20
-7.5697257065128687
 30
0.0
 40
0.5536827650047275
 50
40.2886710465298421
 51
89.3779969074948184
  0
ARC
  5
3279
  8
0
 10
124.773060147300896
 20
-7.4136579291585756
 30
0.0
 40
0.3157014061899471
 50
12.4751298299275692
 51
39.7720228513171676
  0
ARC
  5
327A
  8
0
 10
124.8989838835624937
 20
-7.3857986490938252
 30
0.0
 40
0.1867327013045393
 50
324.5611389732774228
 51
12.4751298299278695
  0
ARC
  5
327B
  8
0
 10
124.8402171141810015
 20
-7.3199856116427506
 30
0.0
 40
0.2734720059181773
 50
276.927980371443482
 51
320.4626825831620067
  0
ARC
  5
327C
  8
0
 10
124.6038875251176989
 20
-6.207998693848741
 30
0.0
 40
1.4094320995214651
 50
269.8163764793185919
 51
281.0158990011095739
  0
ARC
  5
327D
  8
0
 10
124.5298864031031059
 20
-5.541575900187369
 30
0.0
 40
2.0457459089940091
 50
271.9464359546431069
 51
280.1973158049032122
  0
ARC
  5
327E
  8
0
 10
124.8192455290855065
 20
-7.175314017270594
 30
0.0
 40
0.3866123032680893
 50
280.8562821037864978
 51
297.001630273935973
  0
ARC
  5
327F
  8
0
 10
124.882446158738702
 20
-7.3309203188506791
 30
0.0
 40
0.2197421596879151
 50
300.7423661224024158
 51
335.2351463772101283
  0
ARC
  5
3280
  8
0
 10
128.599370542449094
 20
-7.5728127245890473
 30
0.0
 40
0.6557988128999988
 50
31.1916265993602408
 51
330.8370004178004251
  0
ARC
  5
3281
  8
0
 10
124.8771020008592956
 20
26.5465366320878289
 30
0.0
 40
34.0501858503666668
 50
276.6821318049529168
 51
277.2265359000618901
  0
ARC
  5
3282
  8
0
 10
130.2792667738571879
 20
-15.4414165635574303
 30
0.0
 40
8.2841532793543582
 50
81.5573576731230929
 51
97.7623824498220131
  0
ARC
  5
3283
  8
0
 10
131.4886280338656093
 20
-7.3067278122019594
 30
0.0
 40
0.0600907952948443
 50
335.0650764132514041
 51
83.3949403263672053
  0
ARC
  5
3284
  8
0
 10
130.488967286615889
 20
-6.8274335602068614
 30
0.0
 40
1.1687096062734961
 50
306.1205280974224934
 51
334.4192922977113085
  0
ARC
  5
3285
  8
0
 10
130.3370526348934959
 20
-6.6192631815537144
 30
0.0
 40
1.4264167422952561
 50
273.7303162388670899
 51
306.1205257251631906
  0
ARC
  5
3286
  8
0
 10
130.2099684811691134
 20
-5.151907999292086
 30
0.0
 40
2.8991007145525232
 50
258.5170829357862772
 51
274.3498742784915976
  0
ARC
  5
3287
  8
0
 10
131.3864992605485895
 20
1.145174549144458
 30
0.0
 40
9.3049042623637952
 50
256.2321448346983743
 51
259.1366409754102733
  0
ARC
  5
3288
  8
0
 10
126.5410817110199986
 20
-18.5488975108784118
 30
0.0
 40
10.9764876809888801
 50
76.1317432568774279
 51
77.6565295773592652
  0
ARC
  5
3289
  8
0
 10
128.3373645252275139
 20
-10.3193975477912492
 30
0.0
 40
2.5532332307541559
 50
77.5561279995378925
 51
82.9619155347897959
  0
ARC
  5
328A
  8
0
 10
128.5295935932036002
 20
-8.7433821796909896
 30
0.0
 40
0.965542412258263
 50
82.8238255385643072
 51
92.1099266831674868
  0
ARC
  5
328B
  8
0
 10
128.5049955014042951
 20
-8.0992640162488154
 30
0.0
 40
0.3209564884439286
 50
91.9551504386726464
 51
108.4419992288647023
  0
ARC
  5
328C
  8
0
 10
128.4756479214721026
 20
-7.9873709141077578
 30
0.0
 40
0.2056646418986447
 50
110.5475847040164012
 51
136.0680453164895027
  0
ARC
  5
328D
  8
0
 10
130.5580207118258897
 20
-15.7754433974295196
 30
0.0
 40
8.5797830645892006
 50
83.7267212642004068
 51
95.9751904916794842
  0
ARC
  5
328E
  8
0
 10
180.6699872427963101
 20
-494.2479018050192963
 30
0.0
 40
489.6692785085407991
 50
95.9789081701487419
 51
96.0345430679385998
  0
ARC
  5
328F
  8
0
 10
134.2572421044916098
 20
-55.2065044903085109
 30
0.0
 40
48.1814627453795481
 50
96.0345430679385998
 51
96.7437107361855908
  0
ARC
  5
3290
  8
0
 10
128.5165782884130863
 20
-6.4287602779386086
 30
0.0
 40
0.9333114296497997
 50
266.6117451927864863
 51
275.0892875676161111
  0
ARC
  5
3291
  8
0
 10
128.4814189094284984
 20
-7.1337730507763171
 30
0.0
 40
0.2275479188925948
 50
227.3667774245328985
 51
264.9573220242170919
  0
ARC
  5
3292
  8
0
 10
128.599370542449094
 20
-7.5728127245890473
 30
0.0
 40
0.3844555654719635
 50
51.4016719136291229
 51
318.7440299318217853
  0
ARC
  5
3293
  8
0
 10
124.5698780102299992
 20
-7.5320402215759836
 30
0.0
 40
0.9654235511576273
 50
58.4808536846131517
 51
88.2494106742908997
  0
ARC
  5
3294
  8
0
 10
124.1943648625907031
 20
-8.1443625958960784
 30
0.0
 40
1.683719321814144
 50
36.0852842031699979
 51
58.4808536846131517
  0
ARC
  5
3295
  8
0
 10
125.4895265340334021
 20
-7.2003807027980278
 30
0.0
 40
0.0810510640778096
 50
357.1554448674335731
 51
36.06060662923759
  0
ARC
  5
3296
  8
0
 10
122.650298739543004
 20
-7.0511741767009086
 30
0.0
 40
2.924196369105303
 50
351.1856106046906802
 51
356.9963050538917742
  0
ARC
  5
3297
  8
0
 10
123.6899806674681059
 20
-7.212392818968449
 30
0.0
 40
1.8720889782613459
 50
338.1967639298858899
 51
351.1856106046906234
  0
ARC
  5
3298
  8
0
 10
124.5545472937117069
 20
-7.558251442139551
 30
0.0
 40
0.9409103496212095
 50
317.4333067585727122
 51
338.1967639298860036
  0
ARC
  5
3299
  8
0
 10
125.5654121729286032
 20
-7.2967910446871871
 30
0.0
 40
0.0924122215144231
 50
86.8614988119974782
 51
104.9070960230824028
  0
ARC
  5
329A
  8
0
 10
125.572245583891501
 20
-7.3224600968808353
 30
0.0
 40
0.1189752737846087
 50
104.9070960230824028
 51
148.7056176847665938
  0
ARC
  5
329B
  8
0
 10
126.9813571612217942
 20
-8.0546690900510391
 30
0.0
 40
1.7067213294272521
 50
152.275233436180514
 51
170.933525662636697
  0
ARC
  5
329C
  8
0
 10
131.3758391050004093
 20
-8.7131655867618196
 30
0.0
 40
6.1502103477027639
 50
171.3268000282573951
 51
175.1644647541041877
  0
ARC
  5
329D
  8
0
 10
142.1515801882248127
 20
-9.2679126429776026
 30
0.0
 40
16.9380936650023983
 50
176.3673511291875968
 51
184.2719726780190967
  0
ARC
  5
329E
  8
0
 10
108.0129234352515937
 20
-11.8549500810349198
 30
0.0
 40
17.298465387769479
 50
0.6151760461016861
 51
4.3939596945204533
  0
ARC
  5
329F
  8
0
 10
123.5223992328107983
 20
-11.6884208056334398
 30
0.0
 40
1.788095581906032
 50
337.8714712452587037
 51
0.615176046101788
  0
ARC
  5
32A0
  8
0
 10
124.1828338267178964
 20
-11.9569786272834904
 30
0.0
 40
1.0751459648933479
 50
311.8942142540765872
 51
337.8714712452587037
  0
ARC
  5
32A1
  8
0
 10
124.5838658273941064
 20
-12.3903632046370795
 30
0.0
 40
0.4848373716338483
 50
271.8325794787718905
 51
310.8159152147314899
  0
ARC
  5
32A2
  8
0
 10
128.599370542449094
 20
-7.5728127245890473
 30
0.0
 40
1.1169020255083599
 50
20.5067633360708399
 51
337.8875617624482857
  0
ARC
  5
32A3
  8
0
 10
120.5993705285491018
 20
-7.5728127245890473
 30
0.0
 40
1.1169020254999991
 50
202.1124382376322899
 51
159.4932366638051064
  0
ENDSEC
  0
EOF
