  0
SECTION
  2
HEADER
  9
$ACADVER
  1
AC1009
  9
$INSBASE
 10
124.5929949179164993
 20
-21.8255275027049187
 30
0.0
  9
$EXTMIN
 10
119.6430209331192032
 20
-21.8265271168709383
 30
-0.0015258207003583
  9
$EXTMAX
 10
129.5460662053206136
 20
-15.0500726174108195
 30
0.0000000349246037
  9
$LIMMIN
 10
0.0
 20
0.0
  9
$LIMMAX
 10
11.6929133858000007
 20
8.2677165353999982
  9
$ORTHOMODE
 70
     0
  9
$REGENMODE
 70
     1
  9
$FILLMODE
 70
     1
  9
$QTEXTMODE
 70
     0
  9
$MIRRTEXT
 70
     0
  9
$DRAGMODE
 70
     2
  9
$LTSCALE
 40
0.6431102362
  9
$OSMODE
 70
  2047
  9
$ATTMODE
 70
     1
  9
$TEXTSIZE
 40
0.2
  9
$TRACEWID
 40
0.05
  9
$TEXTSTYLE
  7
STANDARD
  9
$CLAYER
  8
0
  9
$CELTYPE
  6
BYLAYER
  9
$CECOLOR
 62
   256
  9
$DIMSCALE
 40
1.0
  9
$DIMASZ
 40
0.1875
  9
$DIMEXO
 40
0.0625
  9
$DIMDLI
 40
0.4443307087
  9
$DIMRND
 40
0.0
  9
$DIMDLE
 40
0.0
  9
$DIMEXE
 40
0.125
  9
$DIMTP
 40
0.01
  9
$DIMTM
 40
0.01
  9
$DIMTXT
 40
1.0
  9
$DIMCEN
 40
0.1052362205
  9
$DIMTSZ
 40
0.0
  9
$DIMTOL
 70
     1
  9
$DIMLIM
 70
     0
  9
$DIMTIH
 70
     1
  9
$DIMTOH
 70
     1
  9
$DIMSE1
 70
     0
  9
$DIMSE2
 70
     0
  9
$DIMTAD
 70
     0
  9
$DIMZIN
 70
     0
  9
$DIMBLK
  1

  9
$DIMASO
 70
     1
  9
$DIMSHO
 70
     1
  9
$DIMPOST
  1
\X
  9
$DIMAPOST
  1

  9
$DIMALT
 70
     1
  9
$DIMALTD
 70
     2
  9
$DIMALTF
 40
25.3999999999999986
  9
$DIMLFAC
 40
1.0
  9
$DIMTOFL
 70
     0
  9
$DIMTVP
 40
0.0
  9
$DIMTIX
 70
     0
  9
$DIMSOXD
 70
     0
  9
$DIMSAH
 70
     0
  9
$DIMBLK1
  1

  9
$DIMBLK2
  1

  9
$DIMSTYLE
  2
STANDARD
  9
$DIMCLRD
 70
     0
  9
$DIMCLRE
 70
     0
  9
$DIMCLRT
 70
     0
  9
$DIMTFAC
 40
1.0
  9
$DIMGAP
 40
0.09
  9
$LUNITS
 70
     2
  9
$LUPREC
 70
     4
  9
$SKETCHINC
 40
0.1
  9
$FILLETRAD
 40
0.0
  9
$AUNITS
 70
     0
  9
$AUPREC
 70
     0
  9
$MENU
  1
.
  9
$ELEVATION
 40
0.0
  9
$PELEVATION
 40
0.0
  9
$THICKNESS
 40
0.0
  9
$LIMCHECK
 70
     0
  9
$BLIPMODE
 70
     0
  9
$CHAMFERA
 40
0.0
  9
$CHAMFERB
 40
0.0
  9
$SKPOLY
 70
     0
  9
$TDCREATE
 40
2458172.4620254631154239
  9
$TDUPDATE
 40
2459044.8361226851120591
  9
$TDINDWG
 40
0.0783276968
  9
$TDUSRTIMER
 40
0.0783276968
  9
$USRTIMER
 70
     1
  9
$ANGBASE
 50
0.0
  9
$ANGDIR
 70
     0
  9
$PDMODE
 70
     0
  9
$PDSIZE
 40
0.3125
  9
$PLINEWID
 40
0.0
  9
$COORDS
 70
     1
  9
$SPLFRAME
 70
     0
  9
$SPLINETYPE
 70
     6
  9
$SPLINESEGS
 70
     8
  9
$ATTDIA
 70
     1
  9
$ATTREQ
 70
     1
  9
$HANDLING
 70
     1
  9
$HANDSEED
  5
48ED
  9
$SURFTAB1
 70
     6
  9
$SURFTAB2
 70
     6
  9
$SURFTYPE
 70
     6
  9
$SURFU
 70
     6
  9
$SURFV
 70
     6
  9
$UCSNAME
  2

  9
$UCSORG
 10
0.0
 20
0.0
 30
0.0
  9
$UCSXDIR
 10
1.0
 20
0.0
 30
0.0
  9
$UCSYDIR
 10
0.0
 20
1.0
 30
0.0
  9
$PUCSNAME
  2

  9
$PUCSORG
 10
0.0
 20
0.0
 30
0.0
  9
$PUCSXDIR
 10
1.0
 20
0.0
 30
0.0
  9
$PUCSYDIR
 10
0.0
 20
1.0
 30
0.0
  9
$USERI1
 70
     0
  9
$USERI2
 70
     0
  9
$USERI3
 70
     0
  9
$USERI4
 70
     0
  9
$USERI5
 70
     0
  9
$USERR1
 40
0.0
  9
$USERR2
 40
0.0
  9
$USERR3
 40
0.0
  9
$USERR4
 40
0.0
  9
$USERR5
 40
0.0
  9
$WORLDVIEW
 70
     1
  9
$SHADEDGE
 70
     3
  9
$SHADEDIF
 70
    70
  9
$TILEMODE
 70
     1
  9
$MAXACTVP
 70
    64
  9
$PLIMCHECK
 70
     0
  9
$PEXTMIN
 10
1.0000000000000000E+20
 20
1.0000000000000000E+20
 30
1.0000000000000000E+20
  9
$PEXTMAX
 10
-1.0000000000000000E+20
 20
-1.0000000000000000E+20
 30
-1.0000000000000000E+20
  9
$PLIMMIN
 10
0.0
 20
0.0
  9
$PLIMMAX
 10
12.0
 20
9.0
  9
$UNITMODE
 70
     0
  9
$VISRETAIN
 70
     1
  9
$PLINEGEN
 70
     0
  9
$PSLTSCALE
 70
     1
  0
ENDSEC
  0
SECTION
  2
TABLES
  0
TABLE
  2
VPORT
 70
     1
  0
VPORT
  2
*ACTIVE
 70
     0
 10
0.0
 20
0.0
 11
1.0
 21
1.0
 12
-0.7558910654884788
 22
-23.9308852685942917
 13
0.0
 23
0.0
 14
1.0
 24
1.0
 15
0.0
 25
0.0
 16
0.0
 26
0.0
 36
30.6214257250603907
 17
124.6111586000725993
 27
5.3122741703778242
 37
0.0
 40
10.9325545982260195
 41
2.6486111111111108
 42
50.0
 43
0.0
 44
0.0
 50
0.0
 51
0.0
 71
     0
 72
   100
 73
     1
 74
     1
 75
     0
 76
     0
 77
     0
 78
     0
  0
ENDTAB
  0
TABLE
  2
LTYPE
 70
     2
  0
LTYPE
  2
CONTINUOUS
 70
     0
  3
Solid line
 72
    65
 73
     0
 40
0.0
  0
LTYPE
  2
PHANTOM2
 70
     0
  3
___ _ _ ___ _ _ ___ _ _ ___ _ _
 72
    65
 73
     6
 40
1.25
 49
0.625
 49
-0.125
 49
0.125
 49
-0.125
 49
0.125
 49
-0.125
  0
ENDTAB
  0
TABLE
  2
LAYER
 70
     2
  0
LAYER
  2
0
 70
     0
 62
   255
  6
CONTINUOUS
  0
LAYER
  2
DEFPOINTS
 70
     0
 62
     7
  6
CONTINUOUS
  0
ENDTAB
  0
TABLE
  2
STYLE
 70
     1
  0
STYLE
  2
STANDARD
 70
     0
 40
0.0
 41
0.8
 50
0.0
 71
     0
 42
0.2
  3
txt
  4

  0
ENDTAB
  0
TABLE
  2
VIEW
 70
     0
  0
ENDTAB
  0
TABLE
  2
UCS
 70
     0
  0
ENDTAB
  0
TABLE
  2
APPID
 70
     9
  0
APPID
  2
ACAD
 70
     0
  0
APPID
  2
ACAD_MLEADERVER
 70
     0
  0
APPID
  2
ACAD_EXEMPT_FROM_CAD_STANDARDS
 70
     0
  0
APPID
  2
ACAD_DSTYLE_DIMJAG
 70
     0
  0
APPID
  2
ACAD_DSTYLE_DIMTALN
 70
     0
  0
APPID
  2
ACAD_NAV_VCDISPLAY
 70
     0
  0
APPID
  2
ACAECLAYERSTANDARD
 70
     0
  0
APPID
  2
ACCMTRANSPARENCY
 70
     0
  0
APPID
  2
ACDBATTR
 70
     0
  0
ENDTAB
  0
TABLE
  2
DIMSTYLE
 70
     1
  0
DIMSTYLE
  2
STANDARD
 70
     0
  3

  4

  5

  6

  7

 40
1.0
 41
0.1875
 42
0.0625
 43
0.38
 44
0.125
 45
0.0
 46
0.0
 47
0.01
 48
0.01
140
0.15625
141
0.09
142
0.0
143
25.3999999999999986
144
1.0
145
0.0
146
1.0
147
0.09
 71
     1
 72
     0
 73
     1
 74
     1
 75
     0
 76
     0
 77
     0
 78
     4
170
     0
171
     2
172
     0
173
     0
174
     0
175
     0
176
     0
177
     0
178
     0
  0
ENDTAB
  0
ENDSEC
  0
SECTION
  2
BLOCKS
  0
BLOCK
  8
0
  2
$MODEL_SPACE
 70
     0
 10
0.0
 20
0.0
 30
0.0
  3
$MODEL_SPACE
  1

  0
ENDBLK
  5
21
  8
0
  0
BLOCK
 67
     1
  8
0
  2
$PAPER_SPACE
 70
     0
 10
0.0
 20
0.0
 30
0.0
  3
$PAPER_SPACE
  1

  0
ENDBLK
  5
1D
 67
     1
  8
0
  0
BLOCK
  8
0
  2
_FILLED
 70
     0
 10
0.0
 20
0.0
 30
0.0
  3
_FILLED
  1

  0
SOLID
  5
4043
  8
0
  6
BYBLOCK
 62
     0
 10
0.0
 20
0.0
 30
0.0
 11
-1.0
 21
0.1666666667
 31
0.0
 12
-1.0
 22
-0.1666666667
 32
0.0
 13
-1.0
 23
-0.1666666667
 33
0.0
  0
ENDBLK
  5
4044
  8
0
  6
BYBLOCK
 62
     0
  0
ENDSEC
  0
SECTION
  2
ENTITIES
  0
ATTDEF
  5
3A9F
  8
DEFPOINTS
 10
124.5934601487149962
 20
-21.8216141930037715
 30
0.0
 40
0.001
  1
K-5316T-4
  3

  2
MODELNUMBER
 70
     0
1001
ACDBATTR
1070
     0
1070
     1
  0
ATTDEF
  5
3AA0
  8
DEFPOINTS
 10
124.5934601487149962
 20
-21.8232808596704295
 30
0.0
 40
0.001
  1
REFINIA
  3

  2
TRADENAME
 70
     0
1001
ACDBATTR
1070
     0
1070
     1
  0
ATTDEF
  5
3AA1
  8
DEFPOINTS
 10
124.5934601487149962
 20
-21.8249475263370982
 30
0.0
 40
0.001
  1
BATHROOM SINK FAUCET
  3

  2
PRODUCT
 70
     0
1001
ACDBATTR
1070
     0
1070
     1
  0
ARC
  5
459F
  8
0
 10
123.6521234002128011
 20
-21.2949434505476383
 30
0.0
 40
0.0306173463299612
 50
182.9388093417609866
 51
269.3547700500265023
  0
ARC
  5
45A0
  8
0
 10
242.4993486874485029
 20
-25.9101622176704112
 30
0.0
 40
118.9672965697632065
 50
175.0519707787896948
 51
177.7774654879297032
  0
ARC
  5
45A1
  8
0
 10
124.6735441488272045
 20
-15.3501678077952608
 30
0.0
 40
0.7499244655030106
 50
218.0527414448802119
 51
238.1816178678527933
  0
ARC
  5
45A2
  8
0
 10
124.8008193846996932
 20
-15.2225873768497095
 30
0.0
 40
0.9290462090795909
 50
207.3200834502781902
 51
219.4103629500164914
  0
ARC
  5
45A3
  8
0
 10
125.0700119592041943
 20
-15.0725223353646296
 30
0.0
 40
1.2371247174362969
 50
197.0695847988970968
 51
207.7729132264570922
  0
ARC
  5
45A4
  8
0
 10
124.0650042868072944
 20
-15.4040238253304302
 30
0.0
 40
0.1833803760982698
 50
131.6323816106271067
 51
179.5688198358695047
  0
ARC
  5
45A5
  8
0
 10
124.5620012108925039
 20
-16.059544612784439
 30
0.0
 40
1.005551320752192
 50
108.7031950879047031
 51
127.9816531016649037
  0
ARC
  5
45A6
  8
0
 10
124.6264944964089949
 20
-16.4000788773846082
 30
0.0
 40
1.349641333458272
 50
91.422290170542567
 51
106.660361645966006
  0
ARC
  5
45A7
  8
0
 10
124.0158701161177959
 20
-15.3962540705572408
 30
0.0
 40
0.1343929991609663
 50
182.725164237727995
 51
197.0501011600296124
  0
ARC
  5
45A8
  8
0
 10
123.942266409880105
 20
-15.4059671563004308
 30
0.0
 40
0.0621517756305206
 50
207.2469799761931881
 51
252.8664601704965094
  0
ARC
  5
45A9
  8
0
 10
124.1984981265400023
 20
-14.5748044813720892
 30
0.0
 40
0.9319138608104381
 50
252.8664601704965094
 51
265.8854441468157006
  0
ARC
  5
45AA
  8
0
 10
124.5334264839598006
 20
-8.8959368946692212
 30
0.0
 40
6.620582925545146
 50
266.5206608909552983
 51
270.5160342244299727
  0
ARC
  5
45AB
  8
0
 10
124.002699525727806
 20
-15.3273775396583893
 30
0.0
 40
0.0849356501293546
 50
136.0010110259754015
 51
144.2779689578975137
  0
ARC
  5
45AC
  8
0
 10
124.0091820761674057
 20
-15.3320395054395604
 30
0.0
 40
0.0929204723031345
 50
144.2779689578975137
 51
172.5780707034593888
  0
ARC
  5
45AD
  8
0
 10
124.021660503472404
 20
-15.3336650269591193
 30
0.0
 40
0.1055043297489438
 50
172.5780707034593888
 51
182.0035537109907864
  0
ARC
  5
45AE
  8
0
 10
123.9427497164223979
 20
-15.3364255527025009
 30
0.0
 40
0.0265452719074089
 50
182.0035537109912127
 51
237.1712894484772107
  0
ARC
  5
45AF
  8
0
 10
124.2094924722434968
 20
-13.5097167354429306
 30
0.0
 40
1.8878820162818231
 50
264.5569541993085068
 51
271.677277744497701
  0
ARC
  5
45B0
  8
0
 10
124.7659093038520979
 20
-37.3211402085938175
 30
0.0
 40
21.9300774602735586
 50
90.4516165423532925
 51
91.3094703285839842
  0
ARC
  5
45B1
  8
0
 10
124.0223347729618979
 20
-15.2083042777883097
 30
0.0
 40
0.1773691541196003
 50
238.0058293758017101
 51
261.1283404005574766
  0
ARC
  5
45B2
  8
0
 10
124.0964904125153936
 20
-14.8498704175630003
 30
0.0
 40
0.5432491786955252
 50
259.2305920702066828
 51
263.0138226627980202
  0
ARC
  5
45B3
  8
0
 10
124.5932021179309004
 20
-14.7530457458646804
 30
0.0
 40
1.0496823378218749
 50
266.5974739719461013
 51
269.9919114981897224
  0
ARC
  5
45B4
  8
0
 10
124.5996697127850013
 20
-14.6442648101490001
 30
0.0
 40
1.158655370074706
 50
260.2149605011235849
 51
266.5974737932546077
  0
ARC
  5
45B5
  8
0
 10
124.7092079453344979
 20
-14.0091173496528292
 30
0.0
 40
1.803179164022457
 50
252.590530379967106
 51
260.2149605011235849
  0
ARC
  5
45B6
  8
0
 10
123.974816281449904
 20
-16.3512074114198001
 30
0.0
 40
0.6513507244512788
 50
72.5905303799671344
 51
79.5484152352274236
  0
ARC
  5
45B7
  8
0
 10
124.0673586739103058
 20
-15.8495278665224308
 30
0.0
 40
0.1412071562562774
 50
79.5484152352274236
 51
93.7994089326891753
  0
ARC
  5
45B8
  8
0
 10
124.0596883802082004
 20
-15.7340280332413993
 30
0.0
 40
0.0254529127339753
 50
93.7994089326899854
 51
141.9311894452904994
  0
ARC
  5
45B9
  8
0
 10
124.0499296921102967
 20
-15.7263848189520399
 30
0.0
 40
0.0130573200468485
 50
141.9311894452916079
 51
176.4947018674940864
  0
ARC
  5
45BA
  8
0
 10
124.0978415513828992
 20
-15.7293196808028899
 30
0.0
 40
0.0610589832787923
 50
176.4947018674932906
 51
189.0317316237160981
  0
ARC
  5
45BB
  8
0
 10
124.1420228757519055
 20
-15.7122941247981007
 30
0.0
 40
0.1078187478905618
 50
194.2887904766153895
 51
210.8848670070763092
  0
ARC
  5
45BC
  8
0
 10
124.3295360169518062
 20
-15.6067801522543501
 30
0.0
 40
0.3229548088440419
 50
209.8733779623345015
 51
211.397898123276093
  0
ARC
  5
45BD
  8
0
 10
124.3852974028120997
 20
-15.2225874977508102
 30
0.0
 40
0.9290462090795909
 50
320.5896703917687205
 51
332.6799498915077038
  0
ARC
  5
45BE
  8
0
 10
124.1161047409811999
 20
-15.0725226129153604
 30
0.0
 40
1.2371247174362969
 50
332.2271201153286029
 51
342.9304485428887119
  0
ARC
  5
45BF
  8
0
 10
125.1085949993989033
 20
-15.4092169551579801
 30
0.0
 40
0.1956672662169943
 50
3.592993859175849
 51
46.6380678286204429
  0
ARC
  5
45C0
  8
0
 10
124.624116063664701
 20
-16.0595445947113795
 30
0.0
 40
1.005551320752192
 50
52.0183802401214308
 51
71.2968382538814041
  0
ARC
  5
45C1
  8
0
 10
124.5489412260681945
 20
-16.4673071697670288
 30
0.0
 40
1.4171387137285421
 50
73.7051999267747959
 51
88.2185954711176663
  0
ARC
  5
45C2
  8
0
 10
125.1899143396100982
 20
-15.4010280421445298
 30
0.0
 40
0.1141963098356498
 50
342.3467395316458237
 51
354.9114587397523906
  0
ARC
  5
45C3
  8
0
 10
125.2438504843447049
 20
-15.4059667775889597
 30
0.0
 40
0.0621517756305206
 50
287.1335731712891857
 51
332.8179834431509789
  0
ARC
  5
45C4
  8
0
 10
124.9876182840113046
 20
-14.5748042517681302
 30
0.0
 40
0.9319138608104381
 50
274.1145891949702218
 51
287.1335731712891857
  0
ARC
  5
45C5
  8
0
 10
124.6526837059043942
 20
-8.8958695472610287
 30
0.0
 40
6.6206502911473697
 50
269.4839509187534077
 51
273.4793622864966096
  0
ARC
  5
45C6
  8
0
 10
125.1834173227638018
 20
-15.3273771961144103
 30
0.0
 40
0.0849356501293546
 50
35.7220643838886929
 51
42.9455241607371221
  0
ARC
  5
45C7
  8
0
 10
125.1769347750370969
 20
-15.3320391656679291
 30
0.0
 40
0.0929204723031345
 50
7.421962638326522
 51
35.7220643838886929
  0
ARC
  5
45C8
  8
0
 10
125.1644563486780015
 20
-15.3336646944489896
 30
0.0
 40
0.1055043297489438
 50
357.9964796307950223
 51
7.421962638326522
  0
ARC
  5
45C9
  8
0
 10
125.2433671373344026
 20
-15.3364251742722892
 30
0.0
 40
0.0265452719074089
 50
302.8287438933090243
 51
357.9964796307946244
  0
ARC
  5
45CA
  8
0
 10
124.9766233185077056
 20
-13.5097165122370306
 30
0.0
 40
1.8878820162818231
 50
268.3227555972886194
 51
275.4430791424774725
  0
ARC
  5
45CB
  8
0
 10
124.4202445801760035
 20
-37.3198722409458981
 30
0.0
 40
21.9288091693282112
 50
88.6905506092027025
 51
89.5484775758596072
  0
ARC
  5
45CC
  8
0
 10
125.1637820062379944
 20
-15.2083039456705702
 30
0.0
 40
0.1773691541196003
 50
278.8716929412282184
 51
301.9942039659844113
  0
ARC
  5
45CD
  8
0
 10
125.0896261581033997
 20
-14.8498701285982708
 30
0.0
 40
0.5432491786955252
 50
276.9862106789880727
 51
280.7694412715791827
  0
ARC
  5
45CE
  8
0
 10
124.5929144607660959
 20
-14.7530471902722606
 30
0.0
 40
1.0496808922205501
 50
270.0076129651516226
 51
273.4025605386416942
  0
ARC
  5
45CF
  8
0
 10
124.5864467381868934
 20
-14.64426481399639
 30
0.0
 40
1.158655370074706
 50
273.4025595485318263
 51
279.7850728406622807
  0
ARC
  5
45D0
  8
0
 10
124.4769081360300049
 20
-14.0091174172432407
 30
0.0
 40
1.803179164022457
 50
279.7850728406622807
 51
287.4095029618191006
  0
ARC
  5
45D1
  8
0
 10
125.2113011628327968
 20
-16.3512070516497197
 30
0.0
 40
0.6513507244512788
 50
100.4516181065582998
 51
107.4095029618191006
  0
ARC
  5
45D2
  8
0
 10
125.1187584784330937
 20
-15.8495275606050701
 30
0.0
 40
0.1412071562562774
 50
86.2006244090962639
 51
100.4516181065590956
  0
ARC
  5
45D3
  8
0
 10
125.1264287049230006
 20
-15.7340277228605299
 30
0.0
 40
0.0254529127339753
 50
38.0688438964957427
 51
86.2006244090954397
  0
ARC
  5
45D4
  8
0
 10
125.1361873885731057
 20
-15.7263845028923601
 30
0.0
 40
0.0130573200468485
 50
3.5053314742918791
 51
38.0688438964945917
  0
ARC
  5
45D5
  8
0
 10
125.0882755310085059
 20
-15.7293193926242605
 30
0.0
 40
0.0610589832787923
 50
350.9683017180698243
 51
3.5053314742926909
  0
ARC
  5
45D6
  8
0
 10
125.0440941967318054
 20
-15.7122938623296502
 30
0.0
 40
0.1078187478905618
 50
329.1151663347092722
 51
345.7112428651702771
  0
ARC
  5
45D7
  8
0
 10
124.8565809941308942
 20
-15.6067799989042992
 30
0.0
 40
0.3229548088440419
 50
328.6021352185096021
 51
330.1266553794516199
  0
ARC
  5
45D8
  8
0
 10
122.2388148469550941
 20
-19.5092750836694186
 30
0.0
 40
0.0299999999963965
 50
90.00000000000081
 51
171.724383494178312
  0
LINE
  5
45D9
  8
0
 10
122.2091272329550975
 20
-19.5049570314733884
 30
0.0
 11
121.9493129303672987
 21
-21.2912408411050684
 31
0.0
  0
ARC
  5
45DA
  8
0
 10
121.9790005443451975
 20
-21.2955588932978692
 30
0.0
 40
0.0299999999739862
 50
171.7243834941781984
 51
269.9999996419687136
  0
ARC
  5
45DB
  8
0
 10
122.2289868987744939
 20
-19.4542731428419486
 30
0.0
 40
0.0150019034279991
 50
171.8821336513071003
 51
270.000000257946283
  0
LINE
  5
45DC
  8
0
 10
122.3053213821550997
 20
-19.4692750462699493
 30
0.0
 11
122.3053213821550997
 21
-19.4792750836730306
 31
0.0
  0
ARC
  5
45DD
  8
0
 10
122.9487849209392039
 20
-19.5093567473321592
 30
0.0
 40
0.0301444677542229
 50
8.397958634670978
 51
86.3008390117651345
  0
LINE
  5
45DE
  8
0
 10
122.978606165755096
 20
-19.504954214673031
 30
0.0
 11
123.2487918197416974
 21
-21.2912380393730309
 31
0.0
  0
ARC
  5
45DF
  8
0
 10
123.1962237532654996
 20
-21.2713919254037087
 30
0.0
 40
0.056189588472678
 50
285.4197862400599774
 51
339.3168862553861231
  0
ARC
  5
45E0
  8
0
 10
122.9566667556397022
 20
-19.454270479672001
 30
0.0
 40
0.0150046018319334
 50
270.1241670601406781
 51
8.1071182669360802
  0
LINE
  5
45E1
  8
0
 10
122.8803335341550991
 20
-19.4692750462699493
 30
0.0
 11
122.8803335341550991
 21
-19.4792750836730306
 31
0.0
  0
ARC
  5
45E2
  8
0
 10
119.7041603562314975
 20
-17.9378767180595595
 30
0.0
 40
0.0606872717703645
 50
180.0344701350751109
 51
209.5738339930290124
  0
ARC
  5
45E3
  8
0
 10
120.1903158710942989
 20
-17.662324459809561
 30
0.0
 40
0.6195040786414014
 50
209.5473764599771869
 51
227.1352528886775133
  0
ARC
  5
45E4
  8
0
 10
120.624771212009307
 20
-17.1942175777394013
 30
0.0
 40
1.2581553890534101
 50
227.1352528886775133
 51
238.1265182305947974
  0
ARC
  5
45E5
  8
0
 10
120.6843149207720955
 20
-17.0984578466563413
 30
0.0
 40
1.370917879937265
 50
238.1265182305947974
 51
254.6864211939316931
  0
ARC
  5
45E6
  8
0
 10
120.8520106148693998
 20
-16.6655758184871488
 30
0.0
 40
1.833332365881843
 50
253.204374352329296
 51
265.4487451795191078
  0
ARC
  5
45E7
  8
0
 10
120.823353819700003
 20
-17.3878418689296694
 30
0.0
 40
1.1114416620099019
 50
263.9666983379153749
 51
274.2925506385514041
  0
ARC
  5
45E8
  8
0
 10
120.626052676350298
 20
-14.7592497947009598
 30
0.0
 40
3.7474280113419862
 50
274.2925506385514041
 51
281.3698782035689874
  0
ARC
  5
45E9
  8
0
 10
121.7762729672756024
 20
-20.1690503984433214
 30
0.0
 40
1.7840099474798501
 50
87.8426991064303166
 51
103.3341247688994002
  0
ARC
  5
45EA
  8
0
 10
121.8043015053851974
 20
-18.8828315684447112
 30
0.0
 40
0.49806595161196
 50
48.7490770878418687
 51
85.4943069288584212
  0
ARC
  5
45EB
  8
0
 10
121.7339384485776037
 20
-18.8378154700562384
 30
0.0
 40
0.5172509824649327
 50
0.0394316614295285
 51
39.5620913864229991
  0
ARC
  5
45EC
  8
0
 10
119.2282084163043976
 20
-18.9636978425743408
 30
0.0
 40
3.0256155730911392
 50
350.709482282991587
 51
2.3912571633871451
  0
ARC
  5
45ED
  8
0
 10
119.7034203259021012
 20
-17.937877332332679
 30
0.0
 40
0.0599472412055526
 50
122.9165756072750071
 51
180.0343085396708034
  0
ARC
  5
45EE
  8
0
 10
119.7034619299804064
 20
-17.9379131863088084
 30
0.0
 40
0.0599999496448826
 50
92.7861551067110071
 51
122.9313210702683961
  0
ARC
  5
45EF
  8
0
 10
123.1438189056759995
 20
-86.4831659783615549
 30
0.0
 40
68.6915359001380637
 50
91.6325849120398459
 51
92.873247015109385
  0
ARC
  5
45F0
  8
0
 10
121.1667124102465039
 20
-21.4170985935396416
 30
0.0
 40
3.5976408475925301
 50
78.8892097666260241
 51
89.6802701186416726
  0
ARC
  5
45F1
  8
0
 10
121.6640663742366968
 20
-19.1123119904771102
 30
0.0
 40
1.2409869444944079
 50
41.5475802905629621
 51
80.9157258166796822
  0
ARC
  5
45F2
  8
0
 10
121.6448012554493943
 20
-19.0402172528728997
 30
0.0
 40
1.2094313183439309
 50
18.9555906081202004
 51
38.3845307209772102
  0
ARC
  5
45F3
  8
0
 10
118.7692291378176037
 20
-19.9838630069379199
 30
0.0
 40
4.2357967678667219
 50
7.2112132647055187
 51
18.39267919352924
  0
ARC
  5
45F4
  8
0
 10
118.1375440285899998
 20
147.8687806818361992
 30
0.0
 40
165.8436384241217922
 50
270.5230315404903081
 51
270.9445402031881258
  0
ARC
  5
45F5
  8
0
 10
120.974697654880103
 20
-24.2172797828693191
 30
0.0
 40
6.2658082862822626
 50
81.9777553124048382
 51
90.9445402031880548
  0
ARC
  5
45F6
  8
0
 10
121.6751274542406946
 20
-19.2474638142177206
 30
0.0
 40
1.246876859564348
 50
53.1296451827988108
 51
81.9777553124048382
  0
ARC
  5
45F7
  8
0
 10
121.9830283535446966
 20
-18.8369361061454583
 30
0.0
 40
0.7337141535077925
 50
21.4749558208222417
 51
53.1296451827979297
  0
ARC
  5
45F8
  8
0
 10
120.1098576742716943
 20
-19.5738520081338905
 30
0.0
 40
2.746625835696435
 50
11.6824665032983308
 51
21.4749558208222417
  0
ARC
  5
45F9
  8
0
 10
119.4636701124106963
 20
-19.7074648070227916
 30
0.0
 40
3.4064824452191989
 50
4.2992343977727003
 51
11.6824665032985298
  0
ARC
  5
45FA
  8
0
 10
124.5913883563057993
 20
-15.3706230124363401
 30
0.0
 40
0.6972584225243503
 50
264.4024766607121251
 51
270.1320160191634159
  0
ARC
  5
45FB
  8
0
 10
124.5656797070197968
 20
-15.5018948704335102
 30
0.0
 40
0.5642496908271603
 50
239.3657111321574007
 51
265.7004958908742083
  0
ARC
  5
45FC
  8
0
 10
124.5922855593626934
 20
-15.3648098580573507
 30
0.0
 40
0.6877227217049549
 50
261.7793972684232813
 51
270.0590983214930816
  0
ARC
  5
45FD
  8
0
 10
124.5777232677173032
 20
-15.4656031280281905
 30
0.0
 40
0.5858829278681962
 50
248.1174985035492
 51
261.7794709468465157
  0
ARC
  5
45FE
  8
0
 10
124.5284496758108048
 20
-15.5882832894268102
 30
0.0
 40
0.4536773725380315
 50
232.9589406205543867
 51
248.1174985035492
  0
ARC
  5
45FF
  8
0
 10
124.384103861710301
 20
-15.77955131948036
 30
0.0
 40
0.2140543908169751
 50
216.143771018612199
 51
232.9589406205543867
  0
ARC
  5
4600
  8
0
 10
124.2237096495463931
 20
-15.8950433778759308
 30
0.0
 40
0.0164654295312344
 50
192.5961400887171067
 51
220.8057416092565859
  0
ARC
  5
4601
  8
0
 10
124.5290703095879934
 20
-15.9982352705629491
 30
0.0
 40
0.0002304514635005
 50
206.5926238005799007
 51
256.2644818761930878
  0
ARC
  5
4602
  8
0
 10
124.5311708657323067
 20
-15.9972562929888191
 30
0.0
 40
0.0025478535245783
 50
186.8877368202940943
 51
205.133275298614592
  0
ARC
  5
4603
  8
0
 10
124.5646902676072045
 20
-15.9943591369596394
 30
0.0
 40
0.0361908576966527
 50
178.3066042510332068
 51
185.0770247194375884
  0
LINE
  5
4604
  8
0
 10
124.528515215435803
 20
-15.9932896598852992
 30
0.0
 11
124.528515215435803
 21
-15.9609434579178604
 31
0.0
  0
LINE
  5
4605
  8
0
 10
124.528515215435803
 20
-15.9609434579178604
 30
0.0
 11
124.5344192534116985
 21
-15.9517141645146907
 31
0.0
  0
ARC
  5
4606
  8
0
 10
124.5092180386769058
 20
-15.9430669563387593
 30
0.0
 40
0.0266434876348866
 50
341.0615397824586239
 51
356.3824515604446788
  0
LINE
  5
4607
  8
0
 10
124.5358084378374031
 20
-15.9447480589037394
 30
0.0
 11
124.5358084388477948
 21
-15.9841479871754704
 31
0.0
  0
ARC
  5
4608
  8
0
 10
124.521221349828707
 20
-15.9846074955811392
 30
0.0
 40
0.0145943247197358
 50
342.1590884058031179
 51
1.804279724345883
  0
LINE
  5
4609
  8
0
 10
124.5351138461805931
 20
-15.9890788330922593
 30
0.0
 11
124.5290155911067984
 21
-15.9984591316020897
 31
0.0
  0
ARC
  5
460A
  8
0
 10
124.5854293811226938
 20
-15.0933031477800998
 30
0.0
 40
0.852889602874156
 50
257.7055794160089022
 51
270.5082475052378754
  0
ARC
  5
460B
  8
0
 10
124.3222233218773027
 20
-16.2335572677902498
 30
0.0
 40
0.3175853814668494
 50
75.112285649895199
 51
78.6360547568468746
  0
ARC
  5
460C
  8
0
 10
124.2644662073108037
 20
-15.8904681655708107
 30
0.0
 40
0.0441434744665326
 50
204.7864033869308003
 51
212.735039374521989
  0
ARC
  5
460D
  8
0
 10
124.2304448200639939
 20
-15.9123389005326903
 30
0.0
 40
0.0036986498535981
 50
212.735039374521989
 51
274.0040310014982197
  0
ARC
  5
460E
  8
0
 10
124.2856054597850033
 20
-16.7003760647628212
 30
0.0
 40
0.7862667091225454
 50
91.5610034909323929
 51
94.0040310015063341
  0
ARC
  5
460F
  8
0
 10
124.2639965904934058
 20
-15.9102753661505307
 30
0.0
 40
0.0041301535798435
 50
272.6361265397414968
 51
358.761358835163719
  0
LINE
  5
4610
  8
0
 10
124.2681257789894005
 20
-15.9098374911105491
 30
0.0
 11
124.2681257789894005
 21
-15.9103646463700201
 31
0.0
  0
LINE
  5
4611
  8
0
 10
124.2681257789894005
 20
-15.9098374911105491
 30
0.0
 11
124.288387777073396
 21
-15.9187769926954807
 31
0.0
  0
LINE
  5
4612
  8
0
 10
124.288387777073396
 20
-15.9187769926954807
 30
0.0
 11
124.3227921557503066
 21
-15.9121368322250003
 31
0.0
  0
LINE
  5
4613
  8
0
 10
124.288387777073396
 20
-15.9187769926954807
 30
0.0
 11
124.288387777073396
 21
-15.9533824137562803
 31
0.0
  0
ARC
  5
4614
  8
0
 10
124.2912581776026002
 20
-15.9537321138236301
 30
0.0
 40
0.0028916239961283
 50
173.0539025269793001
 51
278.075467819294488
  0
LINE
  5
4615
  8
0
 10
124.2916643852014005
 20
-15.9565950641762697
 30
0.0
 11
124.3195155546957977
 21
-15.9512196950946592
 31
0.0
  0
ARC
  5
4616
  8
0
 10
124.3182324972755026
 20
-15.9468431111432096
 30
0.0
 40
0.0045607810107456
 50
286.3392445078795276
 51
1.2671691066592841
  0
LINE
  5
4617
  8
0
 10
124.3227921629253956
 20
-15.9467422518875406
 30
0.0
 11
124.3227921557503066
 21
-15.9121368322250003
 31
0.0
  0
ARC
  5
4618
  8
0
 10
124.3504244754798975
 20
-15.7543361627819198
 30
0.0
 40
0.2092012767406358
 50
232.2540339432962071
 51
252.7518341333282876
  0
ARC
  5
4619
  8
0
 10
124.4777490732220002
 20
-15.4578755324173205
 30
0.0
 40
0.532305065233814
 50
249.5382013916376138
 51
259.6414064744413963
  0
LINE
  5
461A
  8
0
 10
124.3820362089278007
 20
-15.9815049147882693
 30
0.0
 11
124.4015378078213985
 21
-15.9738280920418791
 31
0.0
  0
ARC
  5
461B
  8
0
 10
124.398546929947301
 20
-15.9694545167814397
 30
0.0
 40
0.005298444198063
 50
304.3663472986157785
 51
4.0544884960540184
  0
LINE
  5
461C
  8
0
 10
124.4038321135197975
 20
-15.9690798896002608
 30
0.0
 11
124.4038321135197975
 21
-15.9266356787003698
 31
0.0
  0
ARC
  5
461D
  8
0
 10
124.3994149193708978
 20
-15.5232748050529192
 30
0.0
 40
0.4338597603134826
 50
245.834263127421309
 51
255.1727471749773883
  0
ARC
  5
461E
  8
0
 10
124.4870588889189946
 20
-15.5034707028795804
 30
0.0
 40
0.4780689582814146
 50
249.4846378809918122
 51
259.6949700751587216
  0
ARC
  5
461F
  8
0
 10
124.5719645697348028
 20
-14.9463918554887893
 30
0.0
 40
1.0154815608273751
 50
260.4696987271478861
 51
267.5477399758037791
  0
ARC
  5
4620
  8
0
 10
124.5834174513189936
 20
-14.60492850935284
 30
0.0
 40
1.37221325565519
 50
262.4799712508902871
 51
267.7069844956943143
  0
ARC
  5
4621
  8
0
 10
124.5791547973460069
 20
-14.8256103759197799
 30
0.0
 40
1.168777047590329
 50
260.6325675660547745
 51
267.516769140736983
  0
ARC
  5
4622
  8
0
 10
125.5344966874849035
 20
-21.2960934076673496
 30
0.0
 40
0.0294667479195649
 50
269.4617744230016001
 51
359.1837504728798081
  0
ARC
  5
4623
  8
0
 10
7.7363706982586811
 20
-25.831855816891931
 30
0.0
 40
117.9148431639591053
 50
2.2043035355963831
 51
4.9541038827073054
  0
ARC
  5
4624
  8
0
 10
125.0716353090401043
 20
-15.4005067308295907
 30
0.0
 40
0.2322695131839688
 50
357.3716941829400184
 51
0.8762210619651797
  0
ARC
  5
4625
  8
0
 10
127.2035100781127994
 20
-21.3775853157931301
 30
0.0
 40
0.0520264604767484
 50
65.4584652777884628
 51
89.9907030204447409
  0
ARC
  5
4626
  8
0
 10
127.203405700286396
 20
-21.3777285976027507
 30
0.0
 40
0.0522001639150652
 50
22.0190698103747309
 51
65.4195702867582582
  0
ARC
  5
4627
  8
0
 10
127.5525407192291993
 20
-21.2127769590188109
 30
0.0
 40
0.3340383455812141
 50
205.7994530261939872
 51
234.0441290502000129
  0
ARC
  5
4628
  8
0
 10
128.8974699817827059
 20
-19.2994539879386906
 30
0.0
 40
2.6727321206957231
 50
234.7891196638288989
 51
242.6080192182290887
  0
ARC
  5
4629
  8
0
 10
127.6567241356579956
 20
-21.691395863279471
 30
0.0
 40
0.0218922265398048
 50
26.6709059848810597
 51
59.5726266160372973
  0
LINE
  5
462A
  8
0
 10
127.6762870168416981
 20
-21.6815692024699693
 30
0.0
 11
127.7153686787416973
 21
-21.7720997409699706
 31
0.0
  0
ARC
  5
462B
  8
0
 10
127.6968305111884945
 20
-21.7800316570611088
 30
0.0
 40
0.0201662934323411
 50
2.0946954249274299
 51
23.1600634699824184
  0
LINE
  5
462C
  8
0
 10
127.7169833291416978
 20
-21.7792945550699706
 30
0.0
 11
127.718674328278297
 21
-21.8255275027049187
 31
0.0
  0
LINE
  5
462D
  8
0
 10
121.4674009425417012
 20
-21.82552886846997
 30
0.0
 11
121.4690185872417061
 21
-21.7792444848699702
 31
0.0
  0
ARC
  5
462E
  8
0
 10
121.4887735076231934
 20
-21.7799349216818783
 30
0.0
 40
0.0197669821234806
 50
156.5689378584206963
 51
177.9983204650444861
  0
LINE
  5
462F
  8
0
 10
121.4706365270071018
 20
-21.7720746725509002
 30
0.0
 11
121.5097129321416958
 21
-21.6815625802699685
 31
0.0
  0
ARC
  5
4630
  8
0
 10
121.5288327588980053
 20
-21.6901195386899808
 30
0.0
 40
0.0209472984556821
 50
121.3501067611865949
 51
155.8893970341887041
  0
ARC
  5
4631
  8
0
 10
124.0254526003921995
 20
-25.7882599002089705
 30
0.0
 40
4.8196830752674682
 50
118.2014845379517993
 51
121.3501067611865949
  0
ARC
  5
4632
  8
0
 10
121.5267803482110054
 20
-21.1285457511062802
 30
0.0
 40
0.4676885756729149
 50
298.2014845379517851
 51
330.5952982921091916
  0
ARC
  5
4633
  8
0
 10
121.9824675230954938
 20
-21.3775599978202209
 30
0.0
 40
0.0519999291500476
 50
90.2514249903244803
 51
158.1054674725884013
  0
ARC
  5
4634
  8
0
 10
126.9471479010483961
 20
-19.5093323719341001
 30
0.0
 40
0.0300573367941058
 50
8.3156464856921186
 51
89.89703700234368
  0
LINE
  5
4635
  8
0
 10
126.9768892249522025
 20
-19.5049852869795117
 30
0.0
 11
127.2366823551759012
 21
-21.2912721759953989
 31
0.0
  0
ARC
  5
4636
  8
0
 10
127.2069946900193003
 20
-21.2955898763085294
 30
0.0
 40
0.0299999999739862
 50
269.9993212464264047
 51
8.2749373942170035
  0
ARC
  5
4637
  8
0
 10
126.9570302136907998
 20
-19.4543011788122406
 30
0.0
 40
0.015001852391505
 50
269.9947189747188077
 51
8.1172761932756181
  0
LINE
  5
4638
  8
0
 10
126.8806954990094056
 20
-19.4692750462699493
 30
0.0
 11
126.8806953801602049
 21
-19.4793021990173401
 31
0.0
  0
ARC
  5
4639
  8
0
 10
126.2372314848714012
 20
-19.5093762358725193
 30
0.0
 40
0.0301444677542217
 50
93.0719049833767258
 51
171.6013622537253127
  0
LINE
  5
463A
  8
0
 10
126.2074102922396008
 20
-19.5049733497504292
 30
0.0
 11
125.9368644172186009
 21
-21.2910759905117608
 31
0.0
  0
ARC
  5
463B
  8
0
 10
125.9902921855885012
 20
-21.2704193920462501
 30
0.0
 40
0.0572819473582866
 50
201.1378296131609034
 51
254.3407923635070063
  0
ARC
  5
463C
  8
0
 10
126.2293503030942929
 20
-19.4542898747949486
 30
0.0
 40
0.0150046018319343
 50
171.8922026214630137
 51
267.0838311992719127
  0
LINE
  5
463D
  8
0
 10
126.3056833469690048
 20
-19.4692750462699493
 30
0.0
 11
126.305683228200607
 21
-19.4792953835515483
 31
0.0
  0
ARC
  5
463E
  8
0
 10
129.4818746756851908
 20
-17.9379346643805704
 30
0.0
 40
0.0606872717703645
 50
330.4254868953657933
 51
359.9648507533198085
  0
ARC
  5
463F
  8
0
 10
128.9957224269039955
 20
-17.6623766438781686
 30
0.0
 40
0.6195040786414014
 50
312.8640679997175198
 51
330.4519444284176757
  0
ARC
  5
4640
  8
0
 10
128.5612726343655936
 20
-17.1942646123575216
 30
0.0
 40
1.2581553890534101
 50
301.872802657800321
 51
312.8640679997175198
  0
ARC
  5
4641
  8
0
 10
128.5017300606216111
 20
-17.0985041755254699
 30
0.0
 40
1.370917879937265
 50
285.3128996944635105
 51
301.872802657800321
  0
ARC
  5
4642
  8
0
 10
128.3340394973714069
 20
-16.6656201597343205
 30
0.0
 40
1.833332365881843
 50
274.5505757088757832
 51
286.7949465360657086
  0
ARC
  5
4643
  8
0
 10
128.3626877317117874
 20
-17.38788654978746
 30
0.0
 40
1.1114416620099019
 50
265.7067702498434869
 51
276.0326225504794024
  0
ARC
  5
4644
  8
0
 10
128.5600200310489072
 20
-14.7592968143012602
 30
0.0
 40
3.7474280113419862
 50
258.6294426848257899
 51
265.7067702498434869
  0
ARC
  5
4645
  8
0
 10
127.4097356192797008
 20
-20.1690837844090609
 30
0.0
 40
1.7840099474798501
 50
76.6651961194954907
 51
92.1566217819649438
  0
ARC
  5
4646
  8
0
 10
127.381722326380995
 20
-18.8828646222860002
 30
0.0
 40
0.49806595161196
 50
94.5050139595368819
 51
131.2502438005529086
  0
ARC
  5
4647
  8
0
 10
127.4520859167475066
 20
-18.8378493578952515
 30
0.0
 40
0.5172509824649327
 50
140.4372295019722969
 51
179.9598892269656858
  0
ARC
  5
4648
  8
0
 10
129.9578144567944946
 20
-18.9637614301547899
 30
0.0
 40
3.0256155730911392
 50
177.6080637250080088
 51
189.2898386054033892
  0
ARC
  5
4649
  8
0
 10
129.4826147060072969
 20
-17.9379352874250593
 30
0.0
 40
0.0599472412055526
 50
359.965012348724315
 51
57.0827452811203315
  0
ARC
  5
464A
  8
0
 10
129.4825731015039878
 20
-17.9379711409080684
 30
0.0
 40
0.0599999496448826
 50
57.0679998181265873
 51
87.2131657816843244
  0
ARC
  5
464B
  8
0
 10
126.025925648931505
 20
-86.8288604086090459
 30
0.0
 40
69.0375544617749313
 50
87.1276284481316736
 51
88.3620733877469036
  0
ARC
  5
464C
  8
0
 10
128.0199494897852048
 20
-21.4216568740329016
 30
0.0
 40
3.6022025973755292
 50
90.3292736387367938
 51
101.1066922121492979
  0
ARC
  5
464D
  8
0
 10
127.5219547375492937
 20
-19.1123467064719215
 30
0.0
 40
1.2409869444944079
 50
99.0835950717156351
 51
138.4517405978320994
  0
ARC
  5
464E
  8
0
 10
127.5412207108550007
 20
-19.0402521972170895
 30
0.0
 40
1.2094313183439309
 50
141.6147901674177945
 51
161.0437302802747865
  0
ARC
  5
464F
  8
0
 10
130.4167816435032137
 20
-19.9839320346057683
 30
0.0
 40
4.2357967678667219
 50
161.6066416948658002
 51
172.7881076236895126
  0
ARC
  5
4650
  8
0
 10
131.0504562653381981
 20
147.8687041551825132
 30
0.0
 40
165.8436384241217922
 50
269.0547806852071062
 51
269.4762893479049808
  0
ARC
  5
4651
  8
0
 10
128.2112629490347899
 20
-24.2173226694092385
 30
0.0
 40
6.2658082862822626
 50
89.0547806852071346
 51
98.021565575990266
  0
ARC
  5
4652
  8
0
 10
127.5108920556275933
 20
-19.2474983990990012
 30
0.0
 40
1.246876859564348
 50
98.021565575990266
 51
126.8696757055965065
  0
ARC
  5
4653
  8
0
 10
127.2029960222207023
 20
-18.8369670415882702
 30
0.0
 40
0.7337141535077925
 50
126.8696757055976008
 51
158.5243650675728873
  0
ARC
  5
4654
  8
0
 10
129.0761579668943
 20
-19.5739051457177915
 30
0.0
 40
2.746625835696435
 50
158.5243650675728873
 51
168.3168543850968888
  0
ARC
  5
4655
  8
0
 10
129.7223439450330886
 20
-19.7075256036862605
 30
0.0
 40
3.4064824452191989
 50
168.3168543850966898
 51
175.6997418579443888
  0
ARC
  5
4656
  8
0
 10
129.7223439450330886
 20
-19.7075256036862605
 30
0.0
 40
3.4064824452191989
 50
175.9894391600884092
 51
175.9897857662269871
  0
ARC
  5
4657
  8
0
 10
126.3418772496728053
 20
-19.4539487955747887
 30
0.0
 40
0.0165299059522084
 50
173.5663680238135953
 51
247.9998961716316046
  0
ARC
  5
4658
  8
0
 10
122.8446545974441051
 20
-19.45418746811049
 30
0.0
 40
0.0160493743509021
 50
289.9421102707134992
 51
7.4860428978330571
  0
LINE
  5
465A
  8
0
 10
122.2388148469550941
 20
-19.4792750836730306
 30
0.0
 11
122.950729772523303
 21
-19.4792750836730306
 31
0.0
  0
LINE
  5
465B
  8
0
 10
126.2356160677586985
 20
-19.4792750836730306
 30
0.0
 11
126.9472019153548956
 21
-19.4792750836730306
 31
0.0
  0
LINE
  5
465C
  8
0
 10
122.2289868988419954
 20
-19.4692750462699493
 30
0.0
 11
122.9566992724472954
 21
-19.4692750462699493
 31
0.0
  0
LINE
  5
465D
  8
0
 10
126.228586947345093
 20
-19.4692750462699493
 30
0.0
 11
126.9579461113574013
 21
-19.4692750462699493
 31
0.0
  0
LINE
  5
465E
  8
0
 10
121.4674009902752942
 20
-21.8255275027049187
 30
0.0
 11
127.718674328278297
 21
-21.8255275027049187
 31
0.0
  0
LINE
  5
465F
  8
0
 10
121.4690185872417061
 20
-21.7792444848699702
 30
0.0
 11
127.7169814355032997
 21
-21.7792444848699702
 31
0.0
  0
LINE
  5
4660
  8
0
 10
121.5097129321416958
 20
-21.6815625802699898
 30
0.0
 11
127.6762836890303987
 21
-21.6815625802699898
 31
0.0
  0
LINE
  5
4661
  8
0
 10
121.978967095511905
 20
-21.3255588746247788
 30
0.0
 11
127.2083581922597944
 21
-21.3255588746247788
 31
0.0
  0
ARC
  5
4662
  8
0
 10
124.5938812510854063
 20
-14.6929623210435096
 30
0.0
 40
1.2929496773211679
 50
267.4260159844782834
 51
269.9607230237294857
  0
ARC
  5
4663
  8
0
 10
124.5893521563878039
 20
-15.1298602711620003
 30
0.0
 40
0.8609287609666904
 50
266.3879872952520032
 51
270.242430609369876
  0
ARC
  5
4664
  8
0
 10
124.5907060982524968
 20
-14.8803998238875899
 30
0.0
 40
1.1197599449162889
 50
266.841826504597293
 51
270.1171149127118838
  0
ARC
  5
4665
  8
0
 10
124.427452238081699
 20
-15.7457430097637499
 30
0.0
 40
0.181536627723459
 50
230.7381333548617022
 51
256.4114149291535227
  0
ARC
  5
4666
  8
0
 10
124.3669800765298987
 20
-15.7835654229551405
 30
0.0
 40
0.1359528580959906
 50
226.855305829537798
 51
251.0329803175305017
  0
ARC
  5
4667
  8
0
 10
124.2206474573028032
 20
-15.8965823778407795
 30
0.0
 40
0.0131139422732111
 50
104.8073029948055961
 51
144.4216409525697884
  0
ARC
  5
4668
  8
0
 10
124.2329110222385964
 20
-15.8996208637827401
 30
0.0
 40
0.0252897608799824
 50
155.0488106107083865
 51
177.7638874410247922
  0
ARC
  5
4669
  8
0
 10
124.2347705792426069
 20
-15.9507512015578499
 30
0.0
 40
0.0690935564308551
 50
90.9534426409808816
 51
104.6499388027396975
  0
ARC
  5
466A
  8
0
 10
124.2413147767618966
 20
-16.3439791435427892
 30
0.0
 40
0.4623759497297179
 50
85.9451984953058599
 51
90.9534426409808816
  0
ARC
  5
466B
  8
0
 10
124.2081115201594059
 20
-16.8123693814384296
 30
0.0
 40
0.9319415694304733
 50
83.5647427633131343
 51
85.9451984953058599
  0
ARC
  5
466C
  8
0
 10
124.8447269515367992
 20
-11.1681708370038795
 30
0.0
 40
4.7480457911597771
 50
263.5647427633131201
 51
264.1876326080713966
  0
ARC
  5
466D
  8
0
 10
124.8739149168733036
 20
-10.8814362893349195
 30
0.0
 40
5.0362620956038686
 50
264.1876326080713966
 51
265.6442735353269882
  0
ARC
  5
466E
  8
0
 10
124.5960503284722023
 20
-14.2807297515603508
 30
0.0
 40
1.625793022638286
 50
266.3100256953708254
 51
269.8923219437352259
  0
LINE
  5
466F
  8
0
 10
124.5929949179164993
 20
-15.9075468412228993
 30
0.0
 11
124.5914462319417026
 21
-15.9075532323699704
 31
0.0
  0
LINE
  5
4670
  8
0
 10
124.5914462319417026
 20
-15.9075532323699704
 30
0.0
 11
124.5847226480821064
 21
-15.9064833110263297
 31
0.0
  0
LINE
  5
4671
  8
0
 10
124.5880717470416954
 20
-15.9070162518699707
 30
0.0
 11
124.5880717470416954
 21
-15.9101148525699703
 31
0.0
  0
ARC
  5
4672
  8
0
 10
124.5939487816530971
 20
-15.9098217984171395
 30
0.0
 40
0.0058843365438078
 50
182.8546489016817134
 51
260.6710650656058874
  0
LINE
  5
4673
  8
0
 10
124.5880717470416954
 20
-15.9101148525699703
 30
0.0
 11
124.5675993060416999
 21
-15.9133726242699698
 31
0.0
  0
LINE
  5
4674
  8
0
 10
124.5675993060416999
 20
-15.9196695028699704
 30
0.0
 11
124.5675993060416999
 21
-15.9062665606699696
 31
0.0
  0
LINE
  5
4675
  8
0
 10
124.5929949179164993
 20
-15.9158814538785691
 30
0.0
 11
124.5691460809417066
 21
-15.9196759018699705
 31
0.0
  0
LINE
  5
4676
  8
0
 10
124.5691460809417066
 20
-15.9196759018699705
 30
0.0
 11
124.5675993060416999
 21
-15.9196695028699704
 31
0.0
  0
LINE
  5
4677
  8
0
 10
124.5422036941669006
 20
-15.9075468412228993
 30
0.0
 11
124.5437523801416972
 21
-15.9075532323699704
 31
0.0
  0
LINE
  5
4678
  8
0
 10
124.5437523801416972
 20
-15.9075532323699704
 30
0.0
 11
124.5536955896925946
 21
-15.905970973214
 31
0.0
  0
LINE
  5
4679
  8
0
 10
124.5471268650417045
 20
-15.9070162518699707
 30
0.0
 11
124.5471268650417045
 21
-15.9101148525699703
 31
0.0
  0
ARC
  5
467A
  8
0
 10
124.5412498304302034
 20
-15.9098217984171395
 30
0.0
 40
0.0058843365438078
 50
279.3289349343939989
 51
357.1453510983183151
  0
LINE
  5
467B
  8
0
 10
124.5471268650417045
 20
-15.9101148525699703
 30
0.0
 11
124.5675993060416999
 21
-15.9133726242699698
 31
0.0
  0
LINE
  5
467C
  8
0
 10
124.5675993060416999
 20
-15.9196695028699704
 30
0.0
 11
124.5675993060416999
 21
-15.9062665606699696
 31
0.0
  0
LINE
  5
467D
  8
0
 10
124.5422048409446063
 20
-15.9158812713922693
 30
0.0
 11
124.5660525311416933
 21
-15.9196759018699705
 31
0.0
  0
LINE
  5
467E
  8
0
 10
124.5660525311416933
 20
-15.9196759018699705
 30
0.0
 11
124.5675993060416999
 21
-15.9196695028699704
 31
0.0
  0
LINE
  5
467F
  8
0
 10
124.5168080822920018
 20
-15.9196695028699704
 30
0.0
 11
124.5168080822920018
 21
-15.9062665606699696
 31
0.0
  0
LINE
  5
4680
  8
0
 10
124.5422036941669006
 20
-15.9075468412228993
 30
0.0
 11
124.5406550081920045
 21
-15.9075532323699704
 31
0.0
  0
LINE
  5
4681
  8
0
 10
124.5406550081920045
 20
-15.9075532323699704
 30
0.0
 11
124.5241962367368984
 21
-15.9049341543250407
 31
0.0
  0
LINE
  5
4682
  8
0
 10
124.5372805232919973
 20
-15.9070162518699707
 30
0.0
 11
124.5372805232919973
 21
-15.9101148525699703
 31
0.0
  0
ARC
  5
4683
  8
0
 10
124.5431575579034984
 20
-15.9098217984171395
 30
0.0
 40
0.0058843365438078
 50
182.8546489016817134
 51
260.6710650656058874
  0
LINE
  5
4684
  8
0
 10
124.5372805232919973
 20
-15.9101148525699703
 30
0.0
 11
124.5168080822920018
 21
-15.9133726242699698
 31
0.0
  0
LINE
  5
4685
  8
0
 10
124.5168080822920018
 20
-15.9196695028699704
 30
0.0
 11
124.5168080822920018
 21
-15.9045904656856898
 31
0.0
  0
LINE
  5
4686
  8
0
 10
124.5422048409446063
 20
-15.9158812713922693
 30
0.0
 11
124.5183548571919943
 21
-15.9196759018699705
 31
0.0
  0
LINE
  5
4687
  8
0
 10
124.5422048409446063
 20
-15.9158812713922693
 30
0.0
 11
124.542203694167398
 21
-15.9156283086024199
 31
0.0
  0
LINE
  5
4688
  8
0
 10
124.5183586655416974
 20
-15.9196758587699705
 30
0.0
 11
124.5152651296417048
 21
-15.9196759018699705
 31
0.0
  0
LINE
  5
4689
  8
0
 10
124.5152651296417048
 20
-15.9196759018699705
 30
0.0
 11
124.4914189680388006
 21
-15.9158812713922693
 31
0.0
  0
LINE
  5
468A
  8
0
 10
124.4914189680388006
 20
-15.9158812713922693
 30
0.0
 11
124.4700005730417018
 21
-15.9192893290699704
 31
0.0
  0
LINE
  5
468B
  8
0
 10
124.4700005730417018
 20
-15.9192893290699704
 30
0.0
 11
124.4684347345417024
 21
-15.9192859636699708
 31
0.0
  0
LINE
  5
468C
  8
0
 10
124.4684347345417024
 20
-15.9192859636699708
 30
0.0
 11
124.4660071909416956
 21
-15.9185406841699706
 31
0.0
  0
ARC
  5
468D
  8
0
 10
124.4686764424798042
 20
-15.9135914602733699
 30
0.0
 40
0.0056231415554313
 50
182.5794077544171046
 51
241.6608034885884138
  0
LINE
  5
468E
  8
0
 10
124.4630589982417064
 20
-15.9138445238699706
 30
0.0
 11
124.4630589982417064
 21
-15.9042303798699702
 31
0.0
  0
ARC
  5
468F
  8
0
 10
124.4670543545301058
 20
-15.8975602092327897
 30
0.0
 40
0.0060342647524278
 50
212.7333894576896114
 51
260.1733812691529124
  0
ARC
  5
4690
  8
0
 10
124.4650159438277939
 20
-15.8976074504961904
 30
0.0
 40
0.0059840965924385
 50
279.7029373091439197
 51
320.1304785613201034
  0
LINE
  5
4691
  8
0
 10
124.4660245029417069
 20
-15.9035059435699697
 30
0.0
 11
124.4660244905392972
 21
-15.9037584822435605
 31
0.0
  0
LINE
  5
4692
  8
0
 10
124.4660244905392972
 20
-15.9037584822435605
 30
0.0
 11
124.4898714288416954
 21
-15.9075532323699704
 31
0.0
  0
LINE
  5
4693
  8
0
 10
124.4898714288416954
 20
-15.9075532323699704
 30
0.0
 11
124.4929649786416945
 21
-15.9075532323699704
 31
0.0
  0
LINE
  5
4694
  8
0
 10
124.4929649786416945
 20
-15.9075532323699704
 30
0.0
 11
124.5128331537011945
 21
-15.9043916173077893
 31
0.0
  0
LINE
  5
4695
  8
0
 10
124.4864969438417006
 20
-15.9070162524349392
 30
0.0
 11
124.4864969438417006
 21
-15.9101148525699703
 31
0.0
  0
ARC
  5
4696
  8
0
 10
124.492046371728506
 20
-15.9101148525699703
 30
0.0
 40
0.0055494278868231
 50
179.9999999999836859
 51
263.5004684924118123
  0
ARC
  5
4697
  8
0
 10
124.4904716072381063
 20
-15.90983064202001
 30
0.0
 40
0.0058747351631275
 50
279.2724957553327272
 51
357.2270369089956148
  0
LINE
  5
4698
  8
0
 10
124.4963394635417018
 20
-15.9101148525699703
 30
0.0
 11
124.4963394635417018
 21
-15.9070162518699707
 31
0.0
  0
LINE
  5
4699
  8
0
 10
124.4963394635417018
 20
-15.9101148525699703
 30
0.0
 11
124.5168080822920018
 21
-15.9133726242699698
 31
0.0
  0
LINE
  5
469A
  8
0
 10
124.4864969438417006
 20
-15.9101148525735905
 30
0.0
 11
124.4630589982417064
 21
-15.9138445238699706
 31
0.0
  0
LINE
  5
469B
  8
0
 10
124.4660244905394961
 20
-15.9037584782964103
 30
0.0
 11
124.4421775770417042
 21
-15.9075532323699704
 31
0.0
  0
LINE
  5
469C
  8
0
 10
124.4421775770417042
 20
-15.9075532323699704
 30
0.0
 11
124.4390840272417051
 21
-15.9075532323699704
 31
0.0
  0
LINE
  5
469D
  8
0
 10
124.4390840272417051
 20
-15.9075532323699704
 30
0.0
 11
124.4152378656388009
 21
-15.9037586018922692
 31
0.0
  0
LINE
  5
469E
  8
0
 10
124.4152378656388009
 20
-15.9037586018922692
 30
0.0
 11
124.4011763386417044
 21
-15.9059959552699706
 31
0.0
  0
LINE
  5
469F
  8
0
 10
124.4011763386417044
 20
-15.9059959552699706
 30
0.0
 11
124.4000980447416964
 21
-15.9059150157699705
 31
0.0
  0
LINE
  5
46A0
  8
0
 10
124.4000980447416964
 20
-15.9059150157699705
 30
0.0
 11
124.398369803777598
 21
-15.9050584565525899
 31
0.0
  0
LINE
  5
46A1
  8
0
 10
124.398369803777598
 20
-15.9050584565525899
 30
0.0
 11
124.3676279513425982
 21
-15.8951709466120494
 31
0.0
  0
LINE
  5
46A2
  8
0
 10
124.3676279513425982
 20
-15.8951709466120494
 30
0.0
 11
124.3791537320894065
 21
-15.8933368535567894
 31
0.0
  0
LINE
  5
46A3
  8
0
 10
124.3963067686416935
 20
-15.8950005257199507
 30
0.0
 11
124.3963067686416935
 21
-15.9002214414699701
 31
0.0
  0
ARC
  5
46A4
  8
0
 10
124.4033312008536001
 20
-15.9000839111414596
 30
0.0
 40
0.0070257784259295
 50
181.1216423619717091
 51
225.0758209202861053
  0
LINE
  5
46A5
  8
0
 10
124.3963067686416935
 20
-15.9002214414699896
 30
0.0
 11
124.4103158415417028
 21
-15.8979921830699702
 31
0.0
  0
LINE
  5
46A6
  8
0
 10
124.4103158415417028
 20
-15.8963153300464608
 30
0.0
 11
124.4103158415417028
 21
-15.8979921830699702
 31
0.0
  0
ARC
  5
46A7
  8
0
 10
124.4161941951568053
 20
-15.8976986032344101
 30
0.0
 40
0.005885680108865
 50
182.8591204820434939
 51
260.6413468536060805
  0
LINE
  5
46A8
  8
0
 10
124.4152371013417024
 20
-15.9035059435699697
 30
0.0
 11
124.4152378656417
 21
-15.9037586018699706
 31
0.0
  0
ARC
  5
46A9
  8
0
 10
124.4142704686261993
 20
-15.8976951618213196
 30
0.0
 40
0.005890633525958
 50
279.4447560072425176
 51
4.6858087142416318
  0
LINE
  5
46AA
  8
0
 10
124.4201536421254985
 20
-15.8979915280031303
 30
0.0
 11
124.4406308021416976
 21
-15.9012499547699697
 31
0.0
  0
LINE
  5
46AB
  8
0
 10
124.4406308021416976
 20
-15.9012499547699697
 30
0.0
 11
124.4497264764790998
 21
-15.8998025635971096
 31
0.0
  0
LINE
  5
46AC
  8
0
 10
124.4406308021416976
 20
-15.9075532323699704
 30
0.0
 11
124.4406308021416976
 21
-15.8990254287062793
 31
0.0
  0
LINE
  5
46AD
  8
0
 10
124.4357095423416979
 20
-15.9070162518699707
 30
0.0
 11
124.4357095423416979
 21
-15.9092765031699699
 31
0.0
  0
ARC
  5
46AE
  8
0
 10
124.4416324717090987
 20
-15.9090304011136805
 30
0.0
 40
0.0059280400229527
 50
182.3793129965891922
 51
238.2915354028924071
  0
LINE
  5
46AF
  8
0
 10
124.4385167096417035
 20
-15.9140735831699693
 30
0.0
 11
124.4406308021416976
 21
-15.9148615345699707
 31
0.0
  0
ARC
  5
46B0
  8
0
 10
124.4416317021206027
 20
-15.9095912572489393
 30
0.0
 40
0.005364477962327
 50
259.2467831610384792
 51
281.9765782273884156
  0
ARC
  5
46B1
  8
0
 10
124.4417528758852001
 20
-15.9111698922081608
 30
0.0
 40
0.003800814268659
 50
285.1295051484336796
 51
1.677143820864702
  0
LINE
  5
46B2
  8
0
 10
124.4455520619416973
 20
-15.9110586518699701
 30
0.0
 11
124.4455520619416973
 21
-15.9070162513337596
 31
0.0
  0
ARC
  5
46B3
  8
0
 10
124.5302281117202057
 20
-15.4111822594071395
 30
0.0
 40
0.5111855482964502
 50
255.428536575960095
 51
259.6646493784144241
  0
ARC
  5
46B4
  8
0
 10
124.5596563084418023
 20
-15.2550891190691207
 30
0.0
 40
0.6700284595008535
 50
259.9511802161799778
 51
261.9655283348499211
  0
ARC
  5
46B5
  8
0
 10
124.5808964759416995
 20
-15.0992806330703697
 30
0.0
 40
0.8272820843996006
 50
262.3422827081744231
 51
265.410315823699591
  0
LINE
  5
46B6
  8
0
 10
124.5118906446416958
 20
-15.9191389213699708
 30
0.0
 11
124.5120763541416977
 21
-15.9207071769699695
 31
0.0
  0
ARC
  5
46B7
  8
0
 10
124.5171924496557949
 20
-15.9191937722703596
 30
0.0
 40
0.0053352438645189
 50
196.4788725356488897
 51
242.1228672890765949
  0
ARC
  5
46B8
  8
0
 10
124.5170705044019002
 20
-15.9194243092216894
 30
0.0
 40
0.0050744413897189
 50
242.1228672890738096
 51
268.8119064933280811
  0
ARC
  5
46B9
  8
0
 10
124.5171023354716056
 20
-15.9178894767115793
 30
0.0
 40
0.006609603938471
 50
268.8119064933330264
 51
286.0163024863451255
  0
ARC
  5
46BA
  8
0
 10
124.5174298050636992
 20
-15.9202075398056593
 30
0.0
 40
0.0043034442562112
 50
290.3450584295301837
 51
0.3600675812562357
  0
LINE
  5
46BB
  8
0
 10
124.5217331643416969
 20
-15.9201804955699693
 30
0.0
 11
124.5217331643416969
 21
-15.9191424071529095
 31
0.0
  0
LINE
  5
46BC
  8
0
 10
124.5189259967502977
 20
-15.9242425172249096
 30
0.0
 11
124.5654852135881043
 21
-15.9266399948929802
 31
0.0
  0
LINE
  5
46BD
  8
0
 10
124.5626780462417003
 20
-15.9191389213699708
 30
0.0
 11
124.5626780462417003
 21
-15.9222870625699695
 31
0.0
  0
ARC
  5
46BE
  8
0
 10
124.5674565658130035
 20
-15.9222870625699695
 30
0.0
 40
0.0047785195713139
 50
179.9999999999857039
 51
245.6352201473364119
  0
ARC
  5
46BF
  8
0
 10
124.5676468483057988
 20
-15.9218669008072204
 30
0.0
 40
0.0052397606513604
 50
245.6352201473310117
 51
269.4801273116178209
  0
ARC
  5
46C0
  8
0
 10
124.5676544171649027
 20
-15.9210327508479406
 30
0.0
 40
0.0060739449488624
 50
269.4801273116244147
 51
289.8150997536938007
  0
ARC
  5
46C1
  8
0
 10
124.5679268450195991
 20
-15.9225149326453295
 30
0.0
 40
0.0045937708031786
 50
292.8865613612235279
 51
359.7329938075773725
  0
LINE
  5
46C2
  8
0
 10
124.5725205659417014
 20
-15.9225363401699695
 30
0.0
 11
124.5725205659417014
 21
-15.9191430763001094
 31
0.0
  0
ARC
  5
46C3
  8
0
 10
124.5883041959884991
 20
-15.2102680036787401
 30
0.0
 40
0.7167202139508853
 50
268.5136547125201787
 51
270.3749866165073854
  0
LINE
  5
46C4
  8
0
 10
124.5422056055462008
 20
-15.9075468491108101
 30
0.0
 11
124.5422056055462008
 21
-15.9075467592585298
 31
0.0
  0
LINE
  5
46C5
  8
0
 10
124.5422036932735068
 20
-15.9075468412192098
 30
0.0
 11
124.5422036932735068
 21
-15.9056307268065407
 31
0.0
  0
LINE
  5
46C6
  8
0
 10
124.4914182037417021
 20
-15.9075532323699704
 30
0.0
 11
124.4914182037417021
 21
-15.9031523466264701
 31
0.0
  0
ARC
  5
46C7
  8
0
 10
124.3671617676652943
 20
-15.8933069853977091
 30
0.0
 40
0.0019213741513674
 50
249.0843458870440088
 51
284.0418377408913102
  0
LINE
  5
46C8
  8
0
 10
124.3664758501096941
 20
-15.8951017543902307
 30
0.0
 11
124.3651065772417041
 21
-15.8941880616699702
 31
0.0
  0
LINE
  5
46C9
  8
0
 10
124.3579304565042065
 20
-15.89119613943177
 30
0.0
 11
124.3651065772089055
 21
-15.8941880617052398
 31
0.0
  0
ARC
  5
46CA
  8
0
 10
124.3699912070245972
 20
-15.8901848249999205
 30
0.0
 40
0.0063155042144491
 50
194.8771982917454864
 51
219.3309600940694963
  0
ARC
  5
46CB
  8
0
 10
124.2574332370246992
 20
-15.8855340741941102
 30
0.0
 40
0.0405137247000751
 50
177.8312273286177003
 51
215.3511157357793024
  0
ARC
  5
46CC
  8
0
 10
124.2601886464480003
 20
-15.9001075705093697
 30
0.0
 40
0.0294004369346335
 50
141.0378701189492006
 51
212.0788982545294061
  0
ARC
  5
46CD
  8
0
 10
124.2938781070368037
 20
-15.9005534416742993
 30
0.0
 40
0.0273747323968351
 50
139.3001140102689135
 51
199.8248933574093087
  0
ARC
  5
46CE
  8
0
 10
124.5124456870057941
 20
-15.3501678077952608
 30
0.0
 40
0.7499244655030106
 50
301.8183821321471783
 51
321.9472585551197881
  0
ARC
  5
46CF
  8
0
 10
124.5946014795272987
 20
-15.3706230124363401
 30
0.0
 40
0.6972584225243503
 50
269.8679839808366978
 51
275.5975233392878749
  0
ARC
  5
46D0
  8
0
 10
124.6203101288133013
 20
-15.5018948704335102
 30
0.0
 40
0.5642496908271603
 50
274.2995041091257917
 51
300.6342888678425993
  0
ARC
  5
46D1
  8
0
 10
124.5937042764704046
 20
-15.3648098580572903
 30
0.0
 40
0.6877227217050077
 50
269.9409016785069184
 51
278.220602731576605
  0
ARC
  5
46D2
  8
0
 10
124.6082665681157948
 20
-15.4656031280281905
 30
0.0
 40
0.5858829278681962
 50
278.2205290531534843
 51
291.8825014964506863
  0
ARC
  5
46D3
  8
0
 10
124.6575401600222932
 20
-15.5882832894268102
 30
0.0
 40
0.4536773725380315
 50
291.8825014964506863
 51
307.0410593794456986
  0
ARC
  5
46D4
  8
0
 10
124.8018859741226976
 20
-15.77955131948036
 30
0.0
 40
0.2140543908169751
 50
307.0410593794456986
 51
323.8562289813879147
  0
ARC
  5
46D5
  8
0
 10
124.962280186286705
 20
-15.8950433778759308
 30
0.0
 40
0.0164654295312344
 50
319.1942583907434141
 51
347.4038599112827228
  0
ARC
  5
46D6
  8
0
 10
124.6569195262451046
 20
-15.9982352705629491
 30
0.0
 40
0.0002304514635005
 50
283.7355181238067985
 51
333.4073761994201277
  0
ARC
  5
46D7
  8
0
 10
124.6548189701008056
 20
-15.9972562929888191
 30
0.0
 40
0.0025478535245783
 50
334.866724701385408
 51
353.112263179705792
  0
ARC
  5
46D8
  8
0
 10
124.621299568225794
 20
-15.9943591369596394
 30
0.0
 40
0.0361908576966527
 50
354.9229752805621843
 51
1.6933957489667191
  0
LINE
  5
46D9
  8
0
 10
124.657474620397295
 20
-15.9932896598852992
 30
0.0
 11
124.657474620397295
 21
-15.9609434579178604
 31
0.0
  0
LINE
  5
46DA
  8
0
 10
124.657474620397295
 20
-15.9609434579178604
 30
0.0
 11
124.6515705824213001
 21
-15.9517141645146907
 31
0.0
  0
ARC
  5
46DB
  8
0
 10
124.6767717971562064
 20
-15.9430669563387593
 30
0.0
 40
0.0266434876348866
 50
183.6175484395552928
 51
198.9384602175412908
  0
LINE
  5
46DC
  8
0
 10
124.6501813979955955
 20
-15.9447480589037394
 30
0.0
 11
124.6501813969853032
 21
-15.9841479871754704
 31
0.0
  0
ARC
  5
46DD
  8
0
 10
124.6647684860044052
 20
-15.9846074955811392
 30
0.0
 40
0.0145943247197358
 50
178.1957202756541108
 51
197.8409115941969105
  0
LINE
  5
46DE
  8
0
 10
124.6508759896525049
 20
-15.9890788330922593
 30
0.0
 11
124.6569742447262996
 21
-15.9984591316020897
 31
0.0
  0
ARC
  5
46DF
  8
0
 10
124.6005604547104042
 20
-15.0933031477801194
 30
0.0
 40
0.8528896028741428
 50
269.4917524947612719
 51
282.294420583990302
  0
ARC
  5
46E0
  8
0
 10
124.8637665139556958
 20
-16.2335572677902498
 30
0.0
 40
0.3175853814668494
 50
101.363945243153097
 51
104.887714350104801
  0
ARC
  5
46E1
  8
0
 10
124.9215236285222943
 20
-15.8904681655708107
 30
0.0
 40
0.0441434744665326
 50
327.264960625478011
 51
335.2135966130692282
  0
ARC
  5
46E2
  8
0
 10
124.9555450157691041
 20
-15.9123389005326903
 30
0.0
 40
0.0036986498535981
 50
265.9959689985017803
 51
327.264960625478011
  0
ARC
  5
46E3
  8
0
 10
124.9003843760480947
 20
-16.7003760647628212
 30
0.0
 40
0.7862667091225454
 50
85.9959689984936801
 51
88.4389965090675929
  0
ARC
  5
46E4
  8
0
 10
124.9219932453397064
 20
-15.9102753661505307
 30
0.0
 40
0.0041301535798435
 50
181.2386411648363094
 51
267.3638734602583895
  0
LINE
  5
46E5
  8
0
 10
124.9178640568436975
 20
-15.9098374911105491
 30
0.0
 11
124.9178640568436975
 21
-15.9103646463700201
 31
0.0
  0
LINE
  5
46E6
  8
0
 10
124.9178640568436975
 20
-15.9098374911105491
 30
0.0
 11
124.897602058759702
 21
-15.9187769926954807
 31
0.0
  0
LINE
  5
46E7
  8
0
 10
124.897602058759702
 20
-15.9187769926954807
 30
0.0
 11
124.8631976800828056
 21
-15.9121368322250003
 31
0.0
  0
LINE
  5
46E8
  8
0
 10
124.897602058759702
 20
-15.9187769926954807
 30
0.0
 11
124.897602058759702
 21
-15.9533824137562803
 31
0.0
  0
ARC
  5
46E9
  8
0
 10
124.8947316582304978
 20
-15.9537321138236301
 30
0.0
 40
0.0028916239961283
 50
261.924532180705512
 51
6.9460974730206573
  0
LINE
  5
46EA
  8
0
 10
124.8943254506316975
 20
-15.9565950641762697
 30
0.0
 11
124.8664742811373003
 21
-15.9512196950946592
 31
0.0
  0
ARC
  5
46EB
  8
0
 10
124.8677573385575954
 20
-15.9468431111432096
 30
0.0
 40
0.0045607810107456
 50
178.7328308933406902
 51
253.6607554921203871
  0
LINE
  5
46EC
  8
0
 10
124.8631976729077024
 20
-15.9467422518875406
 30
0.0
 11
124.8631976800828056
 21
-15.9121368322250003
 31
0.0
  0
ARC
  5
46ED
  8
0
 10
124.8355653603532005
 20
-15.7543361627819198
 30
0.0
 40
0.2092012767406358
 50
287.2481658666716839
 51
307.7459660567038213
  0
ARC
  5
46EE
  8
0
 10
124.7082407626110978
 20
-15.4578755324173205
 30
0.0
 40
0.532305065233814
 50
280.3585935255586037
 51
290.4617986083624146
  0
LINE
  5
46EF
  8
0
 10
124.8039536269052974
 20
-15.9815049147882693
 30
0.0
 11
124.7844520280116996
 21
-15.9738280920418791
 31
0.0
  0
ARC
  5
46F0
  8
0
 10
124.787442905885797
 20
-15.9694545167814397
 30
0.0
 40
0.005298444198063
 50
175.945511503945994
 51
235.6336527013841931
  0
LINE
  5
46F1
  8
0
 10
124.7821577223133005
 20
-15.9690798896002608
 30
0.0
 11
124.7821577223133005
 21
-15.9266356787003698
 31
0.0
  0
ARC
  5
46F2
  8
0
 10
124.7865749164621008
 20
-15.5232748050529192
 30
0.0
 40
0.4338597603134826
 50
284.8272528250225832
 51
294.165736872578691
  0
ARC
  5
46F3
  8
0
 10
124.6989309469141034
 20
-15.5034707028795804
 30
0.0
 40
0.4780689582814146
 50
280.3050299248412784
 51
290.5153621190082163
  0
ARC
  5
46F4
  8
0
 10
124.6140252660981957
 20
-14.9463918554887893
 30
0.0
 40
1.0154815608273751
 50
272.4522600241962209
 51
279.5303012728520002
  0
ARC
  5
46F5
  8
0
 10
124.6025723845141044
 20
-14.60492850935284
 30
0.0
 40
1.37221325565519
 50
272.2930155043056857
 51
277.5200287491097129
  0
ARC
  5
46F6
  8
0
 10
124.6068350384871053
 20
-14.8256103759197799
 30
0.0
 40
1.168777047590329
 50
272.4832308592629033
 51
279.3674324339452255
  0
ARC
  5
46F7
  8
0
 10
124.5921085847477059
 20
-14.6929623210435096
 30
0.0
 40
1.2929496773211679
 50
270.0392769762705143
 51
272.5739840155217166
  0
ARC
  5
46F8
  8
0
 10
124.5966376794452941
 20
-15.1298602711620003
 30
0.0
 40
0.8609287609666904
 50
269.7575693906300103
 51
273.6120127047481105
  0
ARC
  5
46F9
  8
0
 10
124.5952837375806013
 20
-14.8803998238875899
 30
0.0
 40
1.1197599449162889
 50
269.8828850872872067
 51
273.1581734954025933
  0
ARC
  5
46FA
  8
0
 10
124.7585375977513991
 20
-15.7457430097637499
 30
0.0
 40
0.181536627723459
 50
283.5885850708464773
 51
309.2618666451381841
  0
ARC
  5
46FB
  8
0
 10
124.8190097593031993
 20
-15.7835654229551405
 30
0.0
 40
0.1359528580959906
 50
288.9670196824695267
 51
313.1446941704621736
  0
ARC
  5
46FC
  8
0
 10
124.9653423785302948
 20
-15.8965823778407795
 30
0.0
 40
0.0131139422732111
 50
35.5783590474302116
 51
75.1926970051942618
  0
ARC
  5
46FD
  8
0
 10
124.9530788135945016
 20
-15.8996208637827401
 30
0.0
 40
0.0252897608799824
 50
2.2361125589751758
 51
24.9511893892916383
  0
ARC
  5
46FE
  8
0
 10
124.9512192565905053
 20
-15.9507512015578499
 30
0.0
 40
0.0690935564308551
 50
75.3500611972610841
 51
89.0465573590191042
  0
ARC
  5
46FF
  8
0
 10
124.9446750590712014
 20
-16.3439791435427892
 30
0.0
 40
0.4623759497297179
 50
89.0465573590191042
 51
94.0548015046933301
  0
ARC
  5
4700
  8
0
 10
124.9778783156737063
 20
-16.8123693814384296
 30
0.0
 40
0.9319415694304733
 50
94.0548015046933301
 51
96.4352572366868657
  0
ARC
  5
4701
  8
0
 10
124.3412628842962988
 20
-11.1681708370038795
 30
0.0
 40
4.7480457911597771
 50
275.8123673919278076
 51
276.4352572366868799
  0
ARC
  5
4702
  8
0
 10
124.3120749189597944
 20
-10.8814362893349195
 30
0.0
 40
5.0362620956038686
 50
274.3557264646728981
 51
275.8123673919286034
  0
ARC
  5
4703
  8
0
 10
124.5899395073608957
 20
-14.2807297515603508
 30
0.0
 40
1.625793022638286
 50
270.1076780562647741
 51
273.6899743046291746
  0
LINE
  5
4704
  8
0
 10
124.5929949179164993
 20
-15.9075468412228993
 30
0.0
 11
124.5945436038913954
 21
-15.9075532323699704
 31
0.0
  0
LINE
  5
4705
  8
0
 10
124.5945436038913954
 20
-15.9075532323699704
 30
0.0
 11
124.6012671877510058
 21
-15.9064833110263297
 31
0.0
  0
LINE
  5
4706
  8
0
 10
124.5979180887914026
 20
-15.9070162518699707
 30
0.0
 11
124.5979180887914026
 21
-15.9101148525699703
 31
0.0
  0
ARC
  5
4707
  8
0
 10
124.5920410541799015
 20
-15.9098217984171395
 30
0.0
 40
0.0058843365438078
 50
279.3289349343939989
 51
357.1453510983183151
  0
LINE
  5
4708
  8
0
 10
124.5979180887914026
 20
-15.9101148525699703
 30
0.0
 11
124.6183905297913981
 21
-15.9133726242699698
 31
0.0
  0
LINE
  5
4709
  8
0
 10
124.6183905297913981
 20
-15.9196695028699704
 30
0.0
 11
124.6183905297913981
 21
-15.9062665606699696
 31
0.0
  0
LINE
  5
470A
  8
0
 10
124.5929949179164993
 20
-15.9158814538785691
 30
0.0
 11
124.6168437548914056
 21
-15.9196759018699705
 31
0.0
  0
LINE
  5
470B
  8
0
 10
124.6168437548914056
 20
-15.9196759018699705
 30
0.0
 11
124.6183905297913981
 21
-15.9196695028699704
 31
0.0
  0
LINE
  5
470C
  8
0
 10
124.6437861416661974
 20
-15.9075468412228993
 30
0.0
 11
124.6422374556914008
 21
-15.9075532323699704
 31
0.0
  0
LINE
  5
470D
  8
0
 10
124.6422374556914008
 20
-15.9075532323699704
 30
0.0
 11
124.632294246140404
 21
-15.905970973214
 31
0.0
  0
LINE
  5
470E
  8
0
 10
124.6388629707913935
 20
-15.9070162518699707
 30
0.0
 11
124.6388629707913935
 21
-15.9101148525699703
 31
0.0
  0
ARC
  5
470F
  8
0
 10
124.6447400054027952
 20
-15.9098217984171395
 30
0.0
 40
0.0058843365438078
 50
182.8546489016817134
 51
260.6710650656058874
  0
LINE
  5
4710
  8
0
 10
124.6388629707913935
 20
-15.9101148525699703
 30
0.0
 11
124.6183905297913981
 21
-15.9133726242699698
 31
0.0
  0
LINE
  5
4711
  8
0
 10
124.6183905297913981
 20
-15.9196695028699704
 30
0.0
 11
124.6183905297913981
 21
-15.9062665606699696
 31
0.0
  0
LINE
  5
4712
  8
0
 10
124.6437849948885059
 20
-15.9158812713922693
 30
0.0
 11
124.6199373046914047
 21
-15.9196759018699705
 31
0.0
  0
LINE
  5
4713
  8
0
 10
124.6199373046914047
 20
-15.9196759018699705
 30
0.0
 11
124.6183905297913981
 21
-15.9196695028699704
 31
0.0
  0
LINE
  5
4714
  8
0
 10
124.6691817535409967
 20
-15.9196695028699704
 30
0.0
 11
124.6691817535409967
 21
-15.9062665606699696
 31
0.0
  0
LINE
  5
4715
  8
0
 10
124.6437861416661974
 20
-15.9075468412228993
 30
0.0
 11
124.645334827640994
 21
-15.9075532323699704
 31
0.0
  0
LINE
  5
4716
  8
0
 10
124.645334827640994
 20
-15.9075532323699704
 30
0.0
 11
124.6617935990961996
 21
-15.9049341543250407
 31
0.0
  0
LINE
  5
4717
  8
0
 10
124.6487093125411008
 20
-15.9070162518699707
 30
0.0
 11
124.6487093125411008
 21
-15.9101148525699703
 31
0.0
  0
ARC
  5
4718
  8
0
 10
124.6428322779295996
 20
-15.9098217984171395
 30
0.0
 40
0.0058843365438078
 50
279.3289349343939989
 51
357.1453510983183151
  0
LINE
  5
4719
  8
0
 10
124.6487093125411008
 20
-15.9101148525699703
 30
0.0
 11
124.6691817535409967
 21
-15.9133726242699698
 31
0.0
  0
LINE
  5
471A
  8
0
 10
124.6691817535409967
 20
-15.9196695028699704
 30
0.0
 11
124.6691817535409967
 21
-15.9045904656856898
 31
0.0
  0
LINE
  5
471B
  8
0
 10
124.6437849948885059
 20
-15.9158812713922693
 30
0.0
 11
124.6676349786411038
 21
-15.9196759018699705
 31
0.0
  0
LINE
  5
471C
  8
0
 10
124.6437849948885059
 20
-15.9158812713922693
 30
0.0
 11
124.6437861416657
 21
-15.9156283086024199
 31
0.0
  0
LINE
  5
471D
  8
0
 10
124.6676311702914006
 20
-15.9196758587699705
 30
0.0
 11
124.6707247061913932
 21
-15.9196759018699705
 31
0.0
  0
LINE
  5
471E
  8
0
 10
124.6707247061913932
 20
-15.9196759018699705
 30
0.0
 11
124.6945708677942974
 21
-15.9158812713922693
 31
0.0
  0
LINE
  5
471F
  8
0
 10
124.6945708677942974
 20
-15.9158812713922693
 30
0.0
 11
124.7159892627913962
 21
-15.9192893290699704
 31
0.0
  0
LINE
  5
4720
  8
0
 10
124.7159892627913962
 20
-15.9192893290699704
 30
0.0
 11
124.7175551012913957
 21
-15.9192859636699708
 31
0.0
  0
LINE
  5
4721
  8
0
 10
124.7175551012913957
 20
-15.9192859636699708
 30
0.0
 11
124.7199826448914024
 21
-15.9185406841699706
 31
0.0
  0
ARC
  5
4722
  8
0
 10
124.7173133933531943
 20
-15.9135914602733699
 30
0.0
 40
0.0056231415554313
 50
298.339196511411501
 51
357.4205922455827249
  0
LINE
  5
4723
  8
0
 10
124.7229308375914059
 20
-15.9138445238699706
 30
0.0
 11
124.7229308375914059
 21
-15.9042303798699702
 31
0.0
  0
ARC
  5
4724
  8
0
 10
124.7189354813030064
 20
-15.8975602092327897
 30
0.0
 40
0.0060342647524278
 50
279.8266187308470876
 51
327.2666105423103886
  0
ARC
  5
4725
  8
0
 10
124.7209738920053042
 20
-15.8976074504961904
 30
0.0
 40
0.0059840965924385
 50
219.8695214386798966
 51
260.2970626908552845
  0
LINE
  5
4726
  8
0
 10
124.7199653328914053
 20
-15.9035059435699697
 30
0.0
 11
124.7199653452938009
 21
-15.9037584822435605
 31
0.0
  0
LINE
  5
4727
  8
0
 10
124.7199653452938009
 20
-15.9037584822435605
 30
0.0
 11
124.6961184069914026
 21
-15.9075532323699704
 31
0.0
  0
LINE
  5
4728
  8
0
 10
124.6961184069914026
 20
-15.9075532323699704
 30
0.0
 11
124.6930248571914035
 21
-15.9075532323699704
 31
0.0
  0
LINE
  5
4729
  8
0
 10
124.6930248571914035
 20
-15.9075532323699704
 30
0.0
 11
124.6731566821319035
 21
-15.9043916173077893
 31
0.0
  0
LINE
  5
472A
  8
0
 10
124.6994928919913974
 20
-15.9070162524349392
 30
0.0
 11
124.6994928919913974
 21
-15.9101148525699703
 31
0.0
  0
ARC
  5
472B
  8
0
 10
124.6939434641046063
 20
-15.9101148525699703
 30
0.0
 40
0.0055494278868231
 50
276.4995315075881877
 51
0.0000000000162844
  0
ARC
  5
472C
  8
0
 10
124.6955182285950059
 20
-15.90983064202001
 30
0.0
 40
0.0058747351631275
 50
182.7729630910044136
 51
260.7275042446672728
  0
LINE
  5
472D
  8
0
 10
124.6896503722913963
 20
-15.9101148525699703
 30
0.0
 11
124.6896503722913963
 21
-15.9070162518699707
 31
0.0
  0
LINE
  5
472E
  8
0
 10
124.6896503722913963
 20
-15.9101148525699703
 30
0.0
 11
124.6691817535409967
 21
-15.9133726242699698
 31
0.0
  0
LINE
  5
472F
  8
0
 10
124.6994928919913974
 20
-15.9101148525735905
 30
0.0
 11
124.7229308375914059
 21
-15.9138445238699706
 31
0.0
  0
LINE
  5
4730
  8
0
 10
124.7199653452936019
 20
-15.9037584782964103
 30
0.0
 11
124.7438122587913938
 21
-15.9075532323699704
 31
0.0
  0
LINE
  5
4731
  8
0
 10
124.7438122587913938
 20
-15.9075532323699704
 30
0.0
 11
124.7469058085914071
 21
-15.9075532323699704
 31
0.0
  0
LINE
  5
4732
  8
0
 10
124.7469058085914071
 20
-15.9075532323699704
 30
0.0
 11
124.7707519701942971
 21
-15.9037586018922692
 31
0.0
  0
LINE
  5
4733
  8
0
 10
124.7707519701942971
 20
-15.9037586018922692
 30
0.0
 11
124.7848134971913936
 21
-15.9059959552699706
 31
0.0
  0
LINE
  5
4734
  8
0
 10
124.7848134971913936
 20
-15.9059959552699706
 30
0.0
 11
124.7858917910914016
 21
-15.9059150157699705
 31
0.0
  0
LINE
  5
4735
  8
0
 10
124.7858917910914016
 20
-15.9059150157699705
 30
0.0
 11
124.7876200320555
 21
-15.9050584565525899
 31
0.0
  0
LINE
  5
4736
  8
0
 10
124.7876200320555
 20
-15.9050584565525899
 30
0.0
 11
124.8183618844904998
 21
-15.8951709466120494
 31
0.0
  0
LINE
  5
4737
  8
0
 10
124.8183618844904998
 20
-15.8951709466120494
 30
0.0
 11
124.8068361037437057
 21
-15.8933368535567894
 31
0.0
  0
LINE
  5
4738
  8
0
 10
124.7896830671914046
 20
-15.8950005257199507
 30
0.0
 11
124.7896830671914046
 21
-15.9002214414699701
 31
0.0
  0
ARC
  5
4739
  8
0
 10
124.7826586349794979
 20
-15.9000839111414596
 30
0.0
 40
0.0070257784259295
 50
314.9241790797133262
 51
358.8783576380283193
  0
LINE
  5
473A
  8
0
 10
124.7896830671914046
 20
-15.9002214414699896
 30
0.0
 11
124.7756739942913953
 21
-15.8979921830699702
 31
0.0
  0
LINE
  5
473B
  8
0
 10
124.7756739942913953
 20
-15.8963153300464608
 30
0.0
 11
124.7756739942913953
 21
-15.8979921830699702
 31
0.0
  0
ARC
  5
473C
  8
0
 10
124.7697956406763069
 20
-15.8976986032344101
 30
0.0
 40
0.005885680108865
 50
279.3586531463938059
 51
357.1408795179564777
  0
LINE
  5
473D
  8
0
 10
124.7707527344913956
 20
-15.9035059435699697
 30
0.0
 11
124.7707519701913981
 21
-15.9037586018699706
 31
0.0
  0
ARC
  5
473E
  8
0
 10
124.7717193672068987
 20
-15.8976951618213196
 30
0.0
 40
0.005890633525958
 50
175.3141912857583975
 51
260.5552439927574824
  0
LINE
  5
473F
  8
0
 10
124.7658361937075995
 20
-15.8979915280031303
 30
0.0
 11
124.7453590336914004
 21
-15.9012499547699697
 31
0.0
  0
LINE
  5
4740
  8
0
 10
124.7453590336914004
 20
-15.9012499547699697
 30
0.0
 11
124.7362633593538987
 21
-15.8998025635971096
 31
0.0
  0
LINE
  5
4741
  8
0
 10
124.7453590336914004
 20
-15.9075532323699704
 30
0.0
 11
124.7453590336914004
 21
-15.8990254287062793
 31
0.0
  0
LINE
  5
4742
  8
0
 10
124.7502802934914001
 20
-15.9070162518699707
 30
0.0
 11
124.7502802934914001
 21
-15.9092765031699699
 31
0.0
  0
ARC
  5
4743
  8
0
 10
124.7443573641238999
 20
-15.9090304011136805
 30
0.0
 40
0.0059280400229527
 50
301.7084645971075929
 51
357.6206870034108078
  0
LINE
  5
4744
  8
0
 10
124.7474731261913945
 20
-15.9140735831699693
 30
0.0
 11
124.7453590336914004
 21
-15.9148615345699707
 31
0.0
  0
ARC
  5
4745
  8
0
 10
124.7443581337123959
 20
-15.9095912572489393
 30
0.0
 40
0.005364477962327
 50
258.0234217726115276
 51
280.7532168389615208
  0
ARC
  5
4746
  8
0
 10
124.744236959947898
 20
-15.9111698922081608
 30
0.0
 40
0.003800814268659
 50
178.3228561791353002
 51
254.870494851566292
  0
LINE
  5
4747
  8
0
 10
124.7404377738914008
 20
-15.9110586518699701
 30
0.0
 11
124.7404377738914008
 21
-15.9070162513337596
 31
0.0
  0
ARC
  5
4748
  8
0
 10
124.6557617241128071
 20
-15.4111822594071395
 30
0.0
 40
0.5111855482964502
 50
280.3353506215855759
 51
284.5714634240397913
  0
ARC
  5
4749
  8
0
 10
124.6263335273911963
 20
-15.2550891190691207
 30
0.0
 40
0.6700284595008535
 50
278.0344716651501926
 51
280.0488197838200222
  0
ARC
  5
474A
  8
0
 10
124.6050933598913986
 20
-15.0992806330703697
 30
0.0
 40
0.8272820843996006
 50
274.5896841763002953
 51
277.6577172918255769
  0
LINE
  5
474B
  8
0
 10
124.6740991911914023
 20
-15.9191389213699708
 30
0.0
 11
124.6739134816914003
 21
-15.9207071769699695
 31
0.0
  0
ARC
  5
474C
  8
0
 10
124.6687973861773031
 20
-15.9191937722703596
 30
0.0
 40
0.0053352438645189
 50
297.8771327109225808
 51
343.5211274643510819
  0
ARC
  5
474D
  8
0
 10
124.6689193314310984
 20
-15.9194243092216894
 30
0.0
 40
0.0050744413897189
 50
271.1880935066719189
 51
297.8771327109254798
  0
ARC
  5
474E
  8
0
 10
124.6688875003615067
 20
-15.9178894767115793
 30
0.0
 40
0.006609603938471
 50
253.9836975136549029
 51
271.1880935066669736
  0
ARC
  5
474F
  8
0
 10
124.6685600307693988
 20
-15.9202075398056593
 30
0.0
 40
0.0043034442562112
 50
179.6399324187437117
 51
249.6549415704697878
  0
LINE
  5
4750
  8
0
 10
124.6642566714914011
 20
-15.9201804955699693
 30
0.0
 11
124.6642566714914011
 21
-15.9191424071529095
 31
0.0
  0
LINE
  5
4751
  8
0
 10
124.6670638390828003
 20
-15.9242425172249096
 30
0.0
 11
124.6205046222449937
 21
-15.9266399948929802
 31
0.0
  0
LINE
  5
4752
  8
0
 10
124.6233117895913978
 20
-15.9191389213699708
 30
0.0
 11
124.6233117895913978
 21
-15.9222870625699695
 31
0.0
  0
ARC
  5
4753
  8
0
 10
124.6185332700200945
 20
-15.9222870625699695
 30
0.0
 40
0.0047785195713139
 50
294.3647798526628208
 51
0.0000000000142489
  0
ARC
  5
4754
  8
0
 10
124.6183429875272992
 20
-15.9218669008072204
 30
0.0
 40
0.0052397606513604
 50
270.5198726883821791
 51
294.3647798526690167
  0
ARC
  5
4755
  8
0
 10
124.6183354186681953
 20
-15.9210327508479406
 30
0.0
 40
0.0060739449488624
 50
250.1849002463061993
 51
270.5198726883755853
  0
ARC
  5
4756
  8
0
 10
124.6180629908134989
 20
-15.9225149326453295
 30
0.0
 40
0.0045937708031786
 50
180.2670061924225138
 51
247.1134386387763868
  0
LINE
  5
4757
  8
0
 10
124.6134692698913966
 20
-15.9225363401699695
 30
0.0
 11
124.6134692698913966
 21
-15.9191430763001094
 31
0.0
  0
ARC
  5
4758
  8
0
 10
124.5976856398445989
 20
-15.2102680036787401
 30
0.0
 40
0.7167202139508853
 50
269.6250133834926146
 51
271.4863452874797076
  0
LINE
  5
4759
  8
0
 10
124.6437842302868972
 20
-15.9075468491108101
 30
0.0
 11
124.6437842302867978
 21
-15.9075467592585298
 31
0.0
  0
LINE
  5
475A
  8
0
 10
124.6437861425595059
 20
-15.9075468412192098
 30
0.0
 11
124.6437861425595059
 21
-15.9056307268065407
 31
0.0
  0
LINE
  5
475B
  8
0
 10
124.6945716320913959
 20
-15.9075532323699704
 30
0.0
 11
124.6945716320913959
 21
-15.9031523466264701
 31
0.0
  0
ARC
  5
475C
  8
0
 10
124.8188280681678037
 20
-15.8933069853977091
 30
0.0
 40
0.0019213741513674
 50
255.9581622591086045
 51
290.9156541129552807
  0
LINE
  5
475D
  8
0
 10
124.8195139857233045
 20
-15.8951017543902307
 30
0.0
 11
124.8208832585913939
 21
-15.8941880616699702
 31
0.0
  0
LINE
  5
475E
  8
0
 10
124.8280593793289057
 20
-15.89119613943177
 30
0.0
 11
124.8208832586242067
 21
-15.8941880617052398
 31
0.0
  0
ARC
  5
475F
  8
0
 10
124.8159986288085008
 20
-15.8901848249999205
 30
0.0
 40
0.0063155042144491
 50
320.6690399059305037
 51
345.1228017082544852
  0
ARC
  5
4760
  8
0
 10
124.9285565988083988
 20
-15.8855340741941102
 30
0.0
 40
0.0405137247000751
 50
324.648884264220726
 51
2.1687726713822801
  0
ARC
  5
4761
  8
0
 10
124.9258011893849982
 20
-15.9001075705093697
 30
0.0
 40
0.0294004369346335
 50
327.9211017454707076
 51
38.9621298810507923
  0
ARC
  5
4762
  8
0
 10
124.8921117287961948
 20
-15.9005534416742993
 30
0.0
 40
0.0273747323968351
 50
340.175106642590606
 51
40.6998859897310723
  0
ENDSEC
  0
EOF
