  0
SECTION
  2
HEADER
  9
$ACADVER
  1
AC1009
  9
$INSBASE
 10
124.6055743903663995
 20
-7.6304527889219278
 30
0.0
  9
$EXTMIN
 10
119.2120550087341968
 20
-7.6308904449047752
 30
-0.0015258207003583
  9
$EXTMAX
 10
126.0799065811276023
 20
-1.2933289142195641
 30
0.0000000349246037
  9
$LIMMIN
 10
0.0
 20
0.0
  9
$LIMMAX
 10
11.6929133858000007
 20
8.2677165353999982
  9
$ORTHOMODE
 70
     0
  9
$REGENMODE
 70
     1
  9
$FILLMODE
 70
     1
  9
$QTEXTMODE
 70
     0
  9
$MIRRTEXT
 70
     0
  9
$DRAGMODE
 70
     2
  9
$LTSCALE
 40
0.6431102362
  9
$OSMODE
 70
  4095
  9
$ATTMODE
 70
     1
  9
$TEXTSIZE
 40
0.2
  9
$TRACEWID
 40
0.05
  9
$TEXTSTYLE
  7
STANDARD
  9
$CLAYER
  8
0
  9
$CELTYPE
  6
BYLAYER
  9
$CECOLOR
 62
   256
  9
$DIMSCALE
 40
1.0
  9
$DIMASZ
 40
0.1875
  9
$DIMEXO
 40
0.0625
  9
$DIMDLI
 40
0.4443307087
  9
$DIMRND
 40
0.0
  9
$DIMDLE
 40
0.0
  9
$DIMEXE
 40
0.125
  9
$DIMTP
 40
0.01
  9
$DIMTM
 40
0.01
  9
$DIMTXT
 40
1.0
  9
$DIMCEN
 40
0.1052362205
  9
$DIMTSZ
 40
0.0
  9
$DIMTOL
 70
     1
  9
$DIMLIM
 70
     0
  9
$DIMTIH
 70
     1
  9
$DIMTOH
 70
     1
  9
$DIMSE1
 70
     0
  9
$DIMSE2
 70
     0
  9
$DIMTAD
 70
     0
  9
$DIMZIN
 70
     0
  9
$DIMBLK
  1

  9
$DIMASO
 70
     1
  9
$DIMSHO
 70
     1
  9
$DIMPOST
  1
\X
  9
$DIMAPOST
  1

  9
$DIMALT
 70
     1
  9
$DIMALTD
 70
     2
  9
$DIMALTF
 40
25.3999999999999986
  9
$DIMLFAC
 40
1.0
  9
$DIMTOFL
 70
     0
  9
$DIMTVP
 40
0.0
  9
$DIMTIX
 70
     0
  9
$DIMSOXD
 70
     0
  9
$DIMSAH
 70
     0
  9
$DIMBLK1
  1

  9
$DIMBLK2
  1

  9
$DIMSTYLE
  2
STANDARD
  9
$DIMCLRD
 70
     0
  9
$DIMCLRE
 70
     0
  9
$DIMCLRT
 70
     0
  9
$DIMTFAC
 40
1.0
  9
$DIMGAP
 40
0.09
  9
$LUNITS
 70
     2
  9
$LUPREC
 70
     4
  9
$SKETCHINC
 40
0.1
  9
$FILLETRAD
 40
0.0
  9
$AUNITS
 70
     0
  9
$AUPREC
 70
     0
  9
$MENU
  1
.
  9
$ELEVATION
 40
0.0
  9
$PELEVATION
 40
0.0
  9
$THICKNESS
 40
0.0
  9
$LIMCHECK
 70
     0
  9
$BLIPMODE
 70
     0
  9
$CHAMFERA
 40
0.0
  9
$CHAMFERB
 40
0.0
  9
$SKPOLY
 70
     0
  9
$TDCREATE
 40
2458172.4620254631154239
  9
$TDUPDATE
 40
2459012.905289351940155
  9
$TDINDWG
 40
0.0714411227
  9
$TDUSRTIMER
 40
0.0714411227
  9
$USRTIMER
 70
     1
  9
$ANGBASE
 50
0.0
  9
$ANGDIR
 70
     0
  9
$PDMODE
 70
     0
  9
$PDSIZE
 40
0.3125
  9
$PLINEWID
 40
0.0
  9
$COORDS
 70
     1
  9
$SPLFRAME
 70
     0
  9
$SPLINETYPE
 70
     6
  9
$SPLINESEGS
 70
     8
  9
$ATTDIA
 70
     1
  9
$ATTREQ
 70
     1
  9
$HANDLING
 70
     1
  9
$HANDSEED
  5
2CAE
  9
$SURFTAB1
 70
     6
  9
$SURFTAB2
 70
     6
  9
$SURFTYPE
 70
     6
  9
$SURFU
 70
     6
  9
$SURFV
 70
     6
  9
$UCSNAME
  2

  9
$UCSORG
 10
0.0
 20
0.0
 30
0.0
  9
$UCSXDIR
 10
1.0
 20
0.0
 30
0.0
  9
$UCSYDIR
 10
0.0
 20
1.0
 30
0.0
  9
$PUCSNAME
  2

  9
$PUCSORG
 10
0.0
 20
0.0
 30
0.0
  9
$PUCSXDIR
 10
1.0
 20
0.0
 30
0.0
  9
$PUCSYDIR
 10
0.0
 20
1.0
 30
0.0
  9
$USERI1
 70
     0
  9
$USERI2
 70
     0
  9
$USERI3
 70
     0
  9
$USERI4
 70
     0
  9
$USERI5
 70
     0
  9
$USERR1
 40
0.0
  9
$USERR2
 40
0.0
  9
$USERR3
 40
0.0
  9
$USERR4
 40
0.0
  9
$USERR5
 40
0.0
  9
$WORLDVIEW
 70
     1
  9
$SHADEDGE
 70
     3
  9
$SHADEDIF
 70
    70
  9
$TILEMODE
 70
     1
  9
$MAXACTVP
 70
    64
  9
$PLIMCHECK
 70
     0
  9
$PEXTMIN
 10
1.0000000000000000E+20
 20
1.0000000000000000E+20
 30
1.0000000000000000E+20
  9
$PEXTMAX
 10
-1.0000000000000000E+20
 20
-1.0000000000000000E+20
 30
-1.0000000000000000E+20
  9
$PLIMMIN
 10
0.0
 20
0.0
  9
$PLIMMAX
 10
12.0
 20
9.0
  9
$UNITMODE
 70
     0
  9
$VISRETAIN
 70
     1
  9
$PLINEGEN
 70
     0
  9
$PSLTSCALE
 70
     1
  0
ENDSEC
  0
SECTION
  2
TABLES
  0
TABLE
  2
VPORT
 70
     1
  0
VPORT
  2
*ACTIVE
 70
     0
 10
0.0
 20
0.0
 11
1.0
 21
1.0
 12
0.1459292311033344
 22
-10.0885736642973995
 13
0.0
 23
0.0
 14
1.0
 24
1.0
 15
0.0
 25
0.0
 16
0.0
 26
0.0
 36
30.6214257250603907
 17
124.6111586000725993
 27
5.3122741703778242
 37
0.0
 40
16.3591712740339297
 41
2.6486111111111108
 42
50.0
 43
0.0
 44
0.0
 50
0.0
 51
0.0
 71
     0
 72
   100
 73
     1
 74
     1
 75
     0
 76
     0
 77
     0
 78
     0
  0
ENDTAB
  0
TABLE
  2
LTYPE
 70
     2
  0
LTYPE
  2
CONTINUOUS
 70
     0
  3
Solid line
 72
    65
 73
     0
 40
0.0
  0
LTYPE
  2
PHANTOM2
 70
     0
  3
___ _ _ ___ _ _ ___ _ _ ___ _ _
 72
    65
 73
     6
 40
1.25
 49
0.625
 49
-0.125
 49
0.125
 49
-0.125
 49
0.125
 49
-0.125
  0
ENDTAB
  0
TABLE
  2
LAYER
 70
     2
  0
LAYER
  2
0
 70
     0
 62
   255
  6
CONTINUOUS
  0
LAYER
  2
DEFPOINTS
 70
     0
 62
     7
  6
CONTINUOUS
  0
ENDTAB
  0
TABLE
  2
STYLE
 70
     1
  0
STYLE
  2
STANDARD
 70
     0
 40
0.0
 41
0.8
 50
0.0
 71
     0
 42
0.2
  3
txt
  4

  0
ENDTAB
  0
TABLE
  2
VIEW
 70
     0
  0
ENDTAB
  0
TABLE
  2
UCS
 70
     0
  0
ENDTAB
  0
TABLE
  2
APPID
 70
     9
  0
APPID
  2
ACAD
 70
     0
  0
APPID
  2
ACAD_MLEADERVER
 70
     0
  0
APPID
  2
ACAD_EXEMPT_FROM_CAD_STANDARDS
 70
     0
  0
APPID
  2
ACAD_DSTYLE_DIMJAG
 70
     0
  0
APPID
  2
ACAD_DSTYLE_DIMTALN
 70
     0
  0
APPID
  2
ACAD_NAV_VCDISPLAY
 70
     0
  0
APPID
  2
ACAECLAYERSTANDARD
 70
     0
  0
APPID
  2
ACCMTRANSPARENCY
 70
     0
  0
APPID
  2
ACDBATTR
 70
     0
  0
ENDTAB
  0
TABLE
  2
DIMSTYLE
 70
     1
  0
DIMSTYLE
  2
STANDARD
 70
     0
  3

  4

  5

  6

  7

 40
1.0
 41
0.1875
 42
0.0625
 43
0.38
 44
0.125
 45
0.0
 46
0.0
 47
0.01
 48
0.01
140
0.15625
141
0.09
142
0.0
143
25.3999999999999986
144
1.0
145
0.0
146
1.0
147
0.09
 71
     1
 72
     0
 73
     1
 74
     1
 75
     0
 76
     0
 77
     0
 78
     4
170
     0
171
     2
172
     0
173
     0
174
     0
175
     0
176
     0
177
     0
178
     0
  0
ENDTAB
  0
ENDSEC
  0
SECTION
  2
BLOCKS
  0
BLOCK
  8
0
  2
$MODEL_SPACE
 70
     0
 10
0.0
 20
0.0
 30
0.0
  3
$MODEL_SPACE
  1

  0
ENDBLK
  5
21
  8
0
  0
BLOCK
 67
     1
  8
0
  2
$PAPER_SPACE
 70
     0
 10
0.0
 20
0.0
 30
0.0
  3
$PAPER_SPACE
  1

  0
ENDBLK
  5
1D
 67
     1
  8
0
  0
BLOCK
  8
0
  2
_FILLED
 70
     0
 10
0.0
 20
0.0
 30
0.0
  3
_FILLED
  1

  0
SOLID
  5
27D1
  8
0
  6
BYBLOCK
 62
     0
 10
0.0
 20
0.0
 30
0.0
 11
-1.0
 21
0.1666666667
 31
0.0
 12
-1.0
 22
-0.1666666667
 32
0.0
 13
-1.0
 23
-0.1666666667
 33
0.0
  0
ENDBLK
  5
27D2
  8
0
  6
BYBLOCK
 62
     0
  0
BLOCK
  8
0
  2
A$C1744DA5C
 70
     2
 10
0.0
 20
0.0
 30
0.0
  3
A$C1744DA5C
  1

  0
LINE
  5
27D4
  8
0
 10
0.0
 20
0.0
 30
0.0
 11
2.0672431056900029
 21
-1.810872701577489
 31
0.0
  0
ARC
  5
27D5
  8
0
 10
-4.1360139365632094
 20
5.3245254184341864
 30
0.0
 40
0.0131317872554637
 50
236.3311143631254936
 51
270.2045940868237039
  0
ARC
  5
27D6
  8
0
 10
-4.6973407481388767
 20
4.5801965103722271
 30
0.0
 40
0.9191534758567478
 50
52.9307925510240906
 51
103.5805774883064032
  0
ARC
  5
27D7
  8
0
 10
-4.9160719238017867
 20
5.4854844943470171
 30
0.0
 40
0.012184163103037
 50
241.4035307073008028
 51
283.7806869974098163
  0
ARC
  5
27D8
  8
0
 10
-3.6063874902053561
 20
7.7160375961194463
 30
0.0
 40
2.5988052597622482
 50
235.829325321267504
 51
239.5889306597509005
  0
ARC
  5
27D9
  8
0
 10
-5.0631266903257091
 20
5.5699323373420508
 30
0.0
 40
0.0049954832420851
 50
114.7988903146737982
 51
234.4319057287042938
  0
ARC
  5
27DA
  8
0
 10
-4.6663871328687421
 20
4.712242794070411
 30
0.0
 40
0.950000048419039
 50
57.0453511301355789
 51
114.8236102835037968
  0
ARC
  5
27DB
  8
0
 10
-4.6663871176457192
 20
4.7122428419051934
 30
0.0
 40
0.9499999999998603
 50
41.5577293823986906
 51
57.0453503311756194
  0
ARC
  5
27DC
  8
0
 10
-3.9592552695687071
 20
5.3391316016817907
 30
0.0
 40
0.0050000170904174
 50
277.8938479034998181
 51
41.5573595445551405
  0
ARC
  5
27DD
  8
0
 10
-5.700032539266437
 20
18.1906700801641605
 30
0.0
 40
12.9738992042777408
 50
276.9241212676623149
 51
277.7139964939271977
  0
ARC
  5
27DE
  8
0
 10
-4.6662388415458116
 20
4.7128237100050923
 30
0.0
 40
0.9550000000000011
 50
40.7972416533002402
 51
115.0106626693999061
  0
ARC
  5
27DF
  8
0
 10
-5.0742303129286546
 20
5.5873393068484942
 30
0.0
 40
0.0100049584553998
 50
233.717776189319693
 51
295.0106626693989824
  0
ARC
  5
27E0
  8
0
 10
-4.139564812761285
 20
6.8399325538195592
 30
0.0
 40
1.5728832300352871
 50
218.4197778017826863
 51
233.2731218386817034
  0
ARC
  5
27E1
  8
0
 10
-5.3079198960819758
 20
5.9104928596225994
 30
0.0
 40
0.0799599189539587
 50
108.820455074061698
 51
216.8723355390918073
  0
ARC
  5
27E2
  8
0
 10
-2.9161351371194608
 20
-1.8321224739151321
 30
0.0
 40
8.1835512166433606
 50
96.9705101373868814
 51
107.1826905418227938
  0
ARC
  5
27E3
  8
0
 10
-3.1965320918597011
 20
0.7648412192643237
 30
0.0
 40
5.5718755815208789
 50
66.9039984945669772
 51
97.3493302338829238
  0
ARC
  5
27E4
  8
0
 10
-2.2871153813574452
 20
3.5095905808022061
 30
0.0
 40
2.7010796648469442
 50
37.2434666839483128
 51
61.8028411906409474
  0
ARC
  5
27E5
  8
0
 10
-3.6330468958133428
 20
2.6304040531854822
 30
0.0
 40
4.3061502402320331
 50
15.1268132451178996
 51
35.7175743701182213
  0
ARC
  5
27E6
  8
0
 10
-9.1377642587431112
 20
1.125716397319362
 30
0.0
 40
10.0128031346295892
 50
8.1435348367604128
 51
15.2187153344072694
  0
ARC
  5
27E7
  8
0
 10
1.759711452623967
 20
2.6504660446606181
 30
0.0
 40
0.9913650665407429
 50
186.161334716870897
 51
202.1690380315091033
  0
ARC
  5
27E8
  8
0
 10
0.8137634346599966
 20
2.2636334929870618
 30
0.0
 40
0.0306481648822355
 50
352.1119267980918153
 51
24.5839975291117305
  0
ARC
  5
27E9
  8
0
 10
-4.5097033440921939
 20
3.0011961045376818
 30
0.0
 40
5.4049664612278798
 50
351.4019509075961878
 51
352.1119267980918153
  0
ARC
  5
27EA
  8
0
 10
0.8754253478926231
 20
2.2113650646872021
 30
0.0
 40
0.015028695479455
 50
30.4723345441992315
 51
126.7755347386246001
  0
ARC
  5
27EB
  8
0
 10
1.3823659532291039
 20
2.52504955680189
 30
0.0
 40
0.581118347190906
 50
211.781373649162191
 51
242.8491688191253957
  0
ARC
  5
27EC
  8
0
 10
1.8441424835399181
 20
3.2444753443616321
 30
0.0
 40
1.4343738742012919
 50
239.5481505279248893
 51
254.0043136242670982
  0
ARC
  5
27ED
  8
0
 10
1.4405542215821541
 20
1.8369126027103591
 30
0.0
 40
0.0299064003567222
 50
348.5130256317428916
 51
73.8370492021638256
  0
ARC
  5
27EE
  8
0
 10
-0.4929193130158254
 20
2.2188642671614698
 30
0.0
 40
2.0007451199262261
 50
346.3750913665754751
 51
348.8206111607003095
  0
ARC
  5
27EF
  8
0
 10
1.4224610569433971
 20
1.755006833577589
 30
0.0
 40
0.0300002274235172
 50
270.3089897762873193
 51
345.6263908813426724
  0
ARC
  5
27F0
  8
0
 10
1.3993333362825731
 20
1.0031229485993181
 30
0.0
 40
0.7222596804903528
 50
88.1521578900866984
 51
102.8372042785042026
  0
ARC
  5
27F1
  8
0
 10
1.272719231839353
 20
1.54762640443572
 30
0.0
 40
0.1632532980137654
 50
101.9700326342651948
 51
147.8993112226137043
  0
ARC
  5
27F2
  8
0
 10
1.477640679849322
 20
1.455147144412529
 30
0.0
 40
0.3871973225044498
 50
152.4256265015268923
 51
205.4535271333822948
  0
ARC
  5
27F3
  8
0
 10
1.1007111909812359
 20
1.276333868773124
 30
0.0
 40
0.0300002169343803
 50
334.9912775782627818
 51
24.4227092460130599
  0
ARC
  5
27F4
  8
0
 10
2.19260950178414
 20
0.7687298797048882
 30
0.0
 40
1.1741192936525049
 50
155.0690644357977988
 51
156.2601397925853064
  0
ARC
  5
27F5
  8
0
 10
1.0903652576054479
 20
1.2534575591668899
 30
0.0
 40
0.0300000301157887
 50
256.0815388747952284
 51
336.3275867626430227
  0
ARC
  5
27F6
  8
0
 10
2.0312245375790701
 20
4.2073565493789786
 30
0.0
 40
3.130055063195968
 50
251.848701541827694
 51
252.3684815512546891
  0
ARC
  5
27F7
  8
0
 10
0.9635567416255881
 20
2.0903037207930919
 30
0.0
 40
0.1647706983197972
 50
126.1200155549521043
 51
173.3994914248812904
  0
ARC
  5
27F8
  8
0
 10
55.0463963863256183
 20
-6.0338688866340791
 30
0.0
 40
54.854307172867351
 50
171.4628976363906929
 51
171.5266888229544122
  0
ARC
  5
27F9
  8
0
 10
5.651809927251171
 20
2.3521070586162161
 30
0.0
 40
4.8704152123939624
 50
183.5699309115211975
 51
188.2261636037499954
  0
ARC
  5
27FA
  8
0
 10
1.877185837390946
 20
1.784850690013505
 30
0.0
 40
1.053680878729083
 50
187.0655048519365096
 51
203.1314741139630939
  0
ARC
  5
27FB
  8
0
 10
1.062176894679645
 20
1.4395715717481199
 30
0.0
 40
0.1685744606207542
 50
204.0319755327024893
 51
229.988615134015987
  0
ARC
  5
27FC
  8
0
 10
1.920384921160597
 20
2.4684054805337561
 30
0.0
 40
1.5083573879086789
 50
230.1467270423997036
 51
235.3883972761898065
  0
ARC
  5
27FD
  8
0
 10
1.046449726779066
 20
1.1994722915969589
 30
0.0
 40
0.0324407253643981
 50
338.0962300514863728
 51
58.0384981225316565
  0
ARC
  5
27FE
  8
0
 10
3.7900999706765428
 20
0.0311443301609904
 30
0.0
 40
2.9496134510261531
 50
156.9214721755419077
 51
163.4837501419183923
  0
ARC
  5
27FF
  8
0
 10
2.1296138806169078
 20
0.564662632991511
 30
0.0
 40
1.206613047298331
 50
165.357351267443903
 51
180.6208160601779866
  0
ARC
  5
2800
  8
0
 10
-24.9150830376578689
 20
0.040584946457706
 30
0.0
 40
25.8432072963359083
 50
0.0870302825567881
 51
1.1329970524090061
  0
ARC
  5
2801
  8
0
 10
0.9080944518244038
 20
0.0798237099540291
 30
0.0
 40
0.0199999999489356
 50
277.6138177394084892
 51
0.0462613367612629
  0
LINE
  5
2802
  8
0
 10
0.9419743866749001
 20
0.0600000376884769
 30
0.0
 11
-0.9576124277458077
 21
0.0600000376884706
 31
0.0
  0
ARC
  5
2803
  8
0
 10
-0.9578929885364289
 20
0.0797252220559425
 30
0.0
 40
0.0197271795421408
 50
175.3820689578548127
 51
270.8148904975686264
  0
ARC
  5
2804
  8
0
 10
696.6902584054548697
 20
-52.9227825112227634
 30
0.0
 40
699.6783644129806135
 50
175.5057912116971863
 51
175.6553991253915115
  0
ARC
  5
2805
  8
0
 10
-30.0457082650762999
 20
4.3927398055774987
 30
0.0
 40
29.3148644885272915
 50
355.1276436472249998
 51
358.0575999915224088
  0
ARC
  5
2806
  8
0
 10
-3.76707217419554
 20
3.6179761828520922
 30
0.0
 40
3.0273057215479651
 50
355.8542179643824284
 51
18.3832351302515917
  0
ARC
  5
2807
  8
0
 10
-2.0632957279201838
 20
4.173897269557358
 30
0.0
 40
1.2351928771384819
 50
18.8364702651741389
 51
60.0122648076485206
  0
ARC
  5
2808
  8
0
 10
-2.4038699981369751
 20
3.6695971684879081
 30
0.0
 40
1.8427075826652619
 50
58.6774393300810218
 51
90.2472873522544887
  0
ARC
  5
2809
  8
0
 10
-2.4316888974279962
 20
1.416743313706226
 30
0.0
 40
4.0955924551088563
 50
89.7220834026996243
 51
99.2476336177959553
  0
ARC
  5
280A
  8
0
 10
-15.4645195633941093
 20
85.7130909699201737
 30
0.0
 40
81.202428864684876
 50
278.1631447930822105
 51
278.7656155734076151
  0
ARC
  5
280B
  8
0
 10
-3.9354041929126211
 20
5.3441342298309111
 30
0.0
 40
0.0107570506786785
 50
222.9443571430961981
 51
275.3290526857026066
  0
LINE
  5
280C
  8
0
 10
-3.9925641602518951
 20
5.3897191404694631
 30
0.0
 11
-3.9943015834652509
 21
5.3836600257373366
 31
0.0
  0
LINE
  5
280D
  8
0
 10
-5.0064548533804247
 20
5.6051678506208908
 30
0.0
 11
-5.0083489771475831
 21
5.5985622562586119
 31
0.0
  0
ARC
  5
280E
  8
0
 10
-5.8859594261152282
 20
20.8658113018018483
 30
0.0
 40
15.0120993784909302
 50
271.9624133932521204
 51
277.5672235993641266
  0
ARC
  5
280F
  8
0
 10
-3.1102832600672978
 20
-0.0280814746947336
 30
0.0
 40
6.0653561969456558
 50
81.6618317052394502
 51
97.5672235993641124
  0
ARC
  5
2810
  8
0
 10
-2.6904718866243722
 20
2.8362615514662228
 30
0.0
 40
3.1704118864642008
 50
61.396739380921332
 51
81.6618317052394502
  0
ARC
  5
2811
  8
0
 10
-2.3021233643323948
 20
3.8187413228649141
 30
0.0
 40
2.1258614496992791
 50
29.7959164056620907
 51
57.9069837364843494
  0
ARC
  5
2812
  8
0
 10
-0.0095526822558369
 20
1.884153054021757
 30
0.0
 40
0.7268029373148052
 50
180.157921402185508
 51
53.2262323936251676
  0
ARC
  5
2813
  8
0
 10
0.819864220312077
 20
2.857846539574862
 30
0.0
 40
0.5556703520613504
 50
189.0272135415206947
 51
224.7965071960267949
  0
ARC
  5
2814
  8
0
 10
-5.512232444433784
 20
2.3223902125186289
 30
0.0
 40
5.8006557699030221
 50
4.4321873901111939
 51
14.2970735107829601
  0
ARC
  5
2815
  8
0
 10
-3.469686743103046
 20
2.778858523984133
 30
0.0
 40
3.7091659232402479
 50
15.2559948446646292
 51
32.8937856913353812
  0
ARC
  5
2816
  8
0
 10
-0.6095706358556399
 20
4.6191167569068341
 30
0.0
 40
0.3082787495499813
 50
34.3911746459940773
 51
49.2303682413103232
  0
ARC
  5
2817
  8
0
 10
-0.4769516555640294
 20
4.7676503010138882
 30
0.0
 40
0.1092396711120559
 50
51.0362761292237721
 51
147.7474281928012942
  0
ARC
  5
2818
  8
0
 10
0.5606142350001236
 20
4.1865785109748987
 30
0.0
 40
1.2982984576987719
 50
150.4972080133769055
 51
180.7487504097288138
  0
ARC
  5
2819
  8
0
 10
0.4200264226175463
 20
4.2187971034355334
 30
0.0
 40
1.1586441993492871
 50
182.4329386474634873
 51
216.4409142780860975
  0
ARC
  5
281A
  8
0
 10
-4.9108396187029584
 20
0.5863876830924131
 30
0.0
 40
5.2931467125808673
 50
28.4139630942790795
 51
33.795154251039051
  0
ARC
  5
281B
  8
0
 10
-0.8070233296113045
 20
2.8412923633109028
 30
0.0
 40
0.6114972575645418
 50
332.9555860469317849
 51
25.5542334970985507
  0
ARC
  5
281C
  8
0
 10
-2.5594136651663528
 20
3.6610515539932078
 30
0.0
 40
2.5458730329689669
 50
315.7294123296733801
 51
334.4558877917291966
  0
ARC
  5
281D
  8
0
 10
0.0499147021151103
 20
1.8610858274571569
 30
0.0
 40
0.7865496606432759
 50
127.8693340338597011
 51
178.4654224663732123
  0
ARC
  5
281E
  8
0
 10
-1.2374527791090979
 20
3.4341022397595351
 30
0.0
 40
1.2465059219248711
 50
310.1980196472317743
 51
322.3091661703609248
  0
ARC
  5
281F
  8
0
 10
-0.4667179601315681
 20
2.8428151137981139
 30
0.0
 40
0.2751139321730163
 50
321.6157434979759842
 51
347.2331698522995111
  0
ARC
  5
2820
  8
0
 10
-0.5028667948941817
 20
4.7579620149431401
 30
0.0
 40
0.1342896802300297
 50
30.4891659021783603
 51
42.6113272134170202
  0
ARC
  5
2821
  8
0
 10
-4.6650410673795264
 20
2.5749767731110511
 30
0.0
 40
4.8340386623829108
 50
5.9558775197561804
 51
27.7543117056086999
  0
ARC
  5
2822
  8
0
 10
-11.8582127139546607
 20
1.706805675379315
 30
0.0
 40
12.0790335747876405
 50
4.5441947244354788
 51
6.5113526670426358
  0
ARC
  5
2823
  8
0
 10
-14.7099185228502094
 20
1.588909461785746
 30
0.0
 40
14.9315093399981897
 50
1.2341774406790671
 51
4.1281980418556428
  0
ARC
  5
2824
  8
0
 10
-5.5492878817759603
 20
1.7342352462529651
 30
0.0
 40
5.7701081693927074
 50
355.9936905173698278
 51
1.7506993541466329
  0
ARC
  5
2825
  8
0
 10
-0.16752991206328
 20
1.3436743424860449
 30
0.0
 40
0.3744613628706151
 50
334.0215745904841924
 51
358.075501444148415
  0
ARC
  5
2826
  8
0
 10
0.1130417468532769
 20
1.176556777474447
 30
0.0
 40
0.0097030078895838
 50
204.4958146061792092
 51
252.9129684945845895
  0
ARC
  5
2827
  8
0
 10
0.2403489473667051
 20
1.2223084738326311
 30
0.0
 40
0.1449509452638107
 50
187.7500531819956961
 51
200.083596024538906
  0
ARC
  5
2828
  8
0
 10
0.0556450861959448
 20
1.1762984105787879
 30
0.0
 40
0.0488632079647176
 50
32.7910156430087198
 51
69.8970610467648186
  0
ARC
  5
2829
  8
0
 10
-0.0205239206920922
 20
1.002525491787142
 30
0.0
 40
0.2385213109860307
 50
67.0610567910164548
 51
83.9960882081610265
  0
ARC
  5
282A
  8
0
 10
-0.0129246179587241
 20
0.9475262494926717
 30
0.0
 40
0.2927267779641549
 50
86.6022362165382731
 51
100.7694427547242952
  0
ARC
  5
282B
  8
0
 10
-0.0463697150106057
 20
1.133861985953746
 30
0.0
 40
0.1034421119292871
 50
101.8563458227265954
 51
122.4545395923392022
  0
ARC
  5
282C
  8
0
 10
-0.0916141143435923
 20
1.2007398414403829
 30
0.0
 40
0.0228448926150976
 50
116.7031561834905062
 51
160.6454515517573896
  0
ARC
  5
282D
  8
0
 10
-0.1298405431449012
 20
1.176556777474447
 30
0.0
 40
0.0097030078895838
 50
281.5440888769840058
 51
335.5041853938204781
  0
ARC
  5
282E
  8
0
 10
-0.2434720981510807
 20
1.2181273545213129
 30
0.0
 40
0.1306733862026618
 50
339.5791278662194941
 51
355.6917777733378898
  0
ARC
  5
282F
  8
0
 10
0.9099368415885393
 20
2.095452592836939
 30
0.0
 40
0.1109193196962772
 50
172.8578007625307862
 51
232.1396213173954095
  0
ARC
  5
2830
  8
0
 10
1.2707413552129121
 20
2.5040758748706851
 30
0.0
 40
0.6558564168151163
 50
229.1619089193061996
 51
258.2431166930040263
  0
ARC
  5
2831
  8
0
 10
1.4003161606699801
 20
2.8851545608237039
 30
0.0
 40
1.0564891391275131
 50
255.5734848518939941
 51
273.774334412322105
  0
ARC
  5
2832
  8
0
 10
-0.9382416907558379
 20
0.0505423869069537
 30
0.0
 40
0.0100038115999998
 50
109.0200254277686014
 51
177.9794760113067866
  0
LINE
  5
2833
  8
0
 10
-0.9482392826011292
 20
0.0508950961686088
 30
0.0
 11
-0.9500164679799709
 21
0.0000000000000001
 31
0.0
  0
LINE
  5
2834
  8
0
 10
0.9500164679799709
 20
0.0
 30
0.0
 11
0.9482391697441627
 21
0.0508950942069531
 31
0.0
  0
ARC
  5
2835
  8
0
 10
0.9377358505780151
 20
0.0503758966150825
 30
0.0
 40
0.0105161437630539
 50
2.829927962528032
 51
66.2309863854522547
  0
LINE
  5
2836
  8
0
 10
-0.9500164679799709
 20
0.0
 30
0.0
 11
0.9500164679799709
 21
0.0
 31
0.0
  0
ATTDEF
  5
2837
  8
DEFPOINTS
 10
0.0003912557951153
 20
0.0018812413639306
 30
0.0
 40
0.001
  1
BATHROOM SINK FAUCET
  3

  2
PRODUCT
 70
     0
1001
ACDBATTR
1070
     0
1070
     1
  0
ATTDEF
  5
2838
  8
DEFPOINTS
 10
0.0003912557951153
 20
0.0035479080305958
 30
0.0
 40
0.001
  1
REFINIA
  3

  2
TRADENAME
 70
     0
1001
ACDBATTR
1070
     0
1070
     1
  0
ATTDEF
  5
2839
  8
DEFPOINTS
 10
0.0003912557951153
 20
0.0052145746972609
 30
0.0
 40
0.001
  1
K-5313T-4
  3

  2
MODELNUMBER
 70
     0
1001
ACDBATTR
1070
     0
1070
     1
  0
ENDBLK
  5
283D
  8
0
  0
ENDSEC
  0
SECTION
  2
ENTITIES
  0
ATTDEF
  5
1FF6
  8
DEFPOINTS
 10
124.6056633686508945
 20
-7.6270001865336914
 30
0.0
 40
0.001
  1
K-5313T-4
  3

  2
MODELNUMBER
 70
     0
1001
ACDBATTR
1070
     0
1070
     1
  0
ATTDEF
  5
1FF7
  8
DEFPOINTS
 10
124.6056633686508945
 20
-7.6286668532003556
 30
0.0
 40
0.001
  1
REFINIA
  3

  2
TRADENAME
 70
     0
1001
ACDBATTR
1070
     0
1070
     1
  0
ATTDEF
  5
1FF8
  8
DEFPOINTS
 10
124.6056633686508945
 20
-7.6303335198670208
 30
0.0
 40
0.001
  1
BATHROOM SINK FAUCET
  3

  2
PRODUCT
 70
     0
1001
ACDBATTR
1070
     0
1070
     1
  0
ARC
  5
2AC1
  8
0
 10
120.4695604538031972
 20
-2.3059273704877419
 30
0.0
 40
0.0131317872554637
 50
236.3311143631252094
 51
270.2045940868242155
  0
ARC
  5
2AC2
  8
0
 10
119.9082336422276001
 20
-3.0502562785496998
 30
0.0
 40
0.9191534758567478
 50
52.9307925510240906
 51
103.5805774883064032
  0
ARC
  5
2AC3
  8
0
 10
119.6895024665646048
 20
-2.1449682945749111
 30
0.0
 40
0.012184163103037
 50
241.4035307073008028
 51
283.7806869974098163
  0
ARC
  5
2AC4
  8
0
 10
120.9991869001611065
 20
0.0855848071975176
 30
0.0
 40
2.5988052597622482
 50
235.829325321267504
 51
239.5889306597509005
  0
ARC
  5
2AC5
  8
0
 10
119.5424477000406966
 20
-2.0605204515798761
 30
0.0
 40
0.0049954832420851
 50
114.7988903146737982
 51
234.4319057287044075
  0
ARC
  5
2AC6
  8
0
 10
119.9391872574976929
 20
-2.9182099948515159
 30
0.0
 40
0.950000048419039
 50
57.0453511301356002
 51
114.8236102835037968
  0
ARC
  5
2AC7
  8
0
 10
119.9391872727207016
 20
-2.9182099470167349
 30
0.0
 40
0.9499999999998603
 50
41.5577293823986622
 51
57.0453503311756194
  0
ARC
  5
2AC8
  8
0
 10
120.646319120797699
 20
-2.2913211872401371
 30
0.0
 40
0.0050000170904174
 50
277.8938479034998181
 51
41.5573595445551476
  0
ARC
  5
2AC9
  8
0
 10
118.9055418510999971
 20
10.5602172912422301
 30
0.0
 40
12.9738992042777408
 50
276.9241212676620876
 51
277.7139964939270271
  0
ARC
  5
2ACA
  8
0
 10
119.9393355488205941
 20
-2.917629078916836
 30
0.0
 40
0.9550000000000011
 50
40.7972416533002473
 51
115.0106626693999061
  0
ARC
  5
2ACB
  8
0
 10
119.5313440774377938
 20
-2.043113482073434
 30
0.0
 40
0.0100049584553998
 50
233.717776189319693
 51
295.0106626693989824
  0
ARC
  5
2ACC
  8
0
 10
120.466009577605206
 20
-0.7905202351023695
 30
0.0
 40
1.5728832300352871
 50
218.4197778017826863
 51
233.2731218386817034
  0
ARC
  5
2ACD
  8
0
 10
119.2976544942844015
 20
-1.7199599292993291
 30
0.0
 40
0.0799599189539587
 50
108.820455074061698
 51
216.8723355390916936
  0
ARC
  5
2ACE
  8
0
 10
121.6894392532470022
 20
-9.4625752628370599
 30
0.0
 40
8.1835512166433606
 50
96.9705101373868814
 51
107.1826905418227938
  0
ARC
  5
2ACF
  8
0
 10
121.409042298506705
 20
-6.8656115696576041
 30
0.0
 40
5.5718755815208789
 50
66.903998494566963
 51
97.3493302338829238
  0
ARC
  5
2AD0
  8
0
 10
122.318459009009004
 20
-4.1208622081197221
 30
0.0
 40
2.7010796648469442
 50
37.2434666839483981
 51
61.8028411906409687
  0
ARC
  5
2AD1
  8
0
 10
120.9725274945531055
 20
-5.0000487357364456
 30
0.0
 40
4.3061502402320331
 50
15.1268132451178801
 51
35.7175743701182213
  0
ARC
  5
2AD2
  8
0
 10
115.4678101316232954
 20
-6.5047363916025658
 30
0.0
 40
10.0128031346295892
 50
8.1435348367604838
 51
15.2187153344072303
  0
ARC
  5
2AD3
  8
0
 10
126.3652858429904029
 20
-4.9799867442613088
 30
0.0
 40
0.9913650665407429
 50
186.161334716870897
 51
202.1690380315091033
  0
ARC
  5
2AD4
  8
0
 10
125.4193378250264033
 20
-5.3668192959348664
 30
0.0
 40
0.0306481648822355
 50
352.1119267980918153
 51
24.5839975291116808
  0
ARC
  5
2AD5
  8
0
 10
120.0958710462741976
 20
-4.6292566843842451
 30
0.0
 40
5.4049664612278798
 50
351.3969488779464996
 51
352.1119267980918153
  0
ARC
  5
2AD6
  8
0
 10
125.4809997382591007
 20
-5.4190877242347248
 30
0.0
 40
0.015028695479455
 50
30.4723345441992706
 51
126.7755347386246001
  0
ARC
  5
2AD7
  8
0
 10
125.987940343595497
 20
-5.1054032321200378
 30
0.0
 40
0.581118347190906
 50
211.781373649162191
 51
242.8491688191253957
  0
ARC
  5
2AD8
  8
0
 10
126.4497168739063966
 20
-4.3859774445602948
 30
0.0
 40
1.4343738742012919
 50
239.548150527924804
 51
254.0043136242670982
  0
ARC
  5
2AD9
  8
0
 10
126.0461286119486033
 20
-5.7935401862115681
 30
0.0
 40
0.0299064003567222
 50
348.5130256317428916
 51
73.8370492021638256
  0
ARC
  5
2ADA
  8
0
 10
124.1126550773505954
 20
-5.411588521760458
 30
0.0
 40
2.0007451199262261
 50
346.3750913665754751
 51
348.8206111607003095
  0
ARC
  5
2ADB
  8
0
 10
126.0280354473098043
 20
-5.8754459553443379
 30
0.0
 40
0.0300002274235172
 50
270.3089897762873193
 51
345.6263908813426724
  0
ARC
  5
2ADC
  8
0
 10
126.0049077266489945
 20
-6.6273298403226102
 30
0.0
 40
0.7222596804903528
 50
88.1521578900866984
 51
102.8372042785042026
  0
ARC
  5
2ADD
  8
0
 10
125.8782936222058026
 20
-6.082826384486208
 30
0.0
 40
0.1632532980137654
 50
101.9700326342651948
 51
147.8993112226137043
  0
ARC
  5
2ADE
  8
0
 10
126.0832150702158003
 20
-6.1753056445093986
 30
0.0
 40
0.3871973225044498
 50
152.425626501526807
 51
205.4535271333820958
  0
ARC
  5
2ADF
  8
0
 10
125.7062855813477
 20
-6.3541189201488031
 30
0.0
 40
0.0300002169343803
 50
334.9912775782628955
 51
24.4227092460130812
  0
ARC
  5
2AE0
  8
0
 10
126.7981838921506039
 20
-6.8617229092170398
 30
0.0
 40
1.1741192936525049
 50
155.0690644357979124
 51
156.2601397925853064
  0
ARC
  5
2AE1
  8
0
 10
125.6959396479718976
 20
-6.3769952297550381
 30
0.0
 40
0.0300000301157887
 50
256.0815388747952284
 51
336.3275867626430227
  0
ARC
  5
2AE2
  8
0
 10
126.636798927945506
 20
-3.4230962395429492
 30
0.0
 40
3.130055063195968
 50
251.8041807619875101
 51
252.3684815512546891
  0
ARC
  5
2AE3
  8
0
 10
125.5691311319919947
 20
-5.5401490681288363
 30
0.0
 40
0.1647706983197972
 50
126.1200155549521043
 51
173.3994914248814041
  0
ARC
  5
2AE4
  8
0
 10
179.6519707766921101
 20
-13.6643216755560104
 30
0.0
 40
54.854307172867351
 50
171.4628976363906929
 51
171.5266888229544122
  0
ARC
  5
2AE5
  8
0
 10
130.2573843176176069
 20
-5.2783457303057109
 30
0.0
 40
4.8704152123939624
 50
183.5699309115211122
 51
188.2261636037499102
  0
ARC
  5
2AE6
  8
0
 10
126.4827602277573959
 20
-5.8456020989084232
 30
0.0
 40
1.053680878729083
 50
187.0655048519363959
 51
203.1314741139630939
  0
ARC
  5
2AE7
  8
0
 10
125.6677512850460943
 20
-6.190881217173807
 30
0.0
 40
0.1685744606207542
 50
204.0319755327022904
 51
229.988615134015987
  0
ARC
  5
2AE8
  8
0
 10
126.5259593115270036
 20
-5.1620473083881722
 30
0.0
 40
1.5083573879086789
 50
230.1467270423997036
 51
235.3883972761898065
  0
ARC
  5
2AE9
  8
0
 10
125.6520241171455012
 20
-6.4309804973249687
 30
0.0
 40
0.0324407253643981
 50
338.0962300514863159
 51
58.0384981225316565
  0
ARC
  5
2AEA
  8
0
 10
128.3956743610430067
 20
-7.5993084587609383
 30
0.0
 40
2.9496134510261531
 50
156.921472175541993
 51
163.4837501419183923
  0
ARC
  5
2AEB
  8
0
 10
126.7351882709834001
 20
-7.0657901559304168
 30
0.0
 40
1.206613047298331
 50
165.357351267443903
 51
180.6208160601779866
  0
ARC
  5
2AEC
  8
0
 10
99.690491352708591
 20
-7.5898678424642219
 30
0.0
 40
25.8432072963359083
 50
0.0870302825567881
 51
1.1329970524090021
  0
ARC
  5
2AED
  8
0
 10
125.5136688421907962
 20
-7.5506290789678987
 30
0.0
 40
0.0199999999489356
 50
277.6138177394084892
 51
0.046261336761263
  0
LINE
  5
2AEE
  8
0
 10
125.5475487770412997
 20
-7.570452751233451
 30
0.0
 11
123.6479619626205988
 21
-7.5704527512334581
 31
0.0
  0
ARC
  5
2AEF
  8
0
 10
123.647681401829999
 20
-7.5507275668659863
 30
0.0
 40
0.0197271795421408
 50
175.3820689578548127
 51
270.8148904975687969
  0
ARC
  5
2AF0
  8
0
 10
821.2958327958212976
 20
-60.5532353001446921
 30
0.0
 40
699.6783644129806135
 50
175.5057912116971863
 51
175.6553991253915115
  0
ARC
  5
2AF1
  8
0
 10
94.5598661252901707
 20
-3.2377129833444291
 30
0.0
 40
29.3148644885272915
 50
355.1276436472249998
 51
358.0575999915224088
  0
ARC
  5
2AF2
  8
0
 10
120.8385022161708946
 20
-4.0124766060698356
 30
0.0
 40
3.0273057215479651
 50
355.8542179643824284
 51
18.3832351302516415
  0
ARC
  5
2AF3
  8
0
 10
122.542278662446293
 20
-3.456555519364569
 30
0.0
 40
1.2351928771384819
 50
18.8364702651740501
 51
60.0122648076485206
  0
ARC
  5
2AF4
  8
0
 10
122.2017043922295017
 20
-3.9608556204340188
 30
0.0
 40
1.8427075826652619
 50
58.6774393300810004
 51
90.2472873522544887
  0
ARC
  5
2AF5
  8
0
 10
122.1738854929383962
 20
-6.213709475215702
 30
0.0
 40
4.0955924551088563
 50
89.7220834026996243
 51
99.2476336177959553
  0
ARC
  5
2AF6
  8
0
 10
109.1410548269722938
 20
78.082638180998245
 30
0.0
 40
81.202428864684876
 50
278.1631447930822105
 51
278.7656155734076151
  0
ARC
  5
2AF7
  8
0
 10
120.6701701974537997
 20
-2.2863185590910171
 30
0.0
 40
0.0107570506786785
 50
222.9443571430961981
 51
275.3290526857026066
  0
LINE
  5
2AF8
  8
0
 10
120.6130102301144973
 20
-2.2407336484524638
 30
0.0
 11
120.6112728069011979
 21
-2.2467927631845912
 31
0.0
  0
LINE
  5
2AF9
  8
0
 10
119.5991195369859952
 20
-2.0252849383010361
 30
0.0
 11
119.5972254132187942
 21
-2.031890532663315
 31
0.0
  0
ARC
  5
2AFA
  8
0
 10
118.7196149642512069
 20
13.2353585128799196
 30
0.0
 40
15.0120993784909302
 50
271.9624133932521204
 51
277.5672235993641266
  0
ARC
  5
2AFB
  8
0
 10
121.4952911302990941
 20
-7.6585342636166622
 30
0.0
 40
6.0653561969456558
 50
81.6618317052394502
 51
97.5672235993641124
  0
ARC
  5
2AFC
  8
0
 10
121.915102503742105
 20
-4.7941912374557054
 30
0.0
 40
3.1704118864642008
 50
61.396739380921332
 51
81.6618317052394502
  0
ARC
  5
2AFD
  8
0
 10
122.3034510260339971
 20
-3.8117114660570142
 30
0.0
 40
2.1258614496992791
 50
29.7959164056621404
 51
57.9069837364843494
  0
ARC
  5
2AFE
  8
0
 10
124.5960217081105981
 20
-5.7462997349001697
 30
0.0
 40
0.7268029373148052
 50
180.1579214021853943
 51
53.2262323936251676
  0
ARC
  5
2AFF
  8
0
 10
125.4254386106784978
 20
-4.7726062493470662
 30
0.0
 40
0.5556703520613504
 50
189.0272135415206094
 51
224.7965071960267096
  0
ARC
  5
2B00
  8
0
 10
119.0933419459327069
 20
-5.308062576403298
 30
0.0
 40
5.8006557699030221
 50
4.4321873901111859
 51
14.2970735107828908
  0
ARC
  5
2B01
  8
0
 10
121.1358876472634023
 20
-4.8515942649377948
 30
0.0
 40
3.7091659232402479
 50
15.2559948446646008
 51
32.8937856913353386
  0
ARC
  5
2B02
  8
0
 10
123.9960037545107951
 20
-3.0113360320150928
 30
0.0
 40
0.3082787495499813
 50
34.3911746459940915
 51
49.2303682413103232
  0
ARC
  5
2B03
  8
0
 10
124.1286227348024056
 20
-2.86280248790804
 30
0.0
 40
0.1092396711120559
 50
51.0362761292237721
 51
147.7474281928012942
  0
ARC
  5
2B04
  8
0
 10
125.1661886253665017
 20
-3.4438742779470291
 30
0.0
 40
1.2982984576987719
 50
150.4972080133769055
 51
180.7487504097288138
  0
ARC
  5
2B05
  8
0
 10
125.0256008129839955
 20
-3.4116556854863949
 30
0.0
 40
1.1586441993492871
 50
182.4329386474634873
 51
216.4409142780860975
  0
ARC
  5
2B06
  8
0
 10
119.6947347716635051
 20
-7.0440651058295147
 30
0.0
 40
5.2931467125808673
 50
28.4139630942790085
 51
33.7951542510390723
  0
ARC
  5
2B07
  8
0
 10
123.7985510607551021
 20
-4.7891604256110254
 30
0.0
 40
0.6114972575645418
 50
332.9555860469317849
 51
25.5542334970986005
  0
ARC
  5
2B08
  8
0
 10
122.046160725200096
 20
-3.9694012349287191
 30
0.0
 40
2.5458730329689669
 50
315.7338855614830777
 51
334.4558877917291966
  0
ARC
  5
2B09
  8
0
 10
124.6554890924815027
 20
-5.7693669614647698
 30
0.0
 40
0.7865496606432759
 50
127.8693340338597011
 51
178.4654224663732123
  0
ARC
  5
2B0A
  8
0
 10
123.368121611257294
 20
-4.1963505491623927
 30
0.0
 40
1.2465059219248711
 50
310.1980196472317743
 51
322.3091661703609248
  0
ARC
  5
2B0B
  8
0
 10
124.1388564302348954
 20
-4.787637675123813
 30
0.0
 40
0.2751139321730163
 50
321.6157434979759842
 51
347.2331698522993975
  0
ARC
  5
2B0C
  8
0
 10
124.102707595472296
 20
-2.8724907739787882
 30
0.0
 40
0.1342896802300297
 50
30.489165902178339
 51
42.6113272134169989
  0
ARC
  5
2B0D
  8
0
 10
119.9405333229868944
 20
-5.0554760158108767
 30
0.0
 40
4.8340386623829108
 50
5.9558775197561866
 51
27.7543117056088207
  0
ARC
  5
2B0E
  8
0
 10
112.7473616764117992
 20
-5.9236471135426134
 30
0.0
 40
12.0790335747876405
 50
4.544194724435445
 51
6.5113526670425967
  0
ARC
  5
2B0F
  8
0
 10
109.8956558675161972
 20
-6.041543327136182
 30
0.0
 40
14.9315093399981897
 50
1.2341774406790711
 51
4.1281980418556348
  0
ARC
  5
2B10
  8
0
 10
119.0562865085905031
 20
-5.8962175426689631
 30
0.0
 40
5.7701081693927074
 50
355.9936905173698278
 51
1.7506993541466329
  0
ARC
  5
2B11
  8
0
 10
124.4380444783031976
 20
-6.286778446435882
 30
0.0
 40
0.3744613628706151
 50
334.0215745904841924
 51
358.0755014441483013
  0
ARC
  5
2B12
  8
0
 10
124.7186161372196977
 20
-6.4538960114474806
 30
0.0
 40
0.0097030078895838
 50
204.4958146061792092
 51
252.9129684945845895
  0
ARC
  5
2B13
  8
0
 10
124.8459233377330975
 20
-6.4081443150892961
 30
0.0
 40
0.1449509452638107
 50
187.7500531819956109
 51
200.083596024538906
  0
ARC
  5
2B14
  8
0
 10
124.661219476562394
 20
-6.454154378343139
 30
0.0
 40
0.0488632079647176
 50
32.7910156430088335
 51
69.8970610467648186
  0
ARC
  5
2B15
  8
0
 10
124.5850504696743002
 20
-6.6279272971347858
 30
0.0
 40
0.2385213109860307
 50
67.0610567910164548
 51
83.9960882081610265
  0
ARC
  5
2B16
  8
0
 10
124.5926497724076967
 20
-6.6829265394292561
 30
0.0
 40
0.2927267779641549
 50
86.6022362165382731
 51
100.7694427547242952
  0
ARC
  5
2B17
  8
0
 10
124.5592046753558009
 20
-6.496590802968182
 30
0.0
 40
0.1034421119292871
 50
101.8563458227265954
 51
122.4545395923392022
  0
ARC
  5
2B18
  8
0
 10
124.5139602760228001
 20
-6.4297129474815451
 30
0.0
 40
0.0228448926150976
 50
116.7031561834905062
 51
160.6454515517575032
  0
ARC
  5
2B19
  8
0
 10
124.4757338472215054
 20
-6.4538960114474806
 30
0.0
 40
0.0097030078895838
 50
281.5440888769840058
 51
335.5041853938204781
  0
ARC
  5
2B1A
  8
0
 10
124.3621022922153969
 20
-6.4123254344006151
 30
0.0
 40
0.1306733862026618
 50
339.5791278662194941
 51
355.6917777733378898
  0
ARC
  5
2B1B
  8
0
 10
125.5155112319550028
 20
-5.5350001960849893
 30
0.0
 40
0.1109193196962772
 50
172.8578007625307862
 51
232.1396213173954095
  0
ARC
  5
2B1C
  8
0
 10
125.8763157455794044
 20
-5.1263769140512432
 30
0.0
 40
0.6558564168151163
 50
229.1619089193061996
 51
258.2431166930040263
  0
ARC
  5
2B1D
  8
0
 10
126.0058905510364013
 20
-4.745298228098223
 30
0.0
 40
1.0564891391275131
 50
255.5734848518939089
 51
273.774334412322105
  0
ARC
  5
2B1E
  8
0
 10
123.667332699610597
 20
-7.579910402014975
 30
0.0
 40
0.0100038115999998
 50
109.0200254277688003
 51
177.9794760113067866
  0
LINE
  5
2B1F
  8
0
 10
123.6573351077653058
 20
-7.579557692753319
 30
0.0
 11
123.6555579223865067
 21
-7.6304527889219278
 31
0.0
  0
LINE
  5
2B20
  8
0
 10
125.555590858346406
 20
-7.6304527889219278
 30
0.0
 11
125.5538135601105978
 21
-7.5795576947149748
 31
0.0
  0
ARC
  5
2B21
  8
0
 10
125.5433102409443933
 20
-7.5800768923068462
 30
0.0
 40
0.0105161437630539
 50
2.829927962528036
 51
66.2309863854524252
  0
LINE
  5
2B22
  8
0
 10
123.6555579223865067
 20
-7.6304527889219278
 30
0.0
 11
125.555590858346406
 21
-7.6304527889219278
 31
0.0
  0
ARC
  5
2B23
  8
0
 10
119.2124890415781948
 20
-7.301684043010221
 30
0.0
 40
5.6999414421111094
 50
357.2973363009202785
 51
8.8032170648090613
  0
ENDSEC
  0
EOF
