  0
SECTION
  2
HEADER
  9
$ACADVER
  1
AC1009
  9
$INSBASE
 10
115.0882321417015959
 20
6.6124065988752507
 30
0.0
  9
$EXTMIN
 10
114.102177733870505
 20
1.2240853103321809
 30
-0.0015258207003583
  9
$EXTMAX
 10
117.7864874473116004
 20
8.0831512881493541
 30
0.0000000349246037
  9
$LIMMIN
 10
0.0
 20
0.0
  9
$LIMMAX
 10
11.6929133858000007
 20
8.2677165353999982
  9
$ORTHOMODE
 70
     0
  9
$REGENMODE
 70
     1
  9
$FILLMODE
 70
     1
  9
$QTEXTMODE
 70
     0
  9
$MIRRTEXT
 70
     0
  9
$DRAGMODE
 70
     2
  9
$LTSCALE
 40
0.6431102362
  9
$OSMODE
 70
  4095
  9
$ATTMODE
 70
     1
  9
$TEXTSIZE
 40
0.2
  9
$TRACEWID
 40
0.05
  9
$TEXTSTYLE
  7
STANDARD
  9
$CLAYER
  8
0
  9
$CELTYPE
  6
BYLAYER
  9
$CECOLOR
 62
   256
  9
$DIMSCALE
 40
1.0
  9
$DIMASZ
 40
0.1875
  9
$DIMEXO
 40
0.0625
  9
$DIMDLI
 40
0.4443307087
  9
$DIMRND
 40
0.0
  9
$DIMDLE
 40
0.0
  9
$DIMEXE
 40
0.125
  9
$DIMTP
 40
0.01
  9
$DIMTM
 40
0.01
  9
$DIMTXT
 40
1.0
  9
$DIMCEN
 40
0.1052362205
  9
$DIMTSZ
 40
0.0
  9
$DIMTOL
 70
     1
  9
$DIMLIM
 70
     0
  9
$DIMTIH
 70
     1
  9
$DIMTOH
 70
     1
  9
$DIMSE1
 70
     0
  9
$DIMSE2
 70
     0
  9
$DIMTAD
 70
     0
  9
$DIMZIN
 70
     0
  9
$DIMBLK
  1

  9
$DIMASO
 70
     1
  9
$DIMSHO
 70
     1
  9
$DIMPOST
  1
\X
  9
$DIMAPOST
  1

  9
$DIMALT
 70
     1
  9
$DIMALTD
 70
     2
  9
$DIMALTF
 40
25.3999999999999986
  9
$DIMLFAC
 40
1.0
  9
$DIMTOFL
 70
     0
  9
$DIMTVP
 40
0.0
  9
$DIMTIX
 70
     0
  9
$DIMSOXD
 70
     0
  9
$DIMSAH
 70
     0
  9
$DIMBLK1
  1

  9
$DIMBLK2
  1

  9
$DIMSTYLE
  2
STANDARD
  9
$DIMCLRD
 70
     0
  9
$DIMCLRE
 70
     0
  9
$DIMCLRT
 70
     0
  9
$DIMTFAC
 40
1.0
  9
$DIMGAP
 40
0.09
  9
$LUNITS
 70
     2
  9
$LUPREC
 70
     4
  9
$SKETCHINC
 40
0.1
  9
$FILLETRAD
 40
0.0
  9
$AUNITS
 70
     0
  9
$AUPREC
 70
     0
  9
$MENU
  1
.
  9
$ELEVATION
 40
0.0
  9
$PELEVATION
 40
0.0
  9
$THICKNESS
 40
0.0
  9
$LIMCHECK
 70
     0
  9
$BLIPMODE
 70
     0
  9
$CHAMFERA
 40
0.0
  9
$CHAMFERB
 40
0.0
  9
$SKPOLY
 70
     0
  9
$TDCREATE
 40
2458172.4620254631154239
  9
$TDUPDATE
 40
2459012.9058333341963589
  9
$TDINDWG
 40
0.0748670486
  9
$TDUSRTIMER
 40
0.0748670486
  9
$USRTIMER
 70
     1
  9
$ANGBASE
 50
0.0
  9
$ANGDIR
 70
     0
  9
$PDMODE
 70
     0
  9
$PDSIZE
 40
0.3125
  9
$PLINEWID
 40
0.0
  9
$COORDS
 70
     1
  9
$SPLFRAME
 70
     0
  9
$SPLINETYPE
 70
     6
  9
$SPLINESEGS
 70
     8
  9
$ATTDIA
 70
     1
  9
$ATTREQ
 70
     1
  9
$HANDLING
 70
     1
  9
$HANDSEED
  5
2B23
  9
$SURFTAB1
 70
     6
  9
$SURFTAB2
 70
     6
  9
$SURFTYPE
 70
     6
  9
$SURFU
 70
     6
  9
$SURFV
 70
     6
  9
$UCSNAME
  2

  9
$UCSORG
 10
0.0
 20
0.0
 30
0.0
  9
$UCSXDIR
 10
1.0
 20
0.0
 30
0.0
  9
$UCSYDIR
 10
0.0
 20
1.0
 30
0.0
  9
$PUCSNAME
  2

  9
$PUCSORG
 10
0.0
 20
0.0
 30
0.0
  9
$PUCSXDIR
 10
1.0
 20
0.0
 30
0.0
  9
$PUCSYDIR
 10
0.0
 20
1.0
 30
0.0
  9
$USERI1
 70
     0
  9
$USERI2
 70
     0
  9
$USERI3
 70
     0
  9
$USERI4
 70
     0
  9
$USERI5
 70
     0
  9
$USERR1
 40
0.0
  9
$USERR2
 40
0.0
  9
$USERR3
 40
0.0
  9
$USERR4
 40
0.0
  9
$USERR5
 40
0.0
  9
$WORLDVIEW
 70
     1
  9
$SHADEDGE
 70
     3
  9
$SHADEDIF
 70
    70
  9
$TILEMODE
 70
     1
  9
$MAXACTVP
 70
    64
  9
$PLIMCHECK
 70
     0
  9
$PEXTMIN
 10
1.0000000000000000E+20
 20
1.0000000000000000E+20
 30
1.0000000000000000E+20
  9
$PEXTMAX
 10
-1.0000000000000000E+20
 20
-1.0000000000000000E+20
 30
-1.0000000000000000E+20
  9
$PLIMMIN
 10
0.0
 20
0.0
  9
$PLIMMAX
 10
12.0
 20
9.0
  9
$UNITMODE
 70
     0
  9
$VISRETAIN
 70
     1
  9
$PLINEGEN
 70
     0
  9
$PSLTSCALE
 70
     1
  0
ENDSEC
  0
SECTION
  2
TABLES
  0
TABLE
  2
VPORT
 70
     1
  0
VPORT
  2
*ACTIVE
 70
     0
 10
0.0
 20
0.0
 11
1.0
 21
1.0
 12
-8.6668260094815661
 22
-0.6586558711370554
 13
0.0
 23
0.0
 14
1.0
 24
1.0
 15
0.0
 25
0.0
 16
0.0
 26
0.0
 36
30.6214257250603907
 17
124.6111586000725993
 27
5.3122741703778242
 37
0.0
 40
6.916145583735207
 41
2.6486111111111108
 42
50.0
 43
0.0
 44
0.0
 50
0.0
 51
0.0
 71
     0
 72
   100
 73
     1
 74
     1
 75
     0
 76
     0
 77
     0
 78
     0
  0
ENDTAB
  0
TABLE
  2
LTYPE
 70
     2
  0
LTYPE
  2
CONTINUOUS
 70
     0
  3
Solid line
 72
    65
 73
     0
 40
0.0
  0
LTYPE
  2
PHANTOM2
 70
     0
  3
___ _ _ ___ _ _ ___ _ _ ___ _ _
 72
    65
 73
     6
 40
1.25
 49
0.625
 49
-0.125
 49
0.125
 49
-0.125
 49
0.125
 49
-0.125
  0
ENDTAB
  0
TABLE
  2
LAYER
 70
     2
  0
LAYER
  2
0
 70
     0
 62
   255
  6
CONTINUOUS
  0
LAYER
  2
DEFPOINTS
 70
     0
 62
     7
  6
CONTINUOUS
  0
ENDTAB
  0
TABLE
  2
STYLE
 70
     1
  0
STYLE
  2
STANDARD
 70
     0
 40
0.0
 41
0.8
 50
0.0
 71
     0
 42
0.2
  3
txt
  4

  0
ENDTAB
  0
TABLE
  2
VIEW
 70
     0
  0
ENDTAB
  0
TABLE
  2
UCS
 70
     0
  0
ENDTAB
  0
TABLE
  2
APPID
 70
     9
  0
APPID
  2
ACAD
 70
     0
  0
APPID
  2
ACAD_MLEADERVER
 70
     0
  0
APPID
  2
ACAD_EXEMPT_FROM_CAD_STANDARDS
 70
     0
  0
APPID
  2
ACAD_DSTYLE_DIMJAG
 70
     0
  0
APPID
  2
ACAD_DSTYLE_DIMTALN
 70
     0
  0
APPID
  2
ACAD_NAV_VCDISPLAY
 70
     0
  0
APPID
  2
ACAECLAYERSTANDARD
 70
     0
  0
APPID
  2
ACCMTRANSPARENCY
 70
     0
  0
APPID
  2
ACDBATTR
 70
     0
  0
ENDTAB
  0
TABLE
  2
DIMSTYLE
 70
     1
  0
DIMSTYLE
  2
STANDARD
 70
     0
  3

  4

  5

  6

  7

 40
1.0
 41
0.1875
 42
0.0625
 43
0.38
 44
0.125
 45
0.0
 46
0.0
 47
0.01
 48
0.01
140
0.15625
141
0.09
142
0.0
143
25.3999999999999986
144
1.0
145
0.0
146
1.0
147
0.09
 71
     1
 72
     0
 73
     1
 74
     1
 75
     0
 76
     0
 77
     0
 78
     4
170
     0
171
     2
172
     0
173
     0
174
     0
175
     0
176
     0
177
     0
178
     0
  0
ENDTAB
  0
ENDSEC
  0
SECTION
  2
BLOCKS
  0
BLOCK
  8
0
  2
$MODEL_SPACE
 70
     0
 10
0.0
 20
0.0
 30
0.0
  3
$MODEL_SPACE
  1

  0
ENDBLK
  5
21
  8
0
  0
BLOCK
 67
     1
  8
0
  2
$PAPER_SPACE
 70
     0
 10
0.0
 20
0.0
 30
0.0
  3
$PAPER_SPACE
  1

  0
ENDBLK
  5
1D
 67
     1
  8
0
  0
BLOCK
  8
0
  2
_FILLED
 70
     0
 10
0.0
 20
0.0
 30
0.0
  3
_FILLED
  1

  0
SOLID
  5
2941
  8
0
  6
BYBLOCK
 62
     0
 10
0.0
 20
0.0
 30
0.0
 11
-1.0
 21
0.1666666667
 31
0.0
 12
-1.0
 22
-0.1666666667
 32
0.0
 13
-1.0
 23
-0.1666666667
 33
0.0
  0
ENDBLK
  5
2942
  8
0
  6
BYBLOCK
 62
     0
  0
ENDSEC
  0
SECTION
  2
ENTITIES
  0
ATTDEF
  5
252E
  8
DEFPOINTS
 10
115.088373267841007
 20
6.6158377886510431
 30
0.0
 40
0.001
  1
K-5313T-4
  3

  2
MODELNUMBER
 70
     0
1001
ACDBATTR
1070
     0
1070
     1
  0
ATTDEF
  5
252F
  8
DEFPOINTS
 10
115.088373267841007
 20
6.614171121984378
 30
0.0
 40
0.001
  1
REFINIA
  3

  2
TRADENAME
 70
     0
1001
ACDBATTR
1070
     0
1070
     1
  0
ATTDEF
  5
2530
  8
DEFPOINTS
 10
115.088373267841007
 20
6.6125044553177128
 30
0.0
 40
0.001
  1
BATHROOM SINK FAUCET
  3

  2
PRODUCT
 70
     0
1001
ACDBATTR
1070
     0
1070
     1
  0
ARC
  5
2993
  8
0
 10
115.0583880899219054
 20
7.6677544543650384
 30
0.0
 40
0.4161857294691145
 50
37.0633750395743391
 51
85.8849059710626932
  0
ARC
  5
2994
  8
0
 10
114.8639230385259964
 20
7.5106926197482604
 30
0.0
 40
0.6660733185181784
 50
7.3585043071054628
 51
37.7624639427567601
  0
ARC
  5
2995
  8
0
 10
115.1819256033845988
 20
7.5289270373854862
 30
0.0
 40
0.34908957941901
 50
348.1668936700498875
 51
11.0777690986531905
  0
ARC
  5
2996
  8
0
 10
115.3929651300305039
 20
7.4902618568774857
 30
0.0
 40
0.1347156786501296
 50
320.8658843607202016
 51
345.8557344852799815
  0
ARC
  5
2997
  8
0
 10
115.7347367724509013
 20
7.7012800553178531
 30
0.0
 40
0.3226233481123048
 50
229.1222241147216891
 51
261.5753468947178249
  0
ARC
  5
2998
  8
0
 10
116.4618795265853066
 20
13.4106979823509107
 30
0.0
 40
6.0780955878451728
 50
262.6800510765422132
 51
267.7410710427677145
  0
ARC
  5
2999
  8
0
 10
116.635815431031105
 20
18.4485452494338418
 30
0.0
 40
11.1189113377454802
 50
267.8687043485269896
 51
270.1918750035875973
  0
LINE
  5
299A
  8
0
 10
116.6730509339470956
 20
7.329696259814118
 30
0.0
 11
116.6882529170975005
 21
7.329696259814118
 31
0.0
  0
ARC
  5
299B
  8
0
 10
116.6882548687896985
 20
7.2997036280048953
 30
0.0
 40
0.0299926318727295
 50
359.9839962403921163
 51
90.0037283733304179
  0
LINE
  5
299C
  8
0
 10
116.7182474994924064
 20
7.3048776435141187
 30
0.0
 11
116.7182474994924064
 21
5.9034881377141204
 31
0.0
  0
ARC
  5
299D
  8
0
 10
116.6878554959359064
 20
5.90906145587617
 30
0.0
 40
0.0303945326129521
 50
270.7491754420756251
 51
359.2608677301481066
  0
LINE
  5
299E
  8
0
 10
116.6882529106974005
 20
5.8786695215141194
 30
0.0
 11
116.3364176544973958
 21
5.8779953557141189
 31
0.0
  0
ARC
  5
299F
  8
0
 10
116.3331766141925954
 20
-1.885086826340042
 30
0.0
 40
7.7630828586115879
 50
89.9760793566839254
 51
94.3518885539894256
  0
ARC
  5
29A0
  8
0
 10
116.7332531321456059
 20
5.9034945964909173
 30
0.0
 40
0.0150056340431686
 50
180.0246614479362961
 51
297.4550411050331036
  0
ARC
  5
29A1
  8
0
 10
116.3732185415029932
 20
6.596077806690392
 30
0.0
 40
0.7955800436792048
 50
297.4671218476061085
 51
305.5203597404556035
  0
ARC
  5
29A2
  8
0
 10
116.733253120379004
 20
7.3048711952702297
 30
0.0
 40
0.015005622272048
 50
62.4965568847092001
 51
179.9753787503917977
  0
ARC
  5
29A3
  8
0
 10
116.3682529234386038
 20
6.6041829118530462
 30
0.0
 40
0.8050620846512723
 50
54.5271396098356078
 51
62.4844717376776515
  0
LINE
  5
29A4
  8
0
 10
116.8354443497247956
 20
7.3145373224141208
 30
0.0
 11
116.8354443497247956
 21
5.8909804840141211
 31
0.0
  0
ARC
  5
29A5
  8
0
 10
116.8504534647810971
 20
5.8909895864955848
 30
0.0
 40
0.0150091178163989
 50
180.0347477985924058
 51
271.0844265438714729
  0
ARC
  5
29A6
  8
0
 10
116.8336616036295936
 20
6.6483574084383701
 30
0.0
 40
0.7725629886463917
 50
271.2665087286277981
 51
309.6847304935380976
  0
ARC
  5
29A7
  8
0
 10
116.8504596477533966
 20
7.3146034850160619
 30
0.0
 40
0.0150154437955665
 50
79.457672783180783
 51
180.2524634084342097
  0
ARC
  5
29A8
  8
0
 10
116.694915042192406
 20
6.479910709378621
 30
0.0
 40
0.8640773692820779
 50
55.0315093124674704
 51
79.4442733755020072
  0
ARC
  5
29A9
  8
0
 10
110.339018058210101
 20
-2.0247755144465902
 30
0.0
 40
11.4809840182394307
 50
50.3293261998287065
 51
53.3634784168386318
  0
ARC
  5
29AA
  8
0
 10
117.5662298200778935
 20
6.619155836187967
 30
0.0
 40
0.2185240554628298
 50
4.9908936065394398
 51
62.1904041170917168
  0
ARC
  5
29AB
  8
0
 10
114.5240064655670977
 20
6.6544387061112227
 30
0.0
 40
3.2599594943595651
 50
349.7022668591596926
 51
359.7140112301016188
  0
ARC
  5
29AC
  8
0
 10
117.2246164531350985
 20
6.1584611842813048
 30
0.0
 40
0.514214539167792
 50
337.6322357881646781
 51
350.2837366875414773
  0
ARC
  5
29AD
  8
0
 10
117.5871840357426947
 20
5.9932249217244928
 30
0.0
 40
0.1169893581242587
 50
241.2339979452360978
 51
344.9142532804233952
  0
ARC
  5
29AE
  8
0
 10
117.838343123512999
 20
6.249274469629678
 30
0.0
 40
0.4723617912817098
 50
204.9521585244062862
 51
229.3908256889006907
  0
ARC
  5
29AF
  8
0
 10
117.6715017949395019
 20
6.057516995449487
 30
0.0
 40
0.2615383327913157
 50
140.1024312052074947
 51
181.646271828809887
  0
ARC
  5
29B0
  8
0
 10
115.9869832307680042
 20
7.5063531301726529
 30
0.0
 40
1.960365721990968
 50
319.1946860846002778
 51
331.2120159509263999
  0
ARC
  5
29B1
  8
0
 10
117.5034541670598998
 20
6.6965405931058948
 30
0.0
 40
0.2422118525094185
 50
326.3424506801991924
 51
13.4686990903417403
  0
ARC
  5
29B2
  8
0
 10
117.9399603262358056
 20
6.610909795875366
 30
0.0
 40
0.8283018127942801
 50
222.2659684044699873
 51
240.4045696801809981
  0
ARC
  5
29B3
  8
0
 10
118.0941344887555999
 20
6.7510301857454014
 30
0.0
 40
1.0366366299661249
 50
202.3869686408326061
 51
222.2659684044699873
  0
ARC
  5
29B4
  8
0
 10
117.3620406475329929
 20
6.4771161885072699
 30
0.0
 40
0.2566712162293502
 50
136.7113830922772877
 51
208.1010952471214068
  0
ARC
  5
29B5
  8
0
 10
117.5741465030069008
 20
6.2964184857114907
 30
0.0
 40
0.5351453020681031
 50
126.5397686442803007
 51
138.2001869547910076
  0
ARC
  5
29B6
  8
0
 10
116.9770083272318999
 20
5.8788865027546349
 30
0.0
 40
0.8920853964281553
 50
71.80719159976951
 51
81.8892666029219072
  0
ARC
  5
29B7
  8
0
 10
116.8400495751559021
 20
4.166812320942574
 30
0.0
 40
2.6085102453589122
 50
84.2173586541813677
 51
90.1010347093249067
  0
ARC
  5
29B8
  8
0
 10
116.6924145734333962
 20
6.748098286940543
 30
0.0
 40
0.0451943334683633
 50
55.130004424384417
 51
95.3221232827873308
  0
LINE
  5
29B9
  8
0
 10
116.6882225705974037
 20
6.7930977857141199
 30
0.0
 11
116.5308148749853956
 21
6.7924656915993751
 31
0.0
  0
ARC
  5
29BA
  8
0
 10
116.6003468799587068
 20
2.8993766071471869
 30
0.0
 40
3.8937099685513781
 50
91.023214935484333
 51
96.6821968959334157
  0
ARC
  5
29BB
  8
0
 10
117.3205710939302975
 20
-3.420395724798007
 30
0.0
 40
10.2543775901417593
 50
96.5701654699199707
 51
97.2610218926751742
  0
ARC
  5
29BC
  8
0
 10
116.0300270491372032
 20
6.594840050885483
 30
0.0
 40
0.1570049466035573
 50
92.0092255322037147
 51
143.944842244463814
  0
ARC
  5
29BD
  8
0
 10
118.1886318245531982
 20
5.9106294219202002
 30
0.0
 40
2.4138782769696729
 50
161.2323946661751108
 51
168.7676430221663111
  0
ARC
  5
29BE
  8
0
 10
121.2918276168664988
 20
5.3116641358658701
 30
0.0
 40
5.5743305824710268
 50
168.9421100520243897
 51
178.6241497868367105
  0
ARC
  5
29BF
  8
0
 10
175.5979069853086969
 20
5.7431540505538852
 30
0.0
 40
59.8795426302803122
 50
180.2848036846050945
 51
182.9027723301516062
  0
ARC
  5
29C0
  8
0
 10
113.6375738069522043
 20
2.5109381565181632
 30
0.0
 40
2.1668563951400341
 50
337.3752602010771966
 51
5.2916708193200641
  0
ARC
  5
29C1
  8
0
 10
114.8810191780167997
 20
1.9927117519077351
 30
0.0
 40
0.8197428152005587
 50
301.9264552252856788
 51
337.3752602010770829
  0
ARC
  5
29C2
  8
0
 10
115.0580441278418959
 20
1.70860176778058
 30
0.0
 40
0.4849946771306258
 50
273.5712422696090016
 51
301.9264552252856788
  0
ARC
  5
29C3
  8
0
 10
115.1181151435771994
 20
7.6677544543650384
 30
0.0
 40
0.4161857294691145
 50
94.1150940289372926
 51
142.9366249604256041
  0
ARC
  5
29C4
  8
0
 10
115.3125801949729947
 20
7.5106926197482604
 30
0.0
 40
0.6660733185181784
 50
142.2375360572432044
 51
172.6414956928944946
  0
ARC
  5
29C5
  8
0
 10
114.9945776301144065
 20
7.5289270373854862
 30
0.0
 40
0.34908957941901
 50
168.9222309013468077
 51
191.8331063299497998
  0
ARC
  5
29C6
  8
0
 10
114.7830611503652989
 20
7.4900848777419897
 30
0.0
 40
0.1342099490124146
 50
194.1207582832992955
 51
224.5576454032278093
  0
ARC
  5
29C7
  8
0
 10
114.1149246569583937
 20
6.7665396885444764
 30
0.0
 40
0.1037615522563678
 50
43.8529490344049293
 51
94.881573933803466
  0
ARC
  5
29C8
  8
0
 10
113.8552281331524938
 20
6.555458338625419
 30
0.0
 40
0.4381500416929211
 50
17.4918971713382909
 51
40.227581278288369
  0
ARC
  5
29C9
  8
0
 10
112.0544515374182026
 20
5.9261429110811541
 30
0.0
 40
2.345552700755225
 50
11.1774611765727006
 51
18.932153840115749
  0
ARC
  5
29CA
  8
0
 10
108.8846756166325065
 20
5.3116641358658701
 30
0.0
 40
5.5743305824710268
 50
1.375850213163295
 51
11.0578899479755393
  0
ARC
  5
29CB
  8
0
 10
54.5785962481903582
 20
5.7431540505538852
 30
0.0
 40
59.8795426302803122
 50
357.0972276698482801
 51
359.7151963153949055
  0
ARC
  5
29CC
  8
0
 10
116.5389295241710954
 20
2.510938183859218
 30
0.0
 40
2.166856495769593
 50
174.708330052776688
 51
202.6247394731983036
  0
ARC
  5
29CD
  8
0
 10
115.2954840554822056
 20
1.9927117519077351
 30
0.0
 40
0.8197428152005587
 50
202.6247397989226897
 51
238.0735447747142928
  0
ARC
  5
29CE
  8
0
 10
115.1184591056571946
 20
1.70860176778058
 30
0.0
 40
0.4849946771306258
 50
238.0735447747142928
 51
266.4287577303909984
  0
ARC
  5
29CF
  8
0
 10
115.4491127687443992
 20
7.6896252251870889
 30
0.0
 40
0.288467903293926
 50
255.838449536059187
 51
279.6483377533240855
  0
ARC
  5
29D0
  8
0
 10
116.876908806870901
 20
14.1892352258070105
 30
0.0
 40
6.942922960462365
 50
256.4775585094046733
 51
257.5367829989151005
  0
ARC
  5
29D1
  8
0
 10
115.0784036981857952
 20
6.6025367458134889
 30
0.0
 40
0.8543731032258804
 50
78.175891972260743
 51
89.3409199591354479
  0
ARC
  5
29D2
  8
0
 10
115.0801321406692068
 20
6.7527887413272474
 30
0.0
 40
0.7041111663646628
 50
89.3409199591354479
 51
105.5874610299918004
  0
ARC
  5
29D3
  8
0
 10
113.4376443243972972
 20
13.2558529858469196
 30
0.0
 40
6.0034083571627992
 50
283.0676386792073913
 51
284.0091561481743838
  0
ARC
  5
29D4
  8
0
 10
114.694368353293001
 20
7.8223795154606117
 30
0.0
 40
0.4265163259928394
 50
269.0679718646701986
 51
283.6499825248949946
  0
ARC
  5
29D5
  8
0
 10
115.5727711056826053
 20
6.6846150125230546
 30
0.0
 40
1.182363008165584
 50
140.5249742944793923
 51
141.9523914536931102
  0
ARC
  5
29D6
  8
0
 10
115.2929343022666018
 20
6.2029876250816471
 30
0.0
 40
1.3744348303323399
 50
118.2843502155431992
 51
148.8516769462960099
  0
ARC
  5
29D7
  8
0
 10
115.6466843653618071
 20
6.8561795330481248
 30
0.0
 40
1.5406507707761541
 50
179.4888133347932069
 51
217.6063948546812981
  0
ARC
  5
29D8
  8
0
 10
114.2392302940881024
 20
6.8587590200306092
 30
0.0
 40
0.1344201159699479
 50
155.7717581598386118
 51
172.4004429058730068
  0
ARC
  5
29D9
  8
0
 10
113.5010635757358983
 20
6.8637075026087428
 30
0.0
 40
0.6050632807482977
 50
0.5887567100196824
 51
1.2148624238254211
  0
ENDSEC
  0
EOF
