  0
SECTION
  2
HEADER
  9
$ACADVER
  1
AC1009
  9
$INSBASE
 10
4242.2502289530320922
 20
75.6513582390762451
 30
0.0
  9
$EXTMIN
 10
4212.3877613171980556
 20
75.6490986972193014
 30
0.0
  9
$EXTMAX
 10
4242.264282443961747
 20
106.130272187028396
 30
0.0
  9
$LIMMIN
 10
0.0
 20
0.0
  9
$LIMMAX
 10
11.6929133858000007
 20
8.2677165353999982
  9
$ORTHOMODE
 70
     0
  9
$REGENMODE
 70
     1
  9
$FILLMODE
 70
     1
  9
$QTEXTMODE
 70
     0
  9
$MIRRTEXT
 70
     0
  9
$DRAGMODE
 70
     2
  9
$LTSCALE
 40
0.6431102362
  9
$OSMODE
 70
  4095
  9
$ATTMODE
 70
     1
  9
$TEXTSIZE
 40
0.2
  9
$TRACEWID
 40
0.05
  9
$TEXTSTYLE
  7
STANDARD
  9
$CLAYER
  8
0
  9
$CELTYPE
  6
BYLAYER
  9
$CECOLOR
 62
   256
  9
$DIMSCALE
 40
1.0
  9
$DIMASZ
 40
0.1875
  9
$DIMEXO
 40
0.0625
  9
$DIMDLI
 40
0.4443307087
  9
$DIMRND
 40
0.0
  9
$DIMDLE
 40
0.0
  9
$DIMEXE
 40
0.125
  9
$DIMTP
 40
0.01
  9
$DIMTM
 40
0.01
  9
$DIMTXT
 40
2.0
  9
$DIMCEN
 40
0.1052362205
  9
$DIMTSZ
 40
0.0
  9
$DIMTOL
 70
     1
  9
$DIMLIM
 70
     0
  9
$DIMTIH
 70
     1
  9
$DIMTOH
 70
     1
  9
$DIMSE1
 70
     0
  9
$DIMSE2
 70
     0
  9
$DIMTAD
 70
     0
  9
$DIMZIN
 70
     0
  9
$DIMBLK
  1

  9
$DIMASO
 70
     1
  9
$DIMSHO
 70
     1
  9
$DIMPOST
  1
\X
  9
$DIMAPOST
  1

  9
$DIMALT
 70
     1
  9
$DIMALTD
 70
     2
  9
$DIMALTF
 40
25.3999999999999986
  9
$DIMLFAC
 40
1.0
  9
$DIMTOFL
 70
     0
  9
$DIMTVP
 40
0.0
  9
$DIMTIX
 70
     0
  9
$DIMSOXD
 70
     0
  9
$DIMSAH
 70
     0
  9
$DIMBLK1
  1

  9
$DIMBLK2
  1

  9
$DIMSTYLE
  2
STANDARD
  9
$DIMCLRD
 70
     0
  9
$DIMCLRE
 70
     0
  9
$DIMCLRT
 70
     0
  9
$DIMTFAC
 40
1.0
  9
$DIMGAP
 40
0.09
  9
$LUNITS
 70
     2
  9
$LUPREC
 70
     4
  9
$SKETCHINC
 40
0.1
  9
$FILLETRAD
 40
0.0
  9
$AUNITS
 70
     0
  9
$AUPREC
 70
     0
  9
$MENU
  1
.
  9
$ELEVATION
 40
0.0
  9
$PELEVATION
 40
0.0
  9
$THICKNESS
 40
0.0
  9
$LIMCHECK
 70
     0
  9
$BLIPMODE
 70
     0
  9
$CHAMFERA
 40
0.0
  9
$CHAMFERB
 40
0.0
  9
$SKPOLY
 70
     0
  9
$TDCREATE
 40
2458060.468368056230247
  9
$TDUPDATE
 40
2459116.6546180560253561
  9
$TDINDWG
 40
0.4958288194
  9
$TDUSRTIMER
 40
0.4958288194
  9
$USRTIMER
 70
     1
  9
$ANGBASE
 50
0.0
  9
$ANGDIR
 70
     0
  9
$PDMODE
 70
     0
  9
$PDSIZE
 40
0.3125
  9
$PLINEWID
 40
0.0
  9
$COORDS
 70
     1
  9
$SPLFRAME
 70
     0
  9
$SPLINETYPE
 70
     6
  9
$SPLINESEGS
 70
     8
  9
$ATTDIA
 70
     1
  9
$ATTREQ
 70
     1
  9
$HANDLING
 70
     1
  9
$HANDSEED
  5
9FF8
  9
$SURFTAB1
 70
     6
  9
$SURFTAB2
 70
     6
  9
$SURFTYPE
 70
     6
  9
$SURFU
 70
     6
  9
$SURFV
 70
     6
  9
$UCSNAME
  2

  9
$UCSORG
 10
0.0
 20
0.0
 30
0.0
  9
$UCSXDIR
 10
1.0
 20
0.0
 30
0.0
  9
$UCSYDIR
 10
0.0
 20
1.0
 30
0.0
  9
$PUCSNAME
  2

  9
$PUCSORG
 10
0.0
 20
0.0
 30
0.0
  9
$PUCSXDIR
 10
1.0
 20
0.0
 30
0.0
  9
$PUCSYDIR
 10
0.0
 20
1.0
 30
0.0
  9
$USERI1
 70
     0
  9
$USERI2
 70
     0
  9
$USERI3
 70
     0
  9
$USERI4
 70
     0
  9
$USERI5
 70
     0
  9
$USERR1
 40
0.0
  9
$USERR2
 40
0.0
  9
$USERR3
 40
0.0
  9
$USERR4
 40
0.0
  9
$USERR5
 40
0.0
  9
$WORLDVIEW
 70
     1
  9
$SHADEDGE
 70
     3
  9
$SHADEDIF
 70
    70
  9
$TILEMODE
 70
     1
  9
$MAXACTVP
 70
    64
  9
$PLIMCHECK
 70
     0
  9
$PEXTMIN
 10
1.0000000000000000E+20
 20
1.0000000000000000E+20
 30
1.0000000000000000E+20
  9
$PEXTMAX
 10
-1.0000000000000000E+20
 20
-1.0000000000000000E+20
 30
-1.0000000000000000E+20
  9
$PLIMMIN
 10
0.0
 20
0.0
  9
$PLIMMAX
 10
12.0
 20
9.0
  9
$UNITMODE
 70
     0
  9
$VISRETAIN
 70
     1
  9
$PLINEGEN
 70
     0
  9
$PSLTSCALE
 70
     1
  0
ENDSEC
  0
SECTION
  2
TABLES
  0
TABLE
  2
VPORT
 70
     1
  0
VPORT
  2
*ACTIVE
 70
     0
 10
0.0
 20
0.0
 11
1.0
 21
1.0
 12
0.0
 22
0.0
 13
0.0
 23
0.0
 14
1.0
 24
1.0
 15
0.0
 25
0.0
 16
0.0
 26
0.0
 36
120.9276923893412032
 17
4227.3262751618958646
 27
90.8876417925515767
 37
0.0
 40
42.6782032061939987
 41
2.1186252771618621
 42
50.0
 43
0.0
 44
0.0
 50
0.0
 51
0.0
 71
     0
 72
   100
 73
     1
 74
     1
 75
     0
 76
     0
 77
     0
 78
     0
  0
ENDTAB
  0
TABLE
  2
LTYPE
 70
     2
  0
LTYPE
  2
CONTINUOUS
 70
     0
  3
Solid line
 72
    65
 73
     0
 40
0.0
  0
LTYPE
  2
PHANTOM2
 70
     0
  3
___ _ _ ___ _ _ ___ _ _ ___ _ _
 72
    65
 73
     6
 40
1.25
 49
0.625
 49
-0.125
 49
0.125
 49
-0.125
 49
0.125
 49
-0.125
  0
ENDTAB
  0
TABLE
  2
LAYER
 70
     2
  0
LAYER
  2
0
 70
     0
 62
   255
  6
CONTINUOUS
  0
LAYER
  2
DEFPOINTS
 70
     0
 62
     7
  6
CONTINUOUS
  0
ENDTAB
  0
TABLE
  2
STYLE
 70
     1
  0
STYLE
  2
STANDARD
 70
     0
 40
0.0
 41
0.8
 50
0.0
 71
     0
 42
0.2
  3
txt
  4

  0
ENDTAB
  0
TABLE
  2
VIEW
 70
     0
  0
ENDTAB
  0
TABLE
  2
UCS
 70
     0
  0
ENDTAB
  0
TABLE
  2
APPID
 70
     9
  0
APPID
  2
ACAD
 70
     0
  0
APPID
  2
ACAD_MLEADERVER
 70
     0
  0
APPID
  2
ACAD_EXEMPT_FROM_CAD_STANDARDS
 70
     0
  0
APPID
  2
ACAD_NAV_VCDISPLAY
 70
     0
  0
APPID
  2
ACAECLAYERSTANDARD
 70
     0
  0
APPID
  2
ACCMTRANSPARENCY
 70
     0
  0
APPID
  2
ACAD_DSTYLE_DIMJAG
 70
     0
  0
APPID
  2
ACAD_DSTYLE_DIMTALN
 70
     0
  0
APPID
  2
ACDBATTR
 70
     0
  0
ENDTAB
  0
TABLE
  2
DIMSTYLE
 70
     1
  0
DIMSTYLE
  2
STANDARD
 70
     0
  3

  4

  5

  6

  7

 40
1.0
 41
0.1875
 42
0.0625
 43
0.38
 44
0.125
 45
0.0
 46
0.0
 47
0.01
 48
0.01
140
0.15625
141
0.09
142
0.0
143
25.3999999999999986
144
1.0
145
0.0
146
1.0
147
0.09
 71
     1
 72
     0
 73
     1
 74
     1
 75
     0
 76
     0
 77
     0
 78
     4
170
     0
171
     2
172
     0
173
     0
174
     0
175
     0
176
     0
177
     0
178
     0
  0
ENDTAB
  0
ENDSEC
  0
SECTION
  2
BLOCKS
  0
BLOCK
  8
0
  2
$MODEL_SPACE
 70
     0
 10
0.0
 20
0.0
 30
0.0
  3
$MODEL_SPACE
  1

  0
ENDBLK
  5
21
  8
0
  0
BLOCK
 67
     1
  8
0
  2
$PAPER_SPACE
 70
     0
 10
0.0
 20
0.0
 30
0.0
  3
$PAPER_SPACE
  1

  0
ENDBLK
  5
1D
 67
     1
  8
0
  0
BLOCK
  8
0
  2
_FILLED
 70
     0
 10
0.0
 20
0.0
 30
0.0
  3
_FILLED
  1

  0
SOLID
  5
69B4
  8
0
  6
BYBLOCK
 62
     0
 10
0.0
 20
0.0
 30
0.0
 11
-1.0
 21
0.1666666667
 31
0.0
 12
-1.0
 22
-0.1666666667
 32
0.0
 13
-1.0
 23
-0.1666666667
 33
0.0
  0
ENDBLK
  5
69B5
  8
0
  6
BYBLOCK
 62
     0
  0
BLOCK
  8
0
  2
A$CDFAF6206
 70
     0
 10
0.0
 20
0.0
 30
0.0
  3
A$CDFAF6206
  1

  0
LINE
  5
6A0E
  8
0
 10
7.4646650085734834
 20
10.9287685970688493
 30
0.0
 11
7.4646650085734896
 21
10.8905784766688498
 31
0.0
  0
ARC
  5
6A0F
  8
0
 10
7.7269027075262349
 20
10.8926811525838598
 30
0.0
 40
0.2622461286616791
 50
180.4593995232625048
 51
217.0214027758331099
  0
LINE
  5
6A10
  8
0
 10
9.767814609867095
 20
10.9287685970688493
 30
0.0
 11
9.767814609867095
 21
10.8905433757650094
 31
0.0
  0
ARC
  5
6A11
  8
0
 10
9.5068669568548287
 20
10.8922438613003703
 30
0.0
 40
0.2609531936261092
 50
322.8847083717149076
 51
359.6266329125650145
  0
LINE
  5
6A12
  8
0
 10
7.517522606271406
 20
10.7347792678688396
 30
0.0
 11
9.7149570120691777
 21
10.7347792678688396
 31
0.0
  0
LINE
  5
6A13
  8
0
 10
7.4646650085734834
 20
10.9287685970688493
 30
0.0
 11
9.7678146123202936
 21
10.9287685970688493
 31
0.0
  0
ARC
  5
6A14
  8
0
 10
4.0826771419203629
 20
8.527951346868889
 30
0.0
 40
4.0826771653999172
 50
13.3117747050523896
 51
32.7200330051415591
  0
ARC
  5
6A15
  8
0
 10
4.0826771460567306
 20
8.5279513475907933
 30
0.0
 40
4.0826771612084691
 50
359.6656501984817851
 51
13.3117747085593798
  0
ARC
  5
6A16
  8
0
 10
13.1498041284835097
 20
8.5279508235212234
 30
0.0
 40
4.0826788382043553
 50
147.2799733478981068
 51
166.6882233021349862
  0
ARC
  5
6A17
  8
0
 10
13.1498064934207992
 20
8.5279506557033251
 30
0.0
 40
4.0826811782395342
 50
166.688228652086309
 51
180.3343397625230011
  0
LINE
  5
6A18
  8
0
 10
8.1652847935202928
 20
8.504127000268852
 30
0.0
 11
9.0671948248202892
 21
8.5041270002687881
 31
0.0
  0
LINE
  5
6A19
  8
0
 10
8.1652847935202786
 20
8.5041270002667204
 30
0.0
 11
8.1652847935202928
 21
8.3607006934688481
 31
0.0
  0
ARC
  5
6A1A
  8
0
 10
5.6196779630382627
 20
8.3631022096452732
 30
0.0
 40
2.545607963272567
 50
342.0511668832173768
 51
359.945947387132378
  0
LINE
  5
6A1B
  8
0
 10
9.0671948248202892
 20
8.5041270002687881
 30
0.0
 11
9.0671948248202892
 21
8.2885990108688503
 31
0.0
  0
ARC
  5
6A1C
  8
0
 10
9.4521885297801163
 20
7.9614488056228501
 30
0.0
 40
0.5052201595850959
 50
139.6436242991769916
 51
174.6757930071850069
  0
ARC
  5
6A1D
  8
0
 10
9.9238413395551746
 20
8.1492417579399508
 30
0.0
 40
0.9848265662939324
 50
188.2263441834095943
 51
209.5593615864376034
  0
ARC
  5
6A1E
  8
0
 10
8.0788764238271256
 20
7.5665710856463297
 30
0.0
 40
0.0393715937169877
 50
162.1669117288323037
 51
227.2023190037006088
  0
ARC
  5
6A1F
  8
0
 10
8.7223682141740682
 20
8.2079667397440517
 30
0.0
 40
0.947895137885075
 50
225.0018610752970858
 51
261.4598823366255829
  0
ARC
  5
6A20
  8
0
 10
8.6645157662702701
 20
8.1695128573935332
 30
0.0
 40
0.9027466462812931
 50
264.7303071214498118
 51
281.8608311947915013
  0
ARC
  5
6A21
  8
0
 10
8.6645157662698935
 20
8.1695128573999671
 30
0.0
 40
0.9027466462876658
 50
299.1741886792128753
 51
299.1743179154552195
  0
ARC
  5
6A22
  8
0
 10
9.0843330931590316
 20
7.4150554710086141
 30
0.0
 40
0.0393703053609601
 50
251.9700352025496954
 51
252.4698971938937859
  0
ARC
  5
6A23
  8
0
 10
9.0843330931590316
 20
7.4150554710086141
 30
0.0
 40
0.0393703053609601
 50
297.2453716727138726
 51
6.8376113572703074
  0
LINE
  5
6A24
  8
0
 10
9.0671948248202892
 20
7.663402160468852
 30
0.0
 11
9.1234233799329516
 21
7.419742732911689
 31
0.0
  0
ARC
  5
6A25
  8
0
 10
8.8843741880892395
 20
9.8961379890094676
 30
0.0
 40
2.5255097382132701
 50
263.792800240752797
 51
274.9514951129821156
  0
ARC
  5
6A26
  8
0
 10
8.8258167405968848
 20
9.2763025889666508
 30
0.0
 40
1.9029970832759311
 50
246.0108363320686067
 51
263.5276935074397215
  0
ARC
  5
6A27
  8
0
 10
8.607491361665744
 20
8.3225444804829642
 30
0.0
 40
1.064510137163637
 50
283.1717405874071005
 51
297.7022170607311864
  0
LINE
  5
6A28
  8
0
 10
9.0671948248202892
 20
8.2885990108688503
 30
0.0
 11
26.2014378595979593
 21
8.2885990108689942
 31
0.0
  0
LINE
  5
6A29
  8
0
 10
26.2014378595979913
 20
7.6634021604689053
 30
0.0
 11
9.0671948248202892
 21
7.6634021604688618
 31
0.0
  0
LINE
  5
6A2A
  8
0
 10
27.8039676758446994
 20
10.9287685970690802
 30
0.0
 11
27.8039676758446888
 21
10.8905784766690807
 31
0.0
  0
ARC
  5
6A2B
  8
0
 10
27.5417299768919399
 20
10.8926811525840801
 30
0.0
 40
0.2622461286616791
 50
322.9785972241680838
 51
359.5406004767386889
  0
LINE
  5
6A2C
  8
0
 10
25.5008180745510913
 20
10.9287685970690305
 30
0.0
 11
25.5008180745510913
 21
10.8905433757651799
 31
0.0
  0
ARC
  5
6A2D
  8
0
 10
25.7617657275633505
 20
10.8922438613005497
 30
0.0
 40
0.2609531936261092
 50
180.3733670874362929
 51
217.1152916282862861
  0
LINE
  5
6A2E
  8
0
 10
27.7511100781467803
 20
10.7347792678690706
 30
0.0
 11
25.5536756723490015
 21
10.7347792678690208
 31
0.0
  0
LINE
  5
6A2F
  8
0
 10
27.8039676758446888
 20
10.9287685970686006
 30
0.0
 11
25.5008180745510806
 21
10.9287685970686006
 31
0.0
  0
ARC
  5
6A30
  8
0
 10
31.1859555424978616
 20
8.5279513468691981
 30
0.0
 40
4.0826771653999172
 50
147.2799669948597057
 51
166.6882252949490066
  0
ARC
  5
6A31
  8
0
 10
31.185955538361501
 20
8.5279513475911024
 30
0.0
 40
4.0826771612084691
 50
166.6882252914419098
 51
180.3343498015194086
  0
ARC
  5
6A32
  8
0
 10
22.1188285559344706
 20
8.5279508235212251
 30
0.0
 40
4.0826788382046102
 50
13.3117766978667795
 51
32.7200266521023977
  0
ARC
  5
6A33
  8
0
 10
22.1188261909974315
 20
8.5279506557034264
 30
0.0
 40
4.0826811782395342
 50
359.665660237478221
 51
13.31177134791497
  0
LINE
  5
6A34
  8
0
 10
27.1033478908979397
 20
8.5041270002690652
 30
0.0
 11
26.2014378595979416
 21
8.5041270002689835
 31
0.0
  0
LINE
  5
6A35
  8
0
 10
27.1033478908979504
 20
8.5041270002669354
 30
0.0
 11
27.1033478908979397
 21
8.3607006934690649
 31
0.0
  0
ARC
  5
6A36
  8
0
 10
29.6489547213799689
 20
8.3631022096455467
 30
0.0
 40
2.545607963272567
 50
180.0540526128687873
 51
197.9488331167837032
  0
LINE
  5
6A37
  8
0
 10
26.2014378595979416
 20
8.5041270002689835
 30
0.0
 11
26.2014378595979487
 21
8.2885990108690457
 31
0.0
  0
ARC
  5
6A38
  8
0
 10
25.8164441546381305
 20
7.9614488056230366
 30
0.0
 40
0.5052201595850959
 50
5.324206992816312
 51
40.3563757008241879
  0
ARC
  5
6A39
  8
0
 10
25.3447913448601803
 20
8.149241757940846
 30
0.0
 40
0.9848265662968968
 50
330.4406384136033807
 51
351.7736558165743759
  0
ARC
  5
6A3A
  8
0
 10
27.1897562605911212
 20
7.5665710856465473
 30
0.0
 40
0.0393715937169877
 50
312.7976809963004143
 51
17.8330882711689185
  0
ARC
  5
6A3B
  8
0
 10
26.5462644702441715
 20
8.2079667397442542
 30
0.0
 40
0.947895137885075
 50
278.5401176633754972
 51
314.9981389247041079
  0
ARC
  5
6A3C
  8
0
 10
26.6041169181479695
 20
8.1695128573937392
 30
0.0
 40
0.9027466462812931
 50
258.139168805210204
 51
275.2696928785518935
  0
ARC
  5
6A3D
  8
0
 10
26.6041169181483497
 20
8.1695128574001732
 30
0.0
 40
0.9027466462876658
 50
240.8256820845460027
 51
240.8258113207880058
  0
ARC
  5
6A3E
  8
0
 10
26.1842995912592293
 20
7.4150554710088086
 30
0.0
 40
0.0393703053609601
 50
287.5301028061073794
 51
288.0299647974517825
  0
ARC
  5
6A3F
  8
0
 10
26.1842995912592293
 20
7.4150554710088086
 30
0.0
 40
0.0393703053609601
 50
173.1623886427310026
 51
242.7546283272870085
  0
LINE
  5
6A40
  8
0
 10
26.2014378595981192
 20
7.6634021604690448
 30
0.0
 11
26.1452093044853093
 21
7.4197427329118826
 31
0.0
  0
ARC
  5
6A41
  8
0
 10
26.384258496328961
 20
9.8961379890096666
 30
0.0
 40
2.5255097382132701
 50
265.0485048870193054
 51
276.2071997592482262
  0
ARC
  5
6A42
  8
0
 10
26.4428159438213299
 20
9.2763025889668516
 30
0.0
 40
1.9029970832759311
 50
276.4723064925619838
 51
293.9891636679327007
  0
ARC
  5
6A43
  8
0
 10
26.6611413227524885
 20
8.3225444804831703
 30
0.0
 40
1.064510137163637
 50
242.2977829392704052
 51
256.8282594125943774
  0
LINE
  5
6A44
  8
0
 62
     4
 10
17.9031473532159602
 20
10.9287685970686006
 30
0.0
 11
24.6329820359843588
 21
20.0952817181593808
 31
0.0
  0
LINE
  5
6A45
  8
0
 62
     4
 10
17.9031473532159602
 20
-0.0000000300842942
 30
0.0
 11
22.3963351323106608
 21
4.993614497796286
 31
0.0
  0
ENDBLK
  5
6A49
  8
0
  0
ENDSEC
  0
SECTION
  2
ENTITIES
  0
ATTDEF
  5
3930
  8
DEFPOINTS
 10
4242.2536157772929073
 20
75.6524320305526601
 30
0.0
 40
0.001
  1
K-5310M
  3

  2
MODELNUMBER
 70
     0
1001
ACDBATTR
1070
     0
1070
     1
  0
ATTDEF
  5
3931
  8
DEFPOINTS
 10
4242.2536157772929073
 20
75.6507653638859949
 30
0.0
 40
0.001
  1
CIMARRON
  3

  2
TRADENAME
 70
     0
1001
ACDBATTR
1070
     0
1070
     1
  0
ATTDEF
  5
3932
  8
DEFPOINTS
 10
4242.2536157772929073
 20
75.6490986972193298
 30
0.0
 40
0.001
  1
TOILET
  3

  2
PRODUCT
 70
     0
1001
ACDBATTR
1070
     0
1070
     1
  0
LINE
  5
9ED3
  8
0
 10
4233.2919148980336104
 20
104.3471703329734055
 30
0.0
 11
4233.2374937800332191
 21
105.9055871779734019
 31
0.0
  0
ARC
  5
9ED4
  8
0
 10
4233.3624176338871621
 20
105.9099496152849014
 30
0.0
 40
0.1250000004848069
 50
92.8278475648138937
 51
182.0000000948764978
  0
ARC
  5
9ED5
  8
0
 10
4237.2709112578677377
 20
25.8280112162845583
 30
0.0
 40
80.3022609707438733
 50
87.4581804740816153
 51
92.7942234335968266
  0
ARC
  5
9ED6
  8
0
 10
4240.8254614812985892
 20
105.9014169760230004
 30
0.0
 40
0.1499987874076037
 50
43.6259472060142386
 51
87.4245563428521848
  0
LINE
  5
9ED7
  8
0
 10
4240.934039526034212
 20
106.0049082530733955
 30
0.0
 11
4241.2086908666333329
 21
105.7174085074732943
 31
0.0
  0
ARC
  5
9ED8
  8
0
 10
4241.0984958820272368
 20
105.6130989878256941
 30
0.0
 40
0.151734671454016
 50
0.2631579489668375
 51
43.4283419952571705
  0
LINE
  5
9ED9
  8
0
 10
4241.2502289530330017
 20
105.6137958985734002
 30
0.0
 11
4241.2502289530330017
 21
104.5438582388732982
 31
0.0
  0
ARC
  5
9EDA
  8
0
 10
4240.937733235144151
 20
104.5438564651580009
 30
0.0
 40
0.3124957178941022
 50
269.9988993303771849
 51
0.0003252089404987
  0
LINE
  5
9EDB
  8
0
 10
4240.9377272320052725
 20
104.2313607473216024
 30
0.0
 11
4233.4118410502333063
 21
104.2313607473216024
 31
0.0
  0
ARC
  5
9EDC
  8
0
 10
4233.4118373907322166
 20
104.3513562736588938
 30
0.0
 40
0.1199955263930945
 50
181.9991195626583931
 51
270.0017473486004747
  0
LINE
  5
9EDD
  8
0
 10
4236.4607125050069953
 20
106.1261848878837952
 30
0.0
 11
4236.4777850003720232
 21
104.2313607473216024
 31
0.0
  0
LINE
  5
9EDE
  8
0
 10
4241.1219133162094295
 20
104.2914055297148934
 30
0.0
 11
4240.9200557819231108
 21
92.7269951372634011
 31
0.0
  0
ARC
  5
9EDF
  8
0
 10
4240.6700938581379887
 20
92.731358238873284
 30
0.0
 40
0.2499999999941092
 50
327.4210296062478278
 51
358.9999999998501039
  0
ARC
  5
9EE0
  8
0
 10
4240.7796383696322664
 20
92.6613582388760904
 30
0.0
 40
0.1200000000027084
 50
269.9999963063241921
 51
327.4210296062494763
  0
LINE
  5
9EE1
  8
0
 10
4240.7796383618961045
 20
92.5413582388733857
 30
0.0
 11
4234.3336867511334276
 21
92.5413586544249682
 31
0.0
  0
ARC
  5
9EE2
  8
0
 10
4240.7740169067774332
 20
92.4213582382526795
 30
0.0
 40
0.1200000006206885
 50
90.0000000688896904
 51
138.1901147395969076
  0
ARC
  5
9EE3
  8
0
 10
4240.63985417782078
 20
92.5413552202147116
 30
0.0
 40
0.0599969813565188
 50
269.9987108867857728
 51
318.1901147395960265
  0
LINE
  5
9EE4
  8
0
 10
4240.6398528279332822
 20
92.4813582388733835
 30
0.0
 11
4234.4734654723743006
 21
92.4813585334056967
 31
0.0
  0
ARC
  5
9EE5
  8
0
 10
4234.4737785013057874
 20
92.5420426447533089
 30
0.0
 40
0.0606849186962052
 50
222.0987691600599021
 51
269.7044518378036742
  0
ARC
  5
9EE6
  8
0
 10
4234.3386817778209661
 20
92.419956383965328
 30
0.0
 40
0.1214034661782283
 50
42.1065695274140097
 51
89.7047882058490558
  0
ARC
  5
9EE7
  8
0
 10
4234.3336861152656638
 20
92.6613571097257704
 30
0.0
 40
0.1199984553024691
 50
212.5782260122522871
 51
270.0003036077761749
  0
ARC
  5
9EE8
  8
0
 10
4234.4461679455989724
 20
92.7324334500019063
 30
0.0
 40
0.2530540586022585
 50
187.798470694370593
 51
212.4258637629114901
  0
ARC
  5
9EE9
  8
0
 10
4282.9998293727294367
 20
98.9277534360580546
 30
0.0
 40
49.2003623126968321
 50
181.4565621708865137
 51
187.2742089480209131
  0
ARC
  5
9EEA
  8
0
 10
4624.1068569186436434
 20
106.1166377755838965
 30
0.0
 40
390.3827280977353098
 50
180.2766998359120123
 51
181.2387486391403968
  0
ARC
  5
9EEB
  8
0
 10
4155.4221065572546649
 20
106.1274114825950932
 30
0.0
 40
81.1277071493333324
 50
354.4241393082310196
 51
358.6608077459998754
  0
ARC
  5
9EEC
  8
0
 10
4198.337101252361208
 20
102.0918666242706934
 30
0.0
 40
38.0239690944181206
 50
345.4531993174230138
 51
354.1931040236271997
  0
ARC
  5
9EED
  8
0
 10
4240.0482289530336857
 20
92.3213582388733869
 30
0.0
 40
0.1599999999999921
 50
359.9999999999972147
 51
90.0
  0
LINE
  5
9EEE
  8
0
 10
4240.2082289530326307
 20
92.3213582388733869
 30
0.0
 11
4240.2082289530326307
 21
92.2313582388733693
 31
0.0
  0
LINE
  5
9EEF
  8
0
 10
4240.2082289530326307
 20
92.2313582388733693
 30
0.0
 11
4239.8027688783331541
 21
92.2313582388733693
 31
0.0
  0
ARC
  5
9EF0
  8
0
 10
4239.8066562788199008
 20
92.2043644084457839
 30
0.0
 40
0.0272723076342162
 50
98.1948640919186033
 51
186.3284539576966097
  0
LINE
  5
9EF1
  8
0
 10
4239.7795501594328016
 20
92.2013582388733681
 30
0.0
 11
4239.7794290108831774
 21
92.1793230525733804
 31
0.0
  0
ARC
  5
9EF2
  8
0
 10
4239.7520169219760646
 20
92.1784429598781827
 30
0.0
 40
0.0274262133993839
 50
279.0510066305333226
 51
1.8389069775581901
  0
ARC
  5
9EF3
  8
0
 10
4239.4346223582815583
 20
92.1787552851721586
 30
0.0
 40
0.0277494497025396
 50
174.6176288139639041
 51
260.859053375326198
  0
LINE
  5
9EF4
  8
0
 10
4239.4069952594327333
 20
92.1813582388733721
 30
0.0
 11
4239.4069952594327333
 21
92.2013582388733681
 31
0.0
  0
ARC
  5
9EF5
  8
0
 10
4239.3793418859477242
 20
92.2039408571429391
 30
0.0
 40
0.0277737102714752
 50
354.6644792077373722
 51
80.8122027426398546
  0
LINE
  5
9EF6
  8
0
 10
4239.3837765405341997
 20
92.2313582388733693
 30
0.0
 11
4236.0586813656336744
 21
92.2313582388733693
 31
0.0
  0
ARC
  5
9EF7
  8
0
 10
4236.0632961470046212
 20
92.2038014467017035
 30
0.0
 40
0.0279405261565972
 50
99.5067872867695939
 51
185.0165307628257096
  0
LINE
  5
9EF8
  8
0
 10
4236.0354626467333219
 20
92.2013582388733681
 30
0.0
 11
4236.0354626467333219
 21
92.1813582388733721
 31
0.0
  0
ARC
  5
9EF9
  8
0
 10
4236.0076291464911264
 20
92.178915031037107
 30
0.0
 40
0.0279405261272771
 50
279.5067870262889187
 51
5.0165307844385429
  0
ARC
  5
9EFA
  8
0
 10
4235.6897176782849783
 20
92.1779829018823875
 30
0.0
 40
0.0268657679572995
 50
174.7822615582267929
 51
262.318139901768518
  0
LINE
  5
9EFB
  8
0
 10
4235.6629632342373952
 20
92.180426098889356
 30
0.0
 11
4235.6629198047512546
 21
92.2011556749816066
 31
0.0
  0
ARC
  5
9EFC
  8
0
 10
4235.6350391541736826
 20
92.2037462748026968
 30
0.0
 40
0.0280007479177239
 50
354.6914628439698163
 51
80.4410385252267446
  0
LINE
  5
9EFD
  8
0
 10
4235.6396890277337661
 20
92.2313582388733693
 30
0.0
 11
4235.2342289530333801
 21
92.2313582388733693
 31
0.0
  0
LINE
  5
9EFE
  8
0
 10
4235.2342289530333801
 20
92.2313582388733693
 30
0.0
 11
4235.2342289530333801
 21
92.3213582388733869
 31
0.0
  0
ARC
  5
9EFF
  8
0
 10
4235.3942289530323251
 20
92.3213582388733869
 30
0.0
 40
0.1600000000000055
 50
90.0
 51
179.9999999999984084
  0
LINE
  5
9F00
  8
0
 10
4240.511454026633146
 20
92.151358238873371
 30
0.0
 11
4213.0264819500325757
 21
92.151358238873371
 31
0.0
  0
ARC
  5
9F01
  8
0
 10
4213.0264819500325757
 20
91.901358155957638
 30
0.0
 40
0.25000008291574
 50
90.0
 51
158.3906014148224131
  0
ARC
  5
9F02
  8
0
 10
4218.4456684315509847
 20
89.7669052522888649
 30
0.0
 40
6.0743855474213762
 50
158.4974407416337954
 51
175.714313266411807
  0
ARC
  5
9F03
  8
0
 10
4212.5783020859198587
 20
90.2069570338288145
 30
0.0
 40
0.1905407687214216
 50
175.8211525932223935
 51
226.2890263315501045
  0
ARC
  5
9F04
  8
0
 10
4211.9574090238802455
 20
89.6007814072276858
 30
0.0
 40
0.6773354264182896
 50
33.5290478599060577
 51
43.7570072635524312
  0
ARC
  5
9F05
  8
0
 10
4212.4375425079269917
 20
89.9193617318684062
 30
0.0
 40
0.1011230541248206
 50
3.173397039924704
 51
33.3227733724809596
  0
LINE
  5
9F06
  8
0
 10
4212.5385104974329806
 20
89.9249596931733635
 30
0.0
 11
4212.5450240752334139
 21
89.7013584678733764
 31
0.0
  0
ARC
  5
9F07
  8
0
 10
4216.2523304162950808
 20
90.169769626416084
 30
0.0
 40
3.7367806090166771
 50
187.2010565169534004
 51
243.37129004779311
  0
ARC
  5
9F08
  8
0
 10
4213.1553792552749655
 20
84.1702403612441543
 30
0.0
 40
3.015498750500921
 50
350.3323354770126912
 51
61.8619998819828467
  0
LINE
  5
9F09
  8
0
 10
4216.1280531013344444
 20
83.663838426773367
 30
0.0
 11
4214.72571516183325
 21
75.7335136112733665
 31
0.0
  0
ARC
  5
9F0A
  8
0
 10
4214.7946517018708619
 20
75.7213582367982667
 30
0.0
 40
0.0699999977220517
 50
170.0000114341239055
 51
270.0000472785494026
  0
LINE
  5
9F0B
  8
0
 10
4214.7946517596337799
 20
75.6513582390762451
 30
0.0
 11
4240.9181059398242724
 21
75.6513582390762451
 31
0.0
  0
ARC
  5
9F0C
  8
0
 10
4240.9180704924683596
 20
75.7213922293274209
 30
0.0
 40
0.0700339992219286
 50
270.0289999716922011
 51
2.4709438175769178
  0
LINE
  5
9F0D
  8
0
 10
4240.988039375032713
 20
75.7244115868148668
 30
0.0
 11
4240.6744177261243749
 21
82.9075298503325371
 31
0.0
  0
ARC
  5
9F0E
  8
0
 10
4211.9182512019206115
 20
34.3028670378808371
 30
0.0
 40
52.5937537054745334
 50
80.8306599270483588
 51
87.1017942881345846
  0
ARC
  5
9F0F
  8
0
 10
4224.0959978792734546
 20
109.7463206793556054
 30
0.0
 40
23.8262188899873806
 50
260.830659927048373
 51
269.9753123803762946
  0
ARC
  5
9F10
  8
0
 10
4224.23765037371777
 20
93.4885230450140341
 30
0.0
 40
7.5699436013593511
 50
268.8500723990117081
 51
299.8927632104804957
  0
ARC
  5
9F11
  8
0
 10
4237.2286400507546205
 20
70.3727694322824533
 30
0.0
 40
18.946662840750399
 50
111.6454734361723951
 51
119.113366996009205
  0
ARC
  5
9F12
  8
0
 10
4229.9509501089805781
 20
88.3642558266756168
 30
0.0
 40
0.4780876129742856
 50
307.1891295743815249
 51
332.7045875382125928
  0
ARC
  5
9F13
  8
0
 10
4221.7966331309626185
 20
91.9302909057584543
 30
0.0
 40
9.3771261438944364
 50
336.1921157341545836
 51
346.2494313382121049
  0
ARC
  5
9F14
  8
0
 10
5423.0947257206189533
 20
41.1972234850067167
 30
0.0
 40
1193.1760041571590136
 50
177.6154224569017117
 51
177.670209588131911
  0
LINE
  5
9F15
  8
0
 10
4212.4415327785600311
 20
90.0742922641674539
 30
0.0
 11
4224.8966892968337561
 21
90.0742922641674539
 31
0.0
  0
ARC
  5
9F16
  8
0
 10
4221.9460132097374299
 20
142.3379500213304141
 30
0.0
 40
52.3468854042800089
 50
273.2313468222362189
 51
275.6211321543328836
  0
ARC
  5
9F17
  8
0
 10
4225.105255935041896
 20
94.9764079354229267
 30
0.0
 40
5.1264755307403513
 50
292.576418923707422
 51
300.1080354739191876
  0
ARC
  5
9F18
  8
0
 10
4228.6978818372936075
 20
88.805557135838967
 30
0.0
 40
2.0140253523044951
 50
96.9798430140580336
 51
120.461254407332305
  0
ARC
  5
9F19
  8
0
 10
4229.4717518742472748
 20
77.0894468311778382
 30
0.0
 40
13.7529833667891008
 50
90.7153706180749566
 51
94.2475012936409655
  0
LINE
  5
9F1A
  8
0
 10
4229.3000424625333835
 20
90.8413582388733545
 30
0.0
 11
4235.4522171732669449
 21
90.8413582388733545
 31
0.0
  0
ARC
  5
9F1B
  8
0
 10
4235.5017702745089991
 20
92.4163986174598904
 30
0.0
 40
1.5758196885024851
 50
268.1979892812286721
 51
308.9912034533916767
  0
ARC
  5
9F1C
  8
0
 10
4237.8670258146967171
 20
89.7600900721775758
 30
0.0
 40
1.984040658909308
 50
105.3388083800517023
 51
133.8203253598586002
  0
ARC
  5
9F1D
  8
0
 10
4237.7097514968018004
 20
89.9119486094154183
 30
0.0
 40
1.7994462333068819
 50
89.6345463479770359
 51
101.7862409216232038
  0
LINE
  5
9F1E
  8
0
 10
4237.721228951932062
 20
91.7113582388733732
 30
0.0
 11
4240.6438848573334326
 21
91.7113582388733732
 31
0.0
  0
ARC
  5
9F1F
  8
0
 10
4240.643405798546155
 20
91.8417602161336646
 30
0.0
 40
0.130402861278034
 50
270.2109719956677054
 51
9.7897454327261961
  0
LINE
  5
9F20
  8
0
 10
4240.771909778492045
 20
91.8639330230733719
 30
0.0
 11
4240.7579525616147293
 21
91.9448230034226839
 31
0.0
  0
ARC
  5
9F21
  8
0
 10
4240.5106840469989038
 20
91.9000744114242707
 30
0.0
 40
0.2512850071255891
 50
10.2578890744695599
 51
89.8244357955803707
  0
ARC
  5
9F22
  8
0
 10
4239.7720091191331448
 20
91.5213582388733755
 30
0.0
 40
0.1900000000000008
 50
90.0
 51
164.999999990475402
  0
LINE
  5
9F23
  8
0
 10
4239.5884832121473664
 20
91.5705338574733645
 30
0.0
 11
4239.1541771388692723
 21
89.9496815270441914
 31
0.0
  0
LINE
  5
9F24
  8
0
 10
4239.1541771388692723
 20
89.9496815270441914
 30
0.0
 11
4239.1412289530326234
 21
89.8513302897733723
 31
0.0
  0
LINE
  5
9F25
  8
0
 10
4239.1412289530326234
 20
89.8513302897733723
 30
0.0
 11
4239.1412289530326234
 21
89.7013582388733681
 31
0.0
  0
ARC
  5
9F26
  8
0
 10
4236.808941270660398
 20
89.5478104087310243
 30
0.0
 40
2.3373366829559679
 50
322.7384675059141159
 51
3.76667294422717
  0
ARC
  5
9F27
  8
0
 10
4237.7230526695511799
 20
89.0065964335500013
 30
0.0
 40
1.287992156752374
 50
276.5411159428203973
 51
317.2714238083137275
  0
ARC
  5
9F28
  8
0
 10
4237.9015078674583492
 20
87.5345252812704331
 30
0.0
 40
0.1950616984683863
 50
99.3623129639038467
 51
212.7783089155796006
  0
ARC
  5
9F29
  8
0
 10
4234.3443213856935472
 20
84.3327835278850841
 30
0.0
 40
4.593448035889466
 50
33.5254162337939121
 51
42.3791316076307183
  0
ARC
  5
9F2A
  8
0
 10
4233.9472257217166771
 20
84.1082111659530653
 30
0.0
 40
5.0486181627385616
 50
1.9833945559951971
 51
33.1610496915861006
  0
ARC
  5
9F2B
  8
0
 10
4230.6161920601061865
 20
83.6864490480000569
 30
0.0
 40
8.3978383120109292
 50
359.8493538135559788
 51
4.0731189846403071
  0
ARC
  5
9F2C
  8
0
 10
4239.1971529173506497
 20
83.6638873162462886
 30
0.0
 40
0.1831522057133665
 50
179.8493538135564052
 51
271.2339996243890141
  0
LINE
  5
9F2D
  8
0
 10
4239.2010972267325997
 20
83.4807775871733639
 30
0.0
 11
4240.0614996799176879
 21
83.4804815212534237
 31
0.0
  0
ARC
  5
9F2E
  8
0
 10
4240.0634885377094179
 20
82.8995753788321821
 30
0.0
 40
0.5809095470536266
 50
78.8411383751867305
 51
90.1961637241118268
  0
ARC
  5
9F2F
  8
0
 10
4240.0549553143982848
 20
82.8601165453863047
 30
0.0
 40
0.6212742558868297
 50
4.3768531315106953
 51
78.773314773161033
  0
LINE
  5
9F30
  8
0
 10
4240.0614996799167784
 20
83.4804815212534237
 30
0.0
 11
4237.8394668615328555
 21
83.4105690422733801
 31
0.0
  0
ARC
  5
9F31
  8
0
 10
4237.8263302292443768
 20
83.5567979730924435
 30
0.0
 40
0.1468178167539793
 50
179.3369435691139984
 51
275.1334473243488219
  0
ARC
  5
9F32
  8
0
 10
4229.1060745988515919
 20
83.2759199719547212
 30
0.0
 40
8.5781031869228617
 50
1.887759988027117
 51
6.1546638600867194
  0
ARC
  5
9F33
  8
0
 10
4231.9791798721653322
 20
83.6175038328652818
 30
0.0
 40
5.6850237793245038
 50
5.8363703563947702
 51
35.5930144577148866
  0
ARC
  5
9F34
  8
0
 10
4233.1030979556971943
 20
84.3463897769988051
 30
0.0
 40
4.3472905317294401
 50
36.4027685325301675
 51
48.9118296517316367
  0
ARC
  5
9F35
  8
0
 10
4234.8156413427786902
 20
84.9870198097186744
 30
0.0
 40
2.873697119099031
 50
66.528319070768319
 51
91.8841249344250173
  0
ARC
  5
9F36
  8
0
 10
4234.7914458975183152
 20
88.4250957935954318
 30
0.0
 40
0.5702804603439415
 50
250.5191335998505053
 51
262.9203296209183236
  0
ARC
  5
9F37
  8
0
 10
4234.8255167200277356
 20
88.4618896786415405
 30
0.0
 40
0.6166499169988944
 50
178.8062052570851961
 51
248.6744695443582884
  0
ARC
  5
9F38
  8
0
 10
4212.488493543621189
 20
88.3873855232350962
 30
0.0
 40
21.7206827523272814
 50
0.2304203498342801
 51
0.5932560895678427
  0
LINE
  5
9F39
  8
0
 10
4230.3758045561344261
 20
88.1450151723733768
 30
0.0
 11
4230.531562928733365
 21
88.0702504522733705
 31
0.0
  0
ARC
  5
9F3A
  8
0
 10
4239.3036928461024218
 20
64.4037878698999009
 30
0.0
 40
25.2398834080128296
 50
95.1812947428402509
 51
110.3375556210701944
  0
ARC
  5
9F3B
  8
0
 10
4236.0855036821076283
 20
107.7501901417299024
 30
0.0
 40
18.2338366243469601
 50
272.9513999855371935
 51
275.7909225512506737
  0
ARC
  5
9F3C
  8
0
 10
4237.9981255507918831
 20
88.462361934818361
 30
0.0
 40
1.1493553794612961
 50
63.0379178752028579
 51
93.6341297778152324
  0
ARC
  5
9F3D
  8
0
 10
4238.2854130916803115
 20
88.9537989558245101
 30
0.0
 40
0.5820279991764111
 50
28.7346767732850488
 51
66.312236274361851
  0
ARC
  5
9F3E
  8
0
 10
4238.5671409329715971
 20
89.1282248301254327
 30
0.0
 40
0.2517467391355966
 50
348.6243837201313909
 51
24.7475824091232788
  0
ARC
  5
9F3F
  8
0
 10
4235.9403073960093025
 20
89.6642205417280422
 30
0.0
 40
2.9327057461829158
 50
340.4973757363162008
 51
348.4808041809059773
  0
ARC
  5
9F40
  8
0
 10
4237.6399260285088531
 20
89.1198240532336143
 30
0.0
 40
1.1501343130489501
 50
274.0785533304339197
 51
337.7935556009712172
  0
ARC
  5
9F41
  8
0
 10
4240.4675383902040267
 20
54.8945392365369429
 30
0.0
 40
33.191832449335962
 50
94.7452434712464964
 51
94.9767854613103424
  0
ARC
  5
9F42
  8
0
 10
4237.6323517085884305
 20
87.7151492897839375
 30
0.0
 40
0.2500379643715549
 50
100.1992594572283934
 51
155.0206014411197941
  0
ARC
  5
9F43
  8
0
 10
4238.6496796944829839
 20
88.582835217846764
 30
0.0
 40
1.4588595258347259
 50
211.4928513355023938
 51
215.833849616138906
  0
ARC
  5
9F44
  8
0
 10
4238.1016912656396016
 20
88.0295072226824971
 30
0.0
 40
0.7023779161674961
 50
205.3519144161537895
 51
238.7680020515753085
  0
LINE
  5
9F45
  8
0
 10
4237.4057023738332646
 20
87.8207384117722683
 30
0.0
 11
4235.9602219800435705
 21
87.6229394050421604
 31
0.0
  0
ARC
  5
9F46
  8
0
 10
4233.1158741484541679
 20
88.4008304530591289
 30
0.0
 40
1.112419583673468
 50
10.9576730655682706
 51
37.5989552996994689
  0
ARC
  5
9F47
  8
0
 10
4244.189671670403186
 20
89.0180758277860633
 30
0.0
 40
5.0707227778609241
 50
177.7404408757219016
 51
196.3881232120149889
  0
ARC
  5
9F48
  8
0
 10
4264.2692159362977691
 20
95.496385817092829
 30
0.0
 40
26.1680689060993892
 50
197.5920540650000987
 51
202.3921465903320893
  0
ARC
  5
9F49
  8
0
 10
4232.3495670986912955
 20
82.3796836447047696
 30
0.0
 40
8.3415681771157111
 50
3.6280329161006879
 51
22.1729829927271105
  0
ARC
  5
9F4A
  8
0
 10
4223.9561515430195868
 20
88.2233595809156554
 30
0.0
 40
13.1816429458141293
 50
7.151588421307447
 51
13.9423959603707708
  0
ARC
  5
9F4B
  8
0
 10
4234.8289434828866433
 20
89.9380337030024748
 30
0.0
 40
2.207529230954814
 50
353.8453278120595087
 51
358.0886867509736931
  0
ARC
  5
9F4C
  8
0
 10
4246.9508478696898237
 20
89.6573963630495854
 30
0.0
 40
9.9271964899749054
 50
179.7462688814177056
 51
180.6744687485362988
  0
LINE
  5
9F4D
  8
0
 10
4237.0352445546332092
 20
89.8644070343733574
 30
0.0
 11
4239.1412289530326234
 21
89.8513302897733723
 31
0.0
  0
CIRCLE
  5
9F4E
  8
0
 10
4230.2412296740476449
 20
80.0946739635773355
 30
0.0
 40
0.7469484357010021
  0
ARC
  5
9F4F
  8
0
 10
4213.8955009480459921
 20
89.9915772316003739
 30
0.0
 40
2.4222450516385612
 50
63.0806023818700226
 51
81.0542659521972979
  0
LINE
  5
9F50
  8
0
 10
4232.4030320945330459
 20
92.151358238873371
 30
0.0
 11
4232.4099030451334329
 21
92.2862201222733773
 31
0.0
  0
ARC
  5
9F51
  8
0
 10
4232.603134456105181
 20
92.2654853748962722
 30
0.0
 40
0.1943407006658119
 50
126.6046428196229954
 51
173.8752970282729109
  0
ARC
  5
9F52
  8
0
 10
4232.0206488624644408
 20
93.0672605065429934
 30
0.0
 40
0.7966989891240923
 50
305.8502916933771871
 51
309.5600652984747967
  0
ARC
  5
9F53
  8
0
 10
4232.4861406741247265
 20
92.5098882374312979
 30
0.0
 40
0.0706304367991095
 50
306.4018319164501918
 51
68.6880078640537448
  0
ARC
  5
9F54
  8
0
 10
4230.0743855345563134
 20
82.8786797665767949
 30
0.0
 40
9.99865110314615
 50
75.8905228027714003
 51
84.1465984949126664
  0
ARC
  5
9F55
  8
0
 10
4231.1062469837479512
 20
92.6948743924946115
 30
0.0
 40
0.130890829316579
 50
95.332274254709418
 51
163.4262853042343124
  0
ARC
  5
9F56
  8
0
 10
4230.9926129828154444
 20
92.7283244306757553
 30
0.0
 40
0.0124413666131328
 50
161.7974476133798021
 51
198.237764350336505
  0
LINE
  5
9F57
  8
0
 10
4230.9807965960426372
 20
92.7244307682779549
 30
0.0
 11
4231.0482648480756325
 21
92.1749442791355165
 31
0.0
  0
ARC
  5
9F58
  8
0
 10
4231.1092289530333801
 20
92.2419398574733549
 30
0.0
 40
0.0905816184999753
 50
227.6986810865984125
 51
270.0
  0
LINE
  5
9F59
  8
0
 10
4231.0356557793329557
 20
92.151358238873371
 30
0.0
 11
4230.9618637207122447
 21
92.7523463282692546
 31
0.0
  0
ARC
  5
9F5A
  8
0
 10
4230.1004713930724392
 20
89.2614943875101829
 30
0.0
 40
3.4201026711370042
 50
114.0639838526738998
 51
122.3319141918524053
  0
LINE
  5
9F5B
  8
0
 10
4213.0325711482782935
 20
92.3843582390762492
 30
0.0
 11
4229.8573103700973661
 21
92.3843582390762492
 31
0.0
  0
ARC
  5
9F5C
  8
0
 10
4229.8573103719445498
 20
92.8805150886302329
 30
0.0
 40
0.496156849553997
 50
269.9999997866607941
 51
288.7916109533770737
  0
LINE
  5
9F5D
  8
0
 10
4230.0171359324476725
 20
92.4108051679672258
 30
0.0
 11
4230.9221910249061693
 21
92.7090206121182234
 31
0.0
  0
ARC
  5
9F5E
  8
0
 10
4230.9034415771002386
 20
92.7660158913483031
 30
0.0
 40
0.0600000303958327
 50
288.2093922080832726
 51
6.9999908758739569
  0
LINE
  5
9F5F
  8
0
 10
4230.9629943775325955
 20
92.7733280461733756
 30
0.0
 11
4230.8914112971597206
 21
93.3563254509379874
 31
0.0
  0
ARC
  5
9F60
  8
0
 10
4229.7718627220383496
 20
93.2317728714435958
 30
0.0
 40
1.126455661407497
 50
6.3481938987013367
 51
28.5233286232972603
  0
ARC
  5
9F61
  8
0
 10
4230.5082861081464216
 20
93.6479901832201733
 30
0.0
 40
0.2810177928672999
 50
25.6588215607693186
 51
86.364706747617916
  0
ARC
  5
9F62
  8
0
 10
4214.9152073066088633
 20
367.9237694211789176
 30
0.0
 40
274.4396823673300219
 50
269.6848598744658716
 51
273.2609043503218231
  0
ARC
  5
9F63
  8
0
 10
4213.403069147714632
 20
93.2367591815336425
 30
0.0
 40
0.2514932194160709
 50
89.3931545565604608
 51
161.6492810174387955
  0
ARC
  5
9F64
  8
0
 10
4216.463002095389129
 20
92.1324538034590432
 30
0.0
 40
3.5045170617681061
 50
160.2630488205400923
 51
174.8506107592432954
  0
ARC
  5
9F65
  8
0
 10
4213.0326567964693822
 20
92.4444402548706137
 30
0.0
 40
0.0600820768410069
 50
177.5637419118112064
 51
269.9183237017217039
  0
LINE
  5
9F66
  8
0
 10
4229.8971960260678316
 20
92.3859640255112851
 30
0.0
 11
4229.8890034114328955
 21
92.151358238873371
 31
0.0
  0
LINE
  5
9F67
  8
0
 10
4225.563699164233185
 20
92.3843582388733751
 30
0.0
 11
4225.5704979384308899
 21
92.3066478943002693
 31
0.0
  0
ARC
  5
9F68
  8
0
 10
4225.6302696203729283
 20
92.3118772388768463
 30
0.0
 40
0.0600000000570977
 50
185.0000000064491985
 51
270.0024230008543213
  0
LINE
  5
9F69
  8
0
 10
4225.6302721577330885
 20
92.2518772388733765
 30
0.0
 11
4226.2187433232065814
 21
92.2519021249320588
 31
0.0
  0
ARC
  5
9F6A
  8
0
 10
4226.2187407934488874
 20
92.3117223308714046
 30
0.0
 40
0.0598202059928589
 50
270.0024230008543213
 51
353.814943455113621
  0
ARC
  5
9F6B
  8
0
 10
4226.4092875219112102
 20
92.2910726139693338
 30
0.0
 40
0.1318421704280621
 50
134.9636464974726948
 51
173.8149434551127968
  0
ARC
  5
9F6C
  8
0
 10
4215.9473936578433495
 20
92.1944748938534957
 30
0.0
 40
0.2063224492510508
 50
28.0412053490905286
 51
66.9733834201379636
  0
ARC
  5
9F6D
  8
0
 10
4216.2336411064961794
 20
92.3268773052928537
 30
0.0
 40
0.1100001029072916
 50
198.7777953566805991
 51
270.046667549786207
  0
LINE
  5
9F6E
  8
0
 10
4216.2337307018333377
 20
92.2168772388733657
 30
0.0
 11
4217.1359859091326143
 21
92.2168772388733657
 31
0.0
  0
ARC
  5
9F6F
  8
0
 10
4217.1401712977585703
 20
92.327203394965693
 30
0.0
 40
0.1104055170544272
 50
267.8274402839426784
 51
319.3816795360680771
  0
ARC
  5
9F70
  8
0
 10
4217.7207790078819016
 20
91.8292402779890011
 30
0.0
 40
0.6544948548390712
 50
121.9876334835879987
 51
139.3816795360681056
  0
ARC
  5
9F71
  8
0
 10
4231.0131083069745728
 20
92.5439510838618702
 30
0.0
 40
0.0283521965997067
 50
117.8171196596365036
 51
160.9210043416908036
  0
ARC
  5
9F72
  8
0
 10
4231.0135597457920085
 20
92.6042590389723443
 30
0.0
 40
0.0347875275827462
 50
204.0230140181865011
 51
246.0828877811185862
  0
ENDSEC
  0
EOF
