  0
SECTION
  2
HEADER
  9
$ACADVER
  1
AC1009
  9
$INSBASE
 10
4237.7756815791890403
 20
116.9456181360485942
 30
0.0
  9
$EXTMIN
 10
4228.9739234144781221
 20
87.0831181360485971
 30
0.0
  9
$EXTMAX
 10
4246.5767204836383826
 20
116.9510710890563985
 30
0.0
  9
$LIMMIN
 10
0.0
 20
0.0
  9
$LIMMAX
 10
11.6929133858000007
 20
8.2677165353999982
  9
$ORTHOMODE
 70
     0
  9
$REGENMODE
 70
     1
  9
$FILLMODE
 70
     1
  9
$QTEXTMODE
 70
     0
  9
$MIRRTEXT
 70
     0
  9
$DRAGMODE
 70
     2
  9
$LTSCALE
 40
0.6431102362
  9
$OSMODE
 70
  4095
  9
$ATTMODE
 70
     1
  9
$TEXTSIZE
 40
0.2
  9
$TRACEWID
 40
0.05
  9
$TEXTSTYLE
  7
STANDARD
  9
$CLAYER
  8
0
  9
$CELTYPE
  6
BYLAYER
  9
$CECOLOR
 62
   256
  9
$DIMSCALE
 40
1.0
  9
$DIMASZ
 40
0.1875
  9
$DIMEXO
 40
0.0625
  9
$DIMDLI
 40
0.4443307087
  9
$DIMRND
 40
0.0
  9
$DIMDLE
 40
0.0
  9
$DIMEXE
 40
0.125
  9
$DIMTP
 40
0.01
  9
$DIMTM
 40
0.01
  9
$DIMTXT
 40
2.0
  9
$DIMCEN
 40
0.1052362205
  9
$DIMTSZ
 40
0.0
  9
$DIMTOL
 70
     1
  9
$DIMLIM
 70
     0
  9
$DIMTIH
 70
     1
  9
$DIMTOH
 70
     1
  9
$DIMSE1
 70
     0
  9
$DIMSE2
 70
     0
  9
$DIMTAD
 70
     0
  9
$DIMZIN
 70
     0
  9
$DIMBLK
  1

  9
$DIMASO
 70
     1
  9
$DIMSHO
 70
     1
  9
$DIMPOST
  1
\X
  9
$DIMAPOST
  1

  9
$DIMALT
 70
     1
  9
$DIMALTD
 70
     2
  9
$DIMALTF
 40
25.3999999999999986
  9
$DIMLFAC
 40
1.0
  9
$DIMTOFL
 70
     0
  9
$DIMTVP
 40
0.0
  9
$DIMTIX
 70
     0
  9
$DIMSOXD
 70
     0
  9
$DIMSAH
 70
     0
  9
$DIMBLK1
  1

  9
$DIMBLK2
  1

  9
$DIMSTYLE
  2
STANDARD
  9
$DIMCLRD
 70
     0
  9
$DIMCLRE
 70
     0
  9
$DIMCLRT
 70
     0
  9
$DIMTFAC
 40
1.0
  9
$DIMGAP
 40
0.09
  9
$LUNITS
 70
     2
  9
$LUPREC
 70
     4
  9
$SKETCHINC
 40
0.1
  9
$FILLETRAD
 40
0.0
  9
$AUNITS
 70
     0
  9
$AUPREC
 70
     0
  9
$MENU
  1
.
  9
$ELEVATION
 40
0.0
  9
$PELEVATION
 40
0.0
  9
$THICKNESS
 40
0.0
  9
$LIMCHECK
 70
     0
  9
$BLIPMODE
 70
     0
  9
$CHAMFERA
 40
0.0
  9
$CHAMFERB
 40
0.0
  9
$SKPOLY
 70
     0
  9
$TDCREATE
 40
2458060.468368056230247
  9
$TDUPDATE
 40
2459116.6547569441609085
  9
$TDINDWG
 40
0.4960487269
  9
$TDUSRTIMER
 40
0.4960487269
  9
$USRTIMER
 70
     1
  9
$ANGBASE
 50
0.0
  9
$ANGDIR
 70
     0
  9
$PDMODE
 70
     0
  9
$PDSIZE
 40
0.3125
  9
$PLINEWID
 40
0.0
  9
$COORDS
 70
     1
  9
$SPLFRAME
 70
     0
  9
$SPLINETYPE
 70
     6
  9
$SPLINESEGS
 70
     8
  9
$ATTDIA
 70
     1
  9
$ATTREQ
 70
     1
  9
$HANDLING
 70
     1
  9
$HANDSEED
  5
A204
  9
$SURFTAB1
 70
     6
  9
$SURFTAB2
 70
     6
  9
$SURFTYPE
 70
     6
  9
$SURFU
 70
     6
  9
$SURFV
 70
     6
  9
$UCSNAME
  2

  9
$UCSORG
 10
0.0
 20
0.0
 30
0.0
  9
$UCSXDIR
 10
1.0
 20
0.0
 30
0.0
  9
$UCSYDIR
 10
0.0
 20
1.0
 30
0.0
  9
$PUCSNAME
  2

  9
$PUCSORG
 10
0.0
 20
0.0
 30
0.0
  9
$PUCSXDIR
 10
1.0
 20
0.0
 30
0.0
  9
$PUCSYDIR
 10
0.0
 20
1.0
 30
0.0
  9
$USERI1
 70
     0
  9
$USERI2
 70
     0
  9
$USERI3
 70
     0
  9
$USERI4
 70
     0
  9
$USERI5
 70
     0
  9
$USERR1
 40
0.0
  9
$USERR2
 40
0.0
  9
$USERR3
 40
0.0
  9
$USERR4
 40
0.0
  9
$USERR5
 40
0.0
  9
$WORLDVIEW
 70
     1
  9
$SHADEDGE
 70
     3
  9
$SHADEDIF
 70
    70
  9
$TILEMODE
 70
     1
  9
$MAXACTVP
 70
    64
  9
$PLIMCHECK
 70
     0
  9
$PEXTMIN
 10
1.0000000000000000E+20
 20
1.0000000000000000E+20
 30
1.0000000000000000E+20
  9
$PEXTMAX
 10
-1.0000000000000000E+20
 20
-1.0000000000000000E+20
 30
-1.0000000000000000E+20
  9
$PLIMMIN
 10
0.0
 20
0.0
  9
$PLIMMAX
 10
12.0
 20
9.0
  9
$UNITMODE
 70
     0
  9
$VISRETAIN
 70
     1
  9
$PLINEGEN
 70
     0
  9
$PSLTSCALE
 70
     1
  0
ENDSEC
  0
SECTION
  2
TABLES
  0
TABLE
  2
VPORT
 70
     1
  0
VPORT
  2
*ACTIVE
 70
     0
 10
0.0
 20
0.0
 11
1.0
 21
1.0
 12
0.0
 22
0.0
 13
0.0
 23
0.0
 14
1.0
 24
1.0
 15
0.0
 25
0.0
 16
0.0
 26
0.0
 36
98.2343544703770135
 17
4237.7753219490577976
 27
102.0170946125523983
 37
0.0
 40
34.6691949468273819
 41
2.1186252771618621
 42
50.0
 43
0.0
 44
0.0
 50
0.0
 51
0.0
 71
     0
 72
   100
 73
     1
 74
     1
 75
     0
 76
     0
 77
     0
 78
     0
  0
ENDTAB
  0
TABLE
  2
LTYPE
 70
     2
  0
LTYPE
  2
CONTINUOUS
 70
     0
  3
Solid line
 72
    65
 73
     0
 40
0.0
  0
LTYPE
  2
PHANTOM2
 70
     0
  3
___ _ _ ___ _ _ ___ _ _ ___ _ _
 72
    65
 73
     6
 40
1.25
 49
0.625
 49
-0.125
 49
0.125
 49
-0.125
 49
0.125
 49
-0.125
  0
ENDTAB
  0
TABLE
  2
LAYER
 70
     2
  0
LAYER
  2
0
 70
     0
 62
   255
  6
CONTINUOUS
  0
LAYER
  2
DEFPOINTS
 70
     0
 62
     7
  6
CONTINUOUS
  0
ENDTAB
  0
TABLE
  2
STYLE
 70
     1
  0
STYLE
  2
STANDARD
 70
     0
 40
0.0
 41
0.8
 50
0.0
 71
     0
 42
0.2
  3
txt
  4

  0
ENDTAB
  0
TABLE
  2
VIEW
 70
     0
  0
ENDTAB
  0
TABLE
  2
UCS
 70
     0
  0
ENDTAB
  0
TABLE
  2
APPID
 70
     9
  0
APPID
  2
ACAD
 70
     0
  0
APPID
  2
ACAD_MLEADERVER
 70
     0
  0
APPID
  2
ACAD_EXEMPT_FROM_CAD_STANDARDS
 70
     0
  0
APPID
  2
ACAD_NAV_VCDISPLAY
 70
     0
  0
APPID
  2
ACAECLAYERSTANDARD
 70
     0
  0
APPID
  2
ACCMTRANSPARENCY
 70
     0
  0
APPID
  2
ACAD_DSTYLE_DIMJAG
 70
     0
  0
APPID
  2
ACAD_DSTYLE_DIMTALN
 70
     0
  0
APPID
  2
ACDBATTR
 70
     0
  0
ENDTAB
  0
TABLE
  2
DIMSTYLE
 70
     1
  0
DIMSTYLE
  2
STANDARD
 70
     0
  3

  4

  5

  6

  7

 40
1.0
 41
0.1875
 42
0.0625
 43
0.38
 44
0.125
 45
0.0
 46
0.0
 47
0.01
 48
0.01
140
0.15625
141
0.09
142
0.0
143
25.3999999999999986
144
1.0
145
0.0
146
1.0
147
0.09
 71
     1
 72
     0
 73
     1
 74
     1
 75
     0
 76
     0
 77
     0
 78
     4
170
     0
171
     2
172
     0
173
     0
174
     0
175
     0
176
     0
177
     0
178
     0
  0
ENDTAB
  0
ENDSEC
  0
SECTION
  2
BLOCKS
  0
BLOCK
  8
0
  2
$MODEL_SPACE
 70
     0
 10
0.0
 20
0.0
 30
0.0
  3
$MODEL_SPACE
  1

  0
ENDBLK
  5
21
  8
0
  0
BLOCK
 67
     1
  8
0
  2
$PAPER_SPACE
 70
     0
 10
0.0
 20
0.0
 30
0.0
  3
$PAPER_SPACE
  1

  0
ENDBLK
  5
1D
 67
     1
  8
0
  0
BLOCK
  8
0
  2
_FILLED
 70
     0
 10
0.0
 20
0.0
 30
0.0
  3
_FILLED
  1

  0
SOLID
  5
69B4
  8
0
  6
BYBLOCK
 62
     0
 10
0.0
 20
0.0
 30
0.0
 11
-1.0
 21
0.1666666667
 31
0.0
 12
-1.0
 22
-0.1666666667
 32
0.0
 13
-1.0
 23
-0.1666666667
 33
0.0
  0
ENDBLK
  5
69B5
  8
0
  6
BYBLOCK
 62
     0
  0
BLOCK
  8
0
  2
A$CDFAF6206
 70
     0
 10
0.0
 20
0.0
 30
0.0
  3
A$CDFAF6206
  1

  0
LINE
  5
6A0E
  8
0
 10
7.4646650085734834
 20
10.9287685970688493
 30
0.0
 11
7.4646650085734896
 21
10.8905784766688498
 31
0.0
  0
ARC
  5
6A0F
  8
0
 10
7.7269027075262349
 20
10.8926811525838598
 30
0.0
 40
0.2622461286616791
 50
180.4593995232625048
 51
217.0214027758331099
  0
LINE
  5
6A10
  8
0
 10
9.767814609867095
 20
10.9287685970688493
 30
0.0
 11
9.767814609867095
 21
10.8905433757650094
 31
0.0
  0
ARC
  5
6A11
  8
0
 10
9.5068669568548287
 20
10.8922438613003703
 30
0.0
 40
0.2609531936261092
 50
322.8847083717149076
 51
359.6266329125650145
  0
LINE
  5
6A12
  8
0
 10
7.517522606271406
 20
10.7347792678688396
 30
0.0
 11
9.7149570120691777
 21
10.7347792678688396
 31
0.0
  0
LINE
  5
6A13
  8
0
 10
7.4646650085734834
 20
10.9287685970688493
 30
0.0
 11
9.7678146123202936
 21
10.9287685970688493
 31
0.0
  0
ARC
  5
6A14
  8
0
 10
4.0826771419203629
 20
8.527951346868889
 30
0.0
 40
4.0826771653999172
 50
13.3117747050523896
 51
32.7200330051415591
  0
ARC
  5
6A15
  8
0
 10
4.0826771460567306
 20
8.5279513475907933
 30
0.0
 40
4.0826771612084691
 50
359.6656501984817851
 51
13.3117747085593798
  0
ARC
  5
6A16
  8
0
 10
13.1498041284835097
 20
8.5279508235212234
 30
0.0
 40
4.0826788382043553
 50
147.2799733478981068
 51
166.6882233021349862
  0
ARC
  5
6A17
  8
0
 10
13.1498064934207992
 20
8.5279506557033251
 30
0.0
 40
4.0826811782395342
 50
166.688228652086309
 51
180.3343397625230011
  0
LINE
  5
6A18
  8
0
 10
8.1652847935202928
 20
8.504127000268852
 30
0.0
 11
9.0671948248202892
 21
8.5041270002687881
 31
0.0
  0
LINE
  5
6A19
  8
0
 10
8.1652847935202786
 20
8.5041270002667204
 30
0.0
 11
8.1652847935202928
 21
8.3607006934688481
 31
0.0
  0
ARC
  5
6A1A
  8
0
 10
5.6196779630382627
 20
8.3631022096452732
 30
0.0
 40
2.545607963272567
 50
342.0511668832173768
 51
359.945947387132378
  0
LINE
  5
6A1B
  8
0
 10
9.0671948248202892
 20
8.5041270002687881
 30
0.0
 11
9.0671948248202892
 21
8.2885990108688503
 31
0.0
  0
ARC
  5
6A1C
  8
0
 10
9.4521885297801163
 20
7.9614488056228501
 30
0.0
 40
0.5052201595850959
 50
139.6436242991769916
 51
174.6757930071850069
  0
ARC
  5
6A1D
  8
0
 10
9.9238413395551746
 20
8.1492417579399508
 30
0.0
 40
0.9848265662939324
 50
188.2263441834095943
 51
209.5593615864376034
  0
ARC
  5
6A1E
  8
0
 10
8.0788764238271256
 20
7.5665710856463297
 30
0.0
 40
0.0393715937169877
 50
162.1669117288323037
 51
227.2023190037006088
  0
ARC
  5
6A1F
  8
0
 10
8.7223682141740682
 20
8.2079667397440517
 30
0.0
 40
0.947895137885075
 50
225.0018610752970858
 51
261.4598823366255829
  0
ARC
  5
6A20
  8
0
 10
8.6645157662702701
 20
8.1695128573935332
 30
0.0
 40
0.9027466462812931
 50
264.7303071214498118
 51
281.8608311947915013
  0
ARC
  5
6A21
  8
0
 10
8.6645157662698935
 20
8.1695128573999671
 30
0.0
 40
0.9027466462876658
 50
299.1741886792128753
 51
299.1743179154552195
  0
ARC
  5
6A22
  8
0
 10
9.0843330931590316
 20
7.4150554710086141
 30
0.0
 40
0.0393703053609601
 50
251.9700352025496954
 51
252.4698971938937859
  0
ARC
  5
6A23
  8
0
 10
9.0843330931590316
 20
7.4150554710086141
 30
0.0
 40
0.0393703053609601
 50
297.2453716727138726
 51
6.8376113572703074
  0
LINE
  5
6A24
  8
0
 10
9.0671948248202892
 20
7.663402160468852
 30
0.0
 11
9.1234233799329516
 21
7.419742732911689
 31
0.0
  0
ARC
  5
6A25
  8
0
 10
8.8843741880892395
 20
9.8961379890094676
 30
0.0
 40
2.5255097382132701
 50
263.792800240752797
 51
274.9514951129821156
  0
ARC
  5
6A26
  8
0
 10
8.8258167405968848
 20
9.2763025889666508
 30
0.0
 40
1.9029970832759311
 50
246.0108363320686067
 51
263.5276935074397215
  0
ARC
  5
6A27
  8
0
 10
8.607491361665744
 20
8.3225444804829642
 30
0.0
 40
1.064510137163637
 50
283.1717405874071005
 51
297.7022170607311864
  0
LINE
  5
6A28
  8
0
 10
9.0671948248202892
 20
8.2885990108688503
 30
0.0
 11
26.2014378595979593
 21
8.2885990108689942
 31
0.0
  0
LINE
  5
6A29
  8
0
 10
26.2014378595979913
 20
7.6634021604689053
 30
0.0
 11
9.0671948248202892
 21
7.6634021604688618
 31
0.0
  0
LINE
  5
6A2A
  8
0
 10
27.8039676758446994
 20
10.9287685970690802
 30
0.0
 11
27.8039676758446888
 21
10.8905784766690807
 31
0.0
  0
ARC
  5
6A2B
  8
0
 10
27.5417299768919399
 20
10.8926811525840801
 30
0.0
 40
0.2622461286616791
 50
322.9785972241680838
 51
359.5406004767386889
  0
LINE
  5
6A2C
  8
0
 10
25.5008180745510913
 20
10.9287685970690305
 30
0.0
 11
25.5008180745510913
 21
10.8905433757651799
 31
0.0
  0
ARC
  5
6A2D
  8
0
 10
25.7617657275633505
 20
10.8922438613005497
 30
0.0
 40
0.2609531936261092
 50
180.3733670874362929
 51
217.1152916282862861
  0
LINE
  5
6A2E
  8
0
 10
27.7511100781467803
 20
10.7347792678690706
 30
0.0
 11
25.5536756723490015
 21
10.7347792678690208
 31
0.0
  0
LINE
  5
6A2F
  8
0
 10
27.8039676758446888
 20
10.9287685970686006
 30
0.0
 11
25.5008180745510806
 21
10.9287685970686006
 31
0.0
  0
ARC
  5
6A30
  8
0
 10
31.1859555424978616
 20
8.5279513468691981
 30
0.0
 40
4.0826771653999172
 50
147.2799669948597057
 51
166.6882252949490066
  0
ARC
  5
6A31
  8
0
 10
31.185955538361501
 20
8.5279513475911024
 30
0.0
 40
4.0826771612084691
 50
166.6882252914419098
 51
180.3343498015194086
  0
ARC
  5
6A32
  8
0
 10
22.1188285559344706
 20
8.5279508235212251
 30
0.0
 40
4.0826788382046102
 50
13.3117766978667795
 51
32.7200266521023977
  0
ARC
  5
6A33
  8
0
 10
22.1188261909974315
 20
8.5279506557034264
 30
0.0
 40
4.0826811782395342
 50
359.665660237478221
 51
13.31177134791497
  0
LINE
  5
6A34
  8
0
 10
27.1033478908979397
 20
8.5041270002690652
 30
0.0
 11
26.2014378595979416
 21
8.5041270002689835
 31
0.0
  0
LINE
  5
6A35
  8
0
 10
27.1033478908979504
 20
8.5041270002669354
 30
0.0
 11
27.1033478908979397
 21
8.3607006934690649
 31
0.0
  0
ARC
  5
6A36
  8
0
 10
29.6489547213799689
 20
8.3631022096455467
 30
0.0
 40
2.545607963272567
 50
180.0540526128687873
 51
197.9488331167837032
  0
LINE
  5
6A37
  8
0
 10
26.2014378595979416
 20
8.5041270002689835
 30
0.0
 11
26.2014378595979487
 21
8.2885990108690457
 31
0.0
  0
ARC
  5
6A38
  8
0
 10
25.8164441546381305
 20
7.9614488056230366
 30
0.0
 40
0.5052201595850959
 50
5.324206992816312
 51
40.3563757008241879
  0
ARC
  5
6A39
  8
0
 10
25.3447913448601803
 20
8.149241757940846
 30
0.0
 40
0.9848265662968968
 50
330.4406384136033807
 51
351.7736558165743759
  0
ARC
  5
6A3A
  8
0
 10
27.1897562605911212
 20
7.5665710856465473
 30
0.0
 40
0.0393715937169877
 50
312.7976809963004143
 51
17.8330882711689185
  0
ARC
  5
6A3B
  8
0
 10
26.5462644702441715
 20
8.2079667397442542
 30
0.0
 40
0.947895137885075
 50
278.5401176633754972
 51
314.9981389247041079
  0
ARC
  5
6A3C
  8
0
 10
26.6041169181479695
 20
8.1695128573937392
 30
0.0
 40
0.9027466462812931
 50
258.139168805210204
 51
275.2696928785518935
  0
ARC
  5
6A3D
  8
0
 10
26.6041169181483497
 20
8.1695128574001732
 30
0.0
 40
0.9027466462876658
 50
240.8256820845460027
 51
240.8258113207880058
  0
ARC
  5
6A3E
  8
0
 10
26.1842995912592293
 20
7.4150554710088086
 30
0.0
 40
0.0393703053609601
 50
287.5301028061073794
 51
288.0299647974517825
  0
ARC
  5
6A3F
  8
0
 10
26.1842995912592293
 20
7.4150554710088086
 30
0.0
 40
0.0393703053609601
 50
173.1623886427310026
 51
242.7546283272870085
  0
LINE
  5
6A40
  8
0
 10
26.2014378595981192
 20
7.6634021604690448
 30
0.0
 11
26.1452093044853093
 21
7.4197427329118826
 31
0.0
  0
ARC
  5
6A41
  8
0
 10
26.384258496328961
 20
9.8961379890096666
 30
0.0
 40
2.5255097382132701
 50
265.0485048870193054
 51
276.2071997592482262
  0
ARC
  5
6A42
  8
0
 10
26.4428159438213299
 20
9.2763025889668516
 30
0.0
 40
1.9029970832759311
 50
276.4723064925619838
 51
293.9891636679327007
  0
ARC
  5
6A43
  8
0
 10
26.6611413227524885
 20
8.3225444804831703
 30
0.0
 40
1.064510137163637
 50
242.2977829392704052
 51
256.8282594125943774
  0
LINE
  5
6A44
  8
0
 62
     4
 10
17.9031473532159602
 20
10.9287685970686006
 30
0.0
 11
24.6329820359843588
 21
20.0952817181593808
 31
0.0
  0
LINE
  5
6A45
  8
0
 62
     4
 10
17.9031473532159602
 20
-0.0000000300842942
 30
0.0
 11
22.3963351323106608
 21
4.993614497796286
 31
0.0
  0
ENDBLK
  5
6A49
  8
0
  0
ENDSEC
  0
SECTION
  2
ENTITIES
  0
ATTDEF
  5
3930
  8
DEFPOINTS
 10
4237.7735305471287575
 20
116.9500710890562942
 30
0.0
 40
0.001
  1
K-5310M
  3

  2
MODELNUMBER
 70
     0
1001
ACDBATTR
1070
     0
1070
     1
  0
ATTDEF
  5
3931
  8
DEFPOINTS
 10
4237.7735305471287575
 20
116.9484044223896007
 30
0.0
 40
0.001
  1
CIMARRON
  3

  2
TRADENAME
 70
     0
1001
ACDBATTR
1070
     0
1070
     1
  0
ATTDEF
  5
3932
  8
DEFPOINTS
 10
4237.7735305471287575
 20
116.9467377557230066
 30
0.0
 40
0.001
  1
TOILET
  3

  2
PRODUCT
 70
     0
1001
ACDBATTR
1070
     0
1070
     1
  0
LINE
  5
A069
  8
0
 10
4229.1098818470563856
 20
115.9456181360485942
 30
0.0
 11
4246.4407620542679069
 21
115.9456181360485942
 31
0.0
  0
LINE
  5
A06A
  8
0
 10
4235.8044539010161316
 20
105.7310454050486044
 30
0.0
 11
4239.7461901147789831
 21
105.7310454050486044
 31
0.0
  0
LINE
  5
A06B
  8
0
 10
4237.7757135724896216
 20
105.1587468619472929
 30
0.0
 11
4241.7928568853667457
 21
105.2031882812486003
 31
0.0
  0
LINE
  5
A06C
  8
0
 10
4246.5669959068236494
 20
115.5088111402701969
 30
0.0
 11
4228.9836480914673302
 21
115.5088559661631962
 31
0.0
  0
ARC
  5
A06D
  8
0
 10
4229.1098818470563856
 20
115.8200766400814956
 30
0.0
 40
0.1255414959670702
 50
90.0000014638278572
 51
180.3026699823676893
  0
LINE
  5
A06E
  8
0
 10
4228.9843421027480872
 20
115.8194134591986
 30
0.0
 11
4228.9739234144781221
 21
111.1572389477237977
 31
0.0
  0
ARC
  5
A06F
  8
0
 10
4229.168343275818188
 20
111.1590890607270978
 30
0.0
 40
0.1944286640443586
 50
180.5452141896041951
 51
212.1337653092371056
  0
ARC
  5
A070
  8
0
 10
4234.0861996218336571
 20
114.5729536444436008
 30
0.0
 40
6.1808633908012567
 50
214.684687159983099
 51
254.0760310297465878
  0
ARC
  5
A071
  8
0
 10
4237.8102675031541366
 20
127.921492392998104
 30
0.0
 40
20.0390788777744895
 50
254.3080921644454975
 51
269.9000835423053104
  0
ARC
  5
A072
  8
0
 10
4205.7963360015110084
 20
111.2532016724019996
 30
0.0
 40
26.9148999345679805
 50
344.184053789924576
 51
354.2911523472361068
  0
ARC
  5
A073
  8
0
 10
4450.9928063719207785
 20
44.1420118943050497
 30
0.0
 40
227.301197600895307
 50
164.7530629401449005
 51
164.9856509578561941
  0
ARC
  5
A074
  8
0
 10
4227.2178062927841893
 20
104.4079497029556052
 30
0.0
 40
4.4532127173107678
 50
328.8880074218279219
 51
341.9329256776010197
  0
ARC
  5
A075
  8
0
 10
4237.6276086870111612
 20
98.711344760800614
 30
0.0
 40
7.4197195664363118
 50
152.7649562181738077
 51
173.1221054322770954
  0
ARC
  5
A076
  8
0
 10
4269.7750598187767537
 20
95.9934831058603066
 30
0.0
 40
39.6780114179671628
 50
174.785092803971196
 51
176.9475461753069965
  0
ARC
  5
A077
  8
0
 10
4244.4004619374118192
 20
98.278876562248854
 30
0.0
 40
14.2481631439431293
 50
180.6938177309648097
 51
206.9498758814665109
  0
ARC
  5
A078
  8
0
 10
4240.5674260680598309
 20
95.8219571219542559
 30
0.0
 40
9.7284290610795043
 50
204.2813544415444085
 51
234.9891813299925047
  0
ARC
  5
A079
  8
0
 10
4237.9910084601660856
 20
93.2960250574698335
 30
0.0
 40
6.2166496672498583
 50
241.0927628154774141
 51
268.011725273037996
  0
LINE
  5
A07A
  8
0
 10
4235.8049346140487614
 20
105.6759476631486052
 30
0.0
 11
4235.7955009007482658
 21
106.7569441321486039
 31
0.0
  0
ARC
  5
A07B
  8
0
 10
4235.2980789554703733
 20
106.7526031965807931
 30
0.0
 40
0.4974408863030938
 50
0.5000000017365001
 51
86.6627172650935336
  0
LINE
  5
A07C
  8
0
 10
4235.3270368012481413
 20
107.2492004967485997
 30
0.0
 11
4234.7474319364482653
 21
107.249855582948598
 31
0.0
  0
ARC
  5
A07D
  8
0
 10
4234.751334723695436
 20
106.7547522388148025
 30
0.0
 40
0.4951187262876555
 50
90.4516402661264607
 51
179.4948017507516056
  0
LINE
  5
A07E
  8
0
 10
4234.2562352440481845
 20
106.7591178286485984
 30
0.0
 11
4234.246492413548367
 21
105.6759477002485994
 31
0.0
  0
LINE
  5
A07F
  8
0
 10
4234.2464924132482338
 20
105.675947661948598
 30
0.0
 11
4234.3220253915487774
 21
105.6759472836485969
 31
0.0
  0
ARC
  5
A080
  8
0
 10
4234.3225446320529954
 20
105.7085519089856973
 30
0.0
 40
0.0326087596218541
 50
269.0876210195489193
 51
353.3371491607143753
  0
ARC
  5
A081
  8
0
 10
4234.3703319290143554
 20
105.6914379275956009
 30
0.0
 40
0.0203672352671463
 50
105.5279794938761029
 51
139.1177420638609874
  0
ARC
  5
A082
  8
0
 10
4234.374533838028583
 20
105.6807482297047045
 30
0.0
 40
0.0318137906156377
 50
89.7901549802732575
 51
107.665890538928295
  0
LINE
  5
A083
  8
0
 10
4234.3746503553484217
 20
105.7125618069485995
 30
0.0
 11
4235.676774989423393
 21
105.7125618069485995
 31
0.0
  0
LINE
  5
A084
  8
0
 10
4234.2599068017098034
 20
105.6759475947637981
 30
0.0
 11
4234.2522773623477406
 21
105.5683615264485979
 31
0.0
  0
LINE
  5
A085
  8
0
 10
4234.2522773623477406
 20
105.5683615264485979
 30
0.0
 11
4234.2496363666796242
 21
105.1977480416010025
 31
0.0
  0
LINE
  5
A086
  8
0
 10
4237.7757135724896216
 20
105.1587468619472929
 30
0.0
 11
4233.75778701274794
 21
105.2031882812486003
 31
0.0
  0
ARC
  5
A087
  8
0
 10
4233.7584542722806873
 20
105.2635148828573932
 30
0.0
 40
0.0603302917028802
 50
180.3451062118674884
 51
269.3662895794091128
  0
LINE
  5
A088
  8
0
 10
4233.6981250749486207
 20
105.2631515012486005
 30
0.0
 11
4233.6972610447992338
 21
105.4065991719553068
 31
0.0
  0
ARC
  5
A089
  8
0
 10
4231.1748092079296839
 20
105.3914056562577031
 30
0.0
 40
2.5224975941013499
 50
0.3451062118683112
 51
4.8117554755812959
  0
ARC
  5
A08A
  8
0
 10
4233.6284195618145532
 20
105.5986789809178958
 30
0.0
 40
0.0601524208890911
 50
4.1179678188174194
 51
89.864723045574209
  0
LINE
  5
A08B
  8
0
 10
4233.6285615832475742
 20
105.6588312341485931
 30
0.0
 11
4233.2411067138482395
 21
105.6588312341485931
 31
0.0
  0
ARC
  5
A08C
  8
0
 10
4233.2409329875108597
 20
105.471034834891995
 30
0.0
 40
0.1877964796118028
 50
89.9469969438700758
 51
141.6605513792441968
  0
ARC
  5
A08D
  8
0
 10
4242.5083855727716582
 20
98.7248888744301496
 30
0.0
 40
11.65046582083888
 50
143.910786500116302
 51
163.650474748736201
  0
ARC
  5
A08E
  8
0
 10
4243.4743140520658926
 20
98.0915177929513078
 30
0.0
 40
12.7600467066257295
 50
162.1422335871124005
 51
179.8102698287198962
  0
ARC
  5
A08F
  8
0
 10
4305.4945591238792986
 20
100.0388569777050947
 30
0.0
 40
74.8044846633296032
 50
181.4593397503998915
 51
181.8527485494680889
  0
ARC
  5
A090
  8
0
 10
4244.5832977917007156
 20
98.3527533468164705
 30
0.0
 40
13.8734623948809705
 50
183.026111344685404
 51
204.9803256072781039
  0
ARC
  5
A091
  8
0
 10
4242.1436119775171392
 20
96.8809291514038335
 30
0.0
 40
11.04462074883814
 50
203.4038925151322132
 51
223.4776833028109024
  0
ARC
  5
A092
  8
0
 10
4237.9447338736026722
 20
92.9775901077738069
 30
0.0
 40
5.3122609951282831
 50
224.0892583251078918
 51
268.1724854377699216
  0
LINE
  5
A093
  8
0
 10
4234.2257049794097838
 20
105.1980127415153987
 30
0.0
 11
4234.222571421109933
 21
105.5816588583486038
 31
0.0
  0
LINE
  5
A094
  8
0
 10
4234.222571421109933
 20
105.5816588583486038
 30
0.0
 11
4234.217553048548325
 21
105.6553620957486004
 31
0.0
  0
LINE
  5
A095
  8
0
 10
4234.217553048548325
 20
105.6553620957486004
 30
0.0
 11
4233.7881394103487764
 21
105.6554256353486068
 31
0.0
  0
ARC
  5
A096
  8
0
 10
4233.7881305338905804
 20
105.5954367206234963
 30
0.0
 40
0.0599889153817849
 50
89.9915220417836537
 51
180.0909859048612986
  0
LINE
  5
A097
  8
0
 10
4233.7281416941486896
 20
105.5953414580492051
 30
0.0
 11
4233.7333831891146474
 21
105.208640618526502
 31
0.0
  0
LINE
  5
A098
  8
0
 10
4233.6975585715481429
 20
105.3556185788486061
 30
0.0
 11
4233.7313909921504091
 21
105.3556185788486061
 31
0.0
  0
LINE
  5
A099
  8
0
 10
4234.2244172254622754
 20
105.3556743370632063
 30
0.0
 11
4234.250761353821872
 21
105.3556185788486061
 31
0.0
  0
ARC
  5
A09A
  8
0
 10
4235.3754690249697887
 20
99.6355176832481391
 30
0.0
 40
5.8722861843191119
 50
106.5969462946662958
 51
108.1368658820997979
  0
ARC
  5
A09B
  8
0
 10
4243.7749465001943463
 20
97.8514628638553603
 30
0.0
 40
12.6030854795905896
 50
144.2430999980836077
 51
171.9857219477740102
  0
ARC
  5
A09C
  8
0
 10
4243.7819363097505629
 20
98.0636551064201285
 30
0.0
 40
12.5821941210080794
 50
172.9470314750882949
 51
202.5646438149840947
  0
ARC
  5
A09D
  8
0
 10
4242.7125791144126197
 20
97.25469807900879
 30
0.0
 40
11.2893035363125591
 50
200.8556151909969003
 51
222.4785869013961985
  0
ARC
  5
A09E
  8
0
 10
4237.9348799727167716
 20
92.9609900228721244
 30
0.0
 40
4.866370718667846
 50
223.1816493821694962
 51
268.1210555717419197
  0
LINE
  5
A09F
  8
0
 10
4235.8049346140487614
 20
105.6759476631486052
 30
0.0
 11
4235.7293999532230373
 21
105.6759472836485969
 31
0.0
  0
ARC
  5
A0A0
  8
0
 10
4235.7288807127179098
 20
105.7085519089856973
 30
0.0
 40
0.0326087596218541
 50
186.6628508392848005
 51
270.9123789804510807
  0
ARC
  5
A0A1
  8
0
 10
4235.6810934157565498
 20
105.6914379275956009
 30
0.0
 40
0.0203672352671463
 50
40.8822579361389629
 51
74.4720205061238687
  0
ARC
  5
A0A2
  8
0
 10
4235.6768915067414127
 20
105.6807482297047045
 30
0.0
 40
0.0318137906156377
 50
72.3341094610716482
 51
90.2098450197267567
  0
LINE
  5
A0A3
  8
0
 10
4230.340826074882898
 20
109.6561203902491002
 30
0.0
 11
4229.8120393871322449
 21
109.9051471616485998
 31
0.0
  0
ARC
  5
A0A4
  8
0
 10
4229.8205676123534431
 20
109.9232561060893971
 30
0.0
 40
0.020016605461421
 50
156.3741990057035025
 51
244.7823808341179017
  0
LINE
  5
A0A5
  8
0
 10
4229.8022287516323559
 20
109.9312779937485942
 30
0.0
 11
4229.8598013558266757
 21
110.0628948917395036
 31
0.0
  0
LINE
  5
A0A6
  8
0
 10
4235.4742444608482401
 20
105.679242464048599
 30
0.0
 11
4234.577182714348055
 21
105.6792424650486026
 31
0.0
  0
ARC
  5
A0A7
  8
0
 10
4234.5771827144480994
 20
105.7695368803340017
 30
0.0
 40
0.0902944152854133
 50
219.123364584974297
 51
269.9999999361128857
  0
LINE
  5
A0A8
  8
0
 10
4234.5257135133479096
 20
105.7125617686994019
 30
0.0
 11
4234.5257135133479096
 21
105.7074268291486021
 31
0.0
  0
LINE
  5
A0A9
  8
0
 10
4234.5257135133479096
 20
105.7074268291486021
 30
0.0
 11
4235.5257135133488191
 21
105.7074268291486021
 31
0.0
  0
LINE
  5
A0AA
  8
0
 10
4235.5257135133488191
 20
105.7074268291486021
 30
0.0
 11
4235.5257135133488191
 21
105.7125617696977997
 31
0.0
  0
ARC
  5
A0AB
  8
0
 10
4234.7407581889483481
 20
105.7925998552487954
 30
0.0
 40
0.0952160772002394
 50
243.4473003779455098
 51
269.973116985172112
  0
LINE
  5
A0AC
  8
0
 10
4234.7407135138410013
 20
105.6973837885292937
 30
0.0
 11
4234.7955754682707266
 21
105.697358047456305
 31
0.0
  0
ARC
  5
A0AD
  8
0
 10
4234.7955331372859291
 20
105.607138012188102
 30
0.0
 40
0.0902200451990337
 50
53.0544016967885383
 51
89.9731169851720978
  0
ARC
  5
A0AE
  8
0
 10
4234.7407135133480551
 20
105.7986185405485031
 30
0.0
 40
0.1249999999998886
 50
226.847315977296887
 51
252.7478092253506077
  0
ARC
  5
A0AF
  8
0
 10
4234.4271843464021003
 20
109.3839654363898006
 30
0.0
 40
3.7077583230457591
 50
269.4530627772464868
 51
272.3185488430327723
  0
ARC
  5
A0B0
  8
0
 10
4234.3913166766624272
 20
106.3317906039875993
 30
0.0
 40
0.6554147319881976
 50
265.1363996968740935
 51
270.0414788628323208
  0
ARC
  5
A0B1
  8
0
 10
4235.4742444574803812
 20
105.7695368844912025
 30
0.0
 40
0.0902944204426462
 50
270.000002136570572
 51
320.8766346763865158
  0
ARC
  5
A0B2
  8
0
 10
4235.3106689862470375
 20
105.7925998552487954
 30
0.0
 40
0.0952160772002394
 50
270.026883014827888
 51
296.5526996220544902
  0
LINE
  5
A0B3
  8
0
 10
4235.3107136613562034
 20
105.6973837885292937
 30
0.0
 11
4235.2558517069246591
 21
105.697358047456305
 31
0.0
  0
ARC
  5
A0B4
  8
0
 10
4235.255894037908547
 20
105.607138012188102
 30
0.0
 40
0.0902200451990337
 50
90.0268830148279164
 51
126.9455983032113977
  0
ARC
  5
A0B5
  8
0
 10
4235.31071366184824
 20
105.7986185405485031
 30
0.0
 40
0.1249999999998886
 50
287.2521907746494207
 51
313.152684022703113
  0
ARC
  5
A0B6
  8
0
 10
4235.6242428479708906
 20
109.3839719207711028
 30
0.0
 40
3.7077648069486382
 50
267.6814547423750241
 51
270.5469359699670235
  0
ARC
  5
A0B7
  8
0
 10
4235.6601104985338679
 20
106.3317906039875993
 30
0.0
 40
0.6554147319881976
 50
269.9585211371676792
 51
274.8636003031259065
  0
ARC
  5
A0B8
  8
0
 10
4246.4407620510601191
 20
115.8200766400814956
 30
0.0
 40
0.1255414959670702
 50
359.6973300176322255
 51
89.9999985361721428
  0
LINE
  5
A0B9
  8
0
 10
4246.5663017953665985
 20
115.8194134591986
 30
0.0
 11
4246.5767204836383826
 21
111.1572389477237977
 31
0.0
  0
ARC
  5
A0BA
  8
0
 10
4246.3823006222974072
 20
111.1590890607270978
 30
0.0
 40
0.1944286640443586
 50
327.8662346907628944
 51
359.4547858103957765
  0
ARC
  5
A0BB
  8
0
 10
4241.4644442762819381
 20
114.5729536444436008
 30
0.0
 40
6.1808633908012567
 50
285.9239689702533838
 51
325.3153128400168725
  0
ARC
  5
A0BC
  8
0
 10
4237.7403763949623681
 20
127.921492392998104
 30
0.0
 40
20.0390788777744895
 50
270.0999164576945759
 51
285.6919078355545025
  0
ARC
  5
A0BD
  8
0
 10
4269.7543078966036774
 20
111.2532016724019996
 30
0.0
 40
26.9148999345679805
 50
185.7088476527638932
 51
195.8159462100753103
  0
ARC
  5
A0BE
  8
0
 10
4024.5578375261939073
 20
44.1420118943050497
 30
0.0
 40
227.301197600895307
 50
15.0143490421437793
 51
15.2469370598550498
  0
ARC
  5
A0BF
  8
0
 10
4248.3328376053332249
 20
104.4079497029556052
 30
0.0
 40
4.4532127173107678
 50
198.067074322398895
 51
211.1119925781721065
  0
ARC
  5
A0C0
  8
0
 10
4237.9230352111053435
 20
98.711344760800614
 30
0.0
 40
7.4197195664363118
 50
6.8778945677228949
 51
27.2350437818262314
  0
ARC
  5
A0C1
  8
0
 10
4205.7755840793379321
 20
95.9934831058603066
 30
0.0
 40
39.6780114179671628
 50
3.0524538246930022
 51
5.2149071960287943
  0
ARC
  5
A0C2
  8
0
 10
4231.1501819607028665
 20
98.278876562248854
 30
0.0
 40
14.2481631439431293
 50
333.0501241185335743
 51
359.3061822690352187
  0
ARC
  5
A0C3
  8
0
 10
4234.9832178300548549
 20
95.8219571219542559
 30
0.0
 40
9.7284290610795043
 50
305.0108186700076089
 51
335.7186455584557052
  0
ARC
  5
A0C4
  8
0
 10
4237.624092368168931
 20
93.0627751866869062
 30
0.0
 40
5.9815690942581421
 50
271.4487402815457813
 51
299.4467716299495805
  0
LINE
  5
A0C5
  8
0
 10
4239.7457092840677433
 20
105.6759476631486052
 30
0.0
 11
4239.7551429973682389
 21
106.7569441321486039
 31
0.0
  0
ARC
  5
A0C6
  8
0
 10
4240.2525649426461314
 20
106.7526031965807931
 30
0.0
 40
0.4974408863030938
 50
93.3372827349064664
 51
179.4999999982634904
  0
LINE
  5
A0C7
  8
0
 10
4240.2236070968683634
 20
107.2492004967485997
 30
0.0
 11
4240.8032119616682394
 21
107.249855582948598
 31
0.0
  0
ARC
  5
A0C8
  8
0
 10
4240.7993091744210687
 20
106.7547522388148025
 30
0.0
 40
0.4951187262876555
 50
0.5051982492483422
 51
89.5483597338735535
  0
LINE
  5
A0C9
  8
0
 10
4241.2944086540674107
 20
106.7591178286485984
 30
0.0
 11
4241.3041514845681377
 21
105.6759477002485994
 31
0.0
  0
LINE
  5
A0CA
  8
0
 10
4241.3041514848682709
 20
105.675947661948598
 30
0.0
 11
4241.2286185065668178
 21
105.6759472836485969
 31
0.0
  0
ARC
  5
A0CB
  8
0
 10
4241.2280992660616903
 20
105.7085519089856973
 30
0.0
 40
0.0326087596218541
 50
186.6628508392855963
 51
270.9123789804510807
  0
ARC
  5
A0CC
  8
0
 10
4241.1803119691021493
 20
105.6914379275956009
 30
0.0
 40
0.0203672352671463
 50
40.8822579361389629
 51
74.4720205061238687
  0
ARC
  5
A0CD
  8
0
 10
4241.1761100600861027
 20
105.6807482297047045
 30
0.0
 40
0.0318137906156377
 50
72.3341094610716482
 51
90.2098450197267567
  0
LINE
  5
A0CE
  8
0
 10
4241.175993542768083
 20
105.7125618069485995
 30
0.0
 11
4239.8738689086931117
 21
105.7125618069485995
 31
0.0
  0
LINE
  5
A0CF
  8
0
 10
4241.2907370964048823
 20
105.6759475947637981
 30
0.0
 11
4241.2983665357678547
 21
105.5683615264485979
 31
0.0
  0
LINE
  5
A0D0
  8
0
 10
4241.2983665357678547
 20
105.5683615264485979
 30
0.0
 11
4241.301007538993872
 21
105.1977469809681054
 31
0.0
  0
ARC
  5
A0D1
  8
0
 10
4241.7921896258358174
 20
105.2635148828573932
 30
0.0
 40
0.0603302917028802
 50
270.6337104205910009
 51
359.6548937881324832
  0
LINE
  5
A0D2
  8
0
 10
4241.852518823167884
 20
105.2631515012486005
 30
0.0
 11
4241.8533828533163614
 21
105.4065991719553068
 31
0.0
  0
ARC
  5
A0D3
  8
0
 10
4244.3758346901859113
 20
105.3914056562577031
 30
0.0
 40
2.5224975941013499
 50
175.1882445244187068
 51
179.6548937881316874
  0
ARC
  5
A0D4
  8
0
 10
4241.9222243363010421
 20
105.5986789809178958
 30
0.0
 40
0.0601524208890911
 50
90.1352769544257768
 51
175.8820321811826091
  0
LINE
  5
A0D5
  8
0
 10
4241.9220823148680211
 20
105.6588312341485931
 30
0.0
 11
4242.3095371842682653
 21
105.6588312341485931
 31
0.0
  0
ARC
  5
A0D6
  8
0
 10
4242.309710910605645
 20
105.471034834891995
 30
0.0
 40
0.1877964796118028
 50
38.3394486207558529
 51
90.0530030561299384
  0
ARC
  5
A0D7
  8
0
 10
4233.0422583253430275
 20
98.7248888744301496
 30
0.0
 40
11.65046582083888
 50
16.3495252512637386
 51
36.0892134998836482
  0
ARC
  5
A0D8
  8
0
 10
4232.0763298460506121
 20
98.0915177929513078
 30
0.0
 40
12.7600467066257295
 50
0.1897301712801032
 51
17.8577664128875711
  0
ARC
  5
A0D9
  8
0
 10
4170.0560847742372061
 20
100.0388569777050947
 30
0.0
 40
74.8044846633296032
 50
358.1472514505318827
 51
358.5406602496000232
  0
ARC
  5
A0DA
  8
0
 10
4230.9673461064148796
 20
98.3527533468164705
 30
0.0
 40
13.8734623948809705
 50
335.0196743927219245
 51
356.9738886553146244
  0
ARC
  5
A0DB
  8
0
 10
4233.407031920600275
 20
96.8809291514038335
 30
0.0
 40
11.04462074883814
 50
316.522316697189126
 51
336.5961074848669909
  0
ARC
  5
A0DC
  8
0
 10
4237.6059100245120135
 20
92.9775901077738069
 30
0.0
 40
5.3122609951282831
 50
271.8275145622300784
 51
315.9107416748919945
  0
LINE
  5
A0DD
  8
0
 10
4241.3249389187058114
 20
105.1980127415153987
 30
0.0
 11
4241.3280724770056622
 21
105.5816588583486038
 31
0.0
  0
LINE
  5
A0DE
  8
0
 10
4241.3280724770056622
 20
105.5816588583486038
 30
0.0
 11
4241.3330908495672702
 21
105.6553620957486004
 31
0.0
  0
LINE
  5
A0DF
  8
0
 10
4241.3330908495672702
 20
105.6553620957486004
 30
0.0
 11
4241.7625044877677283
 21
105.6554256353486068
 31
0.0
  0
ARC
  5
A0E0
  8
0
 10
4241.7625133642250148
 20
105.5954367206234963
 30
0.0
 40
0.0599889153817849
 50
359.9090140951386729
 51
90.0084779582163463
  0
LINE
  5
A0E1
  8
0
 10
4241.8225022039678151
 20
105.5953414580492051
 30
0.0
 11
4241.8172607090009478
 21
105.208640618526502
 31
0.0
  0
LINE
  5
A0E2
  8
0
 10
4241.8530853265674523
 20
105.3556185788486061
 30
0.0
 11
4241.8192529059670051
 21
105.3556185788486061
 31
0.0
  0
LINE
  5
A0E3
  8
0
 10
4241.3262266726533198
 20
105.3556743370632063
 30
0.0
 11
4241.2998825442937232
 21
105.3556185788486061
 31
0.0
  0
ARC
  5
A0E4
  8
0
 10
4240.1751748731458065
 20
99.6355176832481391
 30
0.0
 40
5.8722861843191119
 50
71.8631341179001311
 51
73.4030537053337042
  0
ARC
  5
A0E5
  8
0
 10
4231.7756973979212489
 20
97.8514628638553603
 30
0.0
 40
12.6030854795905896
 50
8.0142780522259756
 51
35.7569000019163497
  0
ARC
  5
A0E6
  8
0
 10
4231.7687075883650323
 20
98.0636551064201285
 30
0.0
 40
12.5821941210080794
 50
337.4353561850159053
 51
7.0529685249117273
  0
ARC
  5
A0E7
  8
0
 10
4232.8380647837029755
 20
97.25469807900879
 30
0.0
 40
11.2893035363125591
 50
317.5214130986037731
 51
339.1443848090030997
  0
ARC
  5
A0E8
  8
0
 10
4237.6157639253979141
 20
92.9609900228721244
 30
0.0
 40
4.866370718667846
 50
271.8789444282580803
 51
316.8183506178298785
  0
LINE
  5
A0E9
  8
0
 10
4239.7457092840677433
 20
105.6759476631486052
 30
0.0
 11
4239.8212439448925579
 21
105.6759472836485969
 31
0.0
  0
ARC
  5
A0EA
  8
0
 10
4239.8217631853985949
 20
105.7085519089856973
 30
0.0
 40
0.0326087596218541
 50
269.0876210195489193
 51
353.3371491607152279
  0
ARC
  5
A0EB
  8
0
 10
4239.8695504823590454
 20
105.6914379275956009
 30
0.0
 40
0.0203672352671463
 50
105.5279794938761029
 51
139.1177420638609874
  0
ARC
  5
A0EC
  8
0
 10
4239.873752391375092
 20
105.6807482297047045
 30
0.0
 40
0.0318137906156377
 50
89.7901549802732575
 51
107.665890538928295
  0
LINE
  5
A0ED
  8
0
 10
4240.0763994372682646
 20
105.679242464048599
 30
0.0
 11
4240.9734611837666307
 21
105.6792424650486026
 31
0.0
  0
ARC
  5
A0EE
  8
0
 10
4240.9734611836665863
 20
105.7695368803340017
 30
0.0
 40
0.0902944152854133
 50
270.0000000638871143
 51
320.8766354150258167
  0
LINE
  5
A0EF
  8
0
 10
4241.0249303847667761
 20
105.7125617686994019
 30
0.0
 11
4241.0249303847667761
 21
105.7074268291486021
 31
0.0
  0
LINE
  5
A0F0
  8
0
 10
4241.0249303847667761
 20
105.7074268291486021
 30
0.0
 11
4240.0249303847676856
 21
105.7074268291486021
 31
0.0
  0
LINE
  5
A0F1
  8
0
 10
4240.0249303847676856
 20
105.7074268291486021
 30
0.0
 11
4240.0249303847676856
 21
105.7125617696977997
 31
0.0
  0
ARC
  5
A0F2
  8
0
 10
4240.8098857091672471
 20
105.7925998552487954
 30
0.0
 40
0.0952160772002394
 50
270.026883014827888
 51
296.5526996220544902
  0
LINE
  5
A0F3
  8
0
 10
4240.809930384274594
 20
105.6973837885292937
 30
0.0
 11
4240.7550684298439592
 21
105.697358047456305
 31
0.0
  0
ARC
  5
A0F4
  8
0
 10
4240.7551107608287566
 20
105.607138012188102
 30
0.0
 40
0.0902200451990337
 50
90.0268830148279164
 51
126.9455983032113977
  0
ARC
  5
A0F5
  8
0
 10
4240.8099303847666306
 20
105.7986185405485031
 30
0.0
 40
0.1249999999998886
 50
287.2521907746494207
 51
313.152684022703113
  0
ARC
  5
A0F6
  8
0
 10
4241.1234595517144044
 20
109.3839654363898006
 30
0.0
 40
3.7077583230457591
 50
267.6814511569672277
 51
270.5469372227535132
  0
ARC
  5
A0F7
  8
0
 10
4241.159327221454987
 20
106.3317906039875993
 30
0.0
 40
0.6554147319881976
 50
269.9585211371676792
 51
274.8636003031259065
  0
ARC
  5
A0F8
  8
0
 10
4240.076399440635214
 20
105.7695368844912025
 30
0.0
 40
0.0902944204426462
 50
219.1233653236128873
 51
269.999997863429428
  0
ARC
  5
A0F9
  8
0
 10
4240.2399749118676482
 20
105.7925998552487954
 30
0.0
 40
0.0952160772002394
 50
243.4473003779455098
 51
269.973116985172112
  0
LINE
  5
A0FA
  8
0
 10
4240.2399302367603013
 20
105.6973837885292937
 30
0.0
 11
4240.2947921911909361
 21
105.697358047456305
 31
0.0
  0
ARC
  5
A0FB
  8
0
 10
4240.2947498602070482
 20
105.607138012188102
 30
0.0
 40
0.0902200451990337
 50
53.0544016967885383
 51
89.9731169851720978
  0
ARC
  5
A0FC
  8
0
 10
4240.2399302362682647
 20
105.7986185405485031
 30
0.0
 40
0.1249999999998886
 50
226.847315977296887
 51
252.7478092253506077
  0
ARC
  5
A0FD
  8
0
 10
4239.9264010501447046
 20
109.3839719207711028
 30
0.0
 40
3.7077648069486382
 50
269.4530640300329196
 51
272.3185452576249759
  0
ARC
  5
A0FE
  8
0
 10
4239.8905333995799083
 20
106.3317906039875993
 30
0.0
 40
0.6554147319881976
 50
265.1363996968740935
 51
270.0414788628323208
  0
ENDSEC
  0
EOF
