  0
SECTION
  2
HEADER
  9
$ACADVER
  1
AC1009
  9
$INSBASE
 10
4172.2319606330720489
 20
73.3861685210339658
 30
0.0
  9
$EXTMIN
 10
4163.4302024683620402
 20
73.3800211677649088
 30
0.0
  9
$EXTMAX
 10
4181.0329995375232102
 20
103.8650824689881063
 30
0.0
  9
$LIMMIN
 10
0.0
 20
0.0
  9
$LIMMAX
 10
11.6929133858000007
 20
8.2677165353999982
  9
$ORTHOMODE
 70
     0
  9
$REGENMODE
 70
     1
  9
$FILLMODE
 70
     1
  9
$QTEXTMODE
 70
     0
  9
$MIRRTEXT
 70
     0
  9
$DRAGMODE
 70
     2
  9
$LTSCALE
 40
0.6431102362
  9
$OSMODE
 70
  4095
  9
$ATTMODE
 70
     1
  9
$TEXTSIZE
 40
0.2
  9
$TRACEWID
 40
0.05
  9
$TEXTSTYLE
  7
STANDARD
  9
$CLAYER
  8
0
  9
$CELTYPE
  6
BYLAYER
  9
$CECOLOR
 62
   256
  9
$DIMSCALE
 40
1.0
  9
$DIMASZ
 40
0.1875
  9
$DIMEXO
 40
0.0625
  9
$DIMDLI
 40
0.4443307087
  9
$DIMRND
 40
0.0
  9
$DIMDLE
 40
0.0
  9
$DIMEXE
 40
0.125
  9
$DIMTP
 40
0.01
  9
$DIMTM
 40
0.01
  9
$DIMTXT
 40
2.0
  9
$DIMCEN
 40
0.1052362205
  9
$DIMTSZ
 40
0.0
  9
$DIMTOL
 70
     1
  9
$DIMLIM
 70
     0
  9
$DIMTIH
 70
     1
  9
$DIMTOH
 70
     1
  9
$DIMSE1
 70
     0
  9
$DIMSE2
 70
     0
  9
$DIMTAD
 70
     0
  9
$DIMZIN
 70
     0
  9
$DIMBLK
  1

  9
$DIMASO
 70
     1
  9
$DIMSHO
 70
     1
  9
$DIMPOST
  1
\X
  9
$DIMAPOST
  1

  9
$DIMALT
 70
     1
  9
$DIMALTD
 70
     2
  9
$DIMALTF
 40
25.3999999999999986
  9
$DIMLFAC
 40
1.0
  9
$DIMTOFL
 70
     0
  9
$DIMTVP
 40
0.0
  9
$DIMTIX
 70
     0
  9
$DIMSOXD
 70
     0
  9
$DIMSAH
 70
     0
  9
$DIMBLK1
  1

  9
$DIMBLK2
  1

  9
$DIMSTYLE
  2
STANDARD
  9
$DIMCLRD
 70
     0
  9
$DIMCLRE
 70
     0
  9
$DIMCLRT
 70
     0
  9
$DIMTFAC
 40
1.0
  9
$DIMGAP
 40
0.09
  9
$LUNITS
 70
     2
  9
$LUPREC
 70
     4
  9
$SKETCHINC
 40
0.1
  9
$FILLETRAD
 40
0.0
  9
$AUNITS
 70
     0
  9
$AUPREC
 70
     0
  9
$MENU
  1
.
  9
$ELEVATION
 40
0.0
  9
$PELEVATION
 40
0.0
  9
$THICKNESS
 40
0.0
  9
$LIMCHECK
 70
     0
  9
$BLIPMODE
 70
     0
  9
$CHAMFERA
 40
0.0
  9
$CHAMFERB
 40
0.0
  9
$SKPOLY
 70
     0
  9
$TDCREATE
 40
2458060.468368056230247
  9
$TDUPDATE
 40
2459116.6539351851679385
  9
$TDINDWG
 40
0.4955626157
  9
$TDUSRTIMER
 40
0.4955626157
  9
$USRTIMER
 70
     1
  9
$ANGBASE
 50
0.0
  9
$ANGDIR
 70
     0
  9
$PDMODE
 70
     0
  9
$PDSIZE
 40
0.3125
  9
$PLINEWID
 40
0.0
  9
$COORDS
 70
     1
  9
$SPLFRAME
 70
     0
  9
$SPLINETYPE
 70
     6
  9
$SPLINESEGS
 70
     8
  9
$ATTDIA
 70
     1
  9
$ATTREQ
 70
     1
  9
$HANDLING
 70
     1
  9
$HANDSEED
  5
9DEB
  9
$SURFTAB1
 70
     6
  9
$SURFTAB2
 70
     6
  9
$SURFTYPE
 70
     6
  9
$SURFU
 70
     6
  9
$SURFV
 70
     6
  9
$UCSNAME
  2

  9
$UCSORG
 10
0.0
 20
0.0
 30
0.0
  9
$UCSXDIR
 10
1.0
 20
0.0
 30
0.0
  9
$UCSYDIR
 10
0.0
 20
1.0
 30
0.0
  9
$PUCSNAME
  2

  9
$PUCSORG
 10
0.0
 20
0.0
 30
0.0
  9
$PUCSXDIR
 10
1.0
 20
0.0
 30
0.0
  9
$PUCSYDIR
 10
0.0
 20
1.0
 30
0.0
  9
$USERI1
 70
     0
  9
$USERI2
 70
     0
  9
$USERI3
 70
     0
  9
$USERI4
 70
     0
  9
$USERI5
 70
     0
  9
$USERR1
 40
0.0
  9
$USERR2
 40
0.0
  9
$USERR3
 40
0.0
  9
$USERR4
 40
0.0
  9
$USERR5
 40
0.0
  9
$WORLDVIEW
 70
     1
  9
$SHADEDGE
 70
     3
  9
$SHADEDIF
 70
    70
  9
$TILEMODE
 70
     1
  9
$MAXACTVP
 70
    64
  9
$PLIMCHECK
 70
     0
  9
$PEXTMIN
 10
1.0000000000000000E+20
 20
1.0000000000000000E+20
 30
1.0000000000000000E+20
  9
$PEXTMAX
 10
-1.0000000000000000E+20
 20
-1.0000000000000000E+20
 30
-1.0000000000000000E+20
  9
$PLIMMIN
 10
0.0
 20
0.0
  9
$PLIMMAX
 10
12.0
 20
9.0
  9
$UNITMODE
 70
     0
  9
$VISRETAIN
 70
     1
  9
$PLINEGEN
 70
     0
  9
$PSLTSCALE
 70
     1
  0
ENDSEC
  0
SECTION
  2
TABLES
  0
TABLE
  2
VPORT
 70
     1
  0
VPORT
  2
*ACTIVE
 70
     0
 10
0.0
 20
0.0
 11
1.0
 21
1.0
 12
0.0
 22
0.0
 13
0.0
 23
0.0
 14
1.0
 24
1.0
 15
0.0
 25
0.0
 16
0.0
 26
0.0
 36
99.7447141636124286
 17
4172.2316010029417157
 27
88.6225518183765359
 37
0.0
 40
35.2022361107554218
 41
2.1186252771618621
 42
50.0
 43
0.0
 44
0.0
 50
0.0
 51
0.0
 71
     0
 72
   100
 73
     1
 74
     1
 75
     0
 76
     0
 77
     0
 78
     0
  0
ENDTAB
  0
TABLE
  2
LTYPE
 70
     2
  0
LTYPE
  2
CONTINUOUS
 70
     0
  3
Solid line
 72
    65
 73
     0
 40
0.0
  0
LTYPE
  2
PHANTOM2
 70
     0
  3
___ _ _ ___ _ _ ___ _ _ ___ _ _
 72
    65
 73
     6
 40
1.25
 49
0.625
 49
-0.125
 49
0.125
 49
-0.125
 49
0.125
 49
-0.125
  0
ENDTAB
  0
TABLE
  2
LAYER
 70
     2
  0
LAYER
  2
0
 70
     0
 62
   255
  6
CONTINUOUS
  0
LAYER
  2
DEFPOINTS
 70
     0
 62
     7
  6
CONTINUOUS
  0
ENDTAB
  0
TABLE
  2
STYLE
 70
     1
  0
STYLE
  2
STANDARD
 70
     0
 40
0.0
 41
0.8
 50
0.0
 71
     0
 42
0.2
  3
txt
  4

  0
ENDTAB
  0
TABLE
  2
VIEW
 70
     0
  0
ENDTAB
  0
TABLE
  2
UCS
 70
     0
  0
ENDTAB
  0
TABLE
  2
APPID
 70
     9
  0
APPID
  2
ACAD
 70
     0
  0
APPID
  2
ACAD_MLEADERVER
 70
     0
  0
APPID
  2
ACAD_EXEMPT_FROM_CAD_STANDARDS
 70
     0
  0
APPID
  2
ACAD_NAV_VCDISPLAY
 70
     0
  0
APPID
  2
ACAECLAYERSTANDARD
 70
     0
  0
APPID
  2
ACCMTRANSPARENCY
 70
     0
  0
APPID
  2
ACAD_DSTYLE_DIMJAG
 70
     0
  0
APPID
  2
ACAD_DSTYLE_DIMTALN
 70
     0
  0
APPID
  2
ACDBATTR
 70
     0
  0
ENDTAB
  0
TABLE
  2
DIMSTYLE
 70
     1
  0
DIMSTYLE
  2
STANDARD
 70
     0
  3

  4

  5

  6

  7

 40
1.0
 41
0.1875
 42
0.0625
 43
0.38
 44
0.125
 45
0.0
 46
0.0
 47
0.01
 48
0.01
140
0.15625
141
0.09
142
0.0
143
25.3999999999999986
144
1.0
145
0.0
146
1.0
147
0.09
 71
     1
 72
     0
 73
     1
 74
     1
 75
     0
 76
     0
 77
     0
 78
     4
170
     0
171
     2
172
     0
173
     0
174
     0
175
     0
176
     0
177
     0
178
     0
  0
ENDTAB
  0
ENDSEC
  0
SECTION
  2
BLOCKS
  0
BLOCK
  8
0
  2
$MODEL_SPACE
 70
     0
 10
0.0
 20
0.0
 30
0.0
  3
$MODEL_SPACE
  1

  0
ENDBLK
  5
21
  8
0
  0
BLOCK
 67
     1
  8
0
  2
$PAPER_SPACE
 70
     0
 10
0.0
 20
0.0
 30
0.0
  3
$PAPER_SPACE
  1

  0
ENDBLK
  5
1D
 67
     1
  8
0
  0
BLOCK
  8
0
  2
_FILLED
 70
     0
 10
0.0
 20
0.0
 30
0.0
  3
_FILLED
  1

  0
SOLID
  5
69B4
  8
0
  6
BYBLOCK
 62
     0
 10
0.0
 20
0.0
 30
0.0
 11
-1.0
 21
0.1666666667
 31
0.0
 12
-1.0
 22
-0.1666666667
 32
0.0
 13
-1.0
 23
-0.1666666667
 33
0.0
  0
ENDBLK
  5
69B5
  8
0
  6
BYBLOCK
 62
     0
  0
BLOCK
  8
0
  2
A$CDFAF6206
 70
     0
 10
0.0
 20
0.0
 30
0.0
  3
A$CDFAF6206
  1

  0
LINE
  5
6A0E
  8
0
 10
7.4646650085734834
 20
10.9287685970688493
 30
0.0
 11
7.4646650085734896
 21
10.8905784766688498
 31
0.0
  0
ARC
  5
6A0F
  8
0
 10
7.7269027075262349
 20
10.8926811525838598
 30
0.0
 40
0.2622461286616791
 50
180.4593995232625048
 51
217.0214027758331099
  0
LINE
  5
6A10
  8
0
 10
9.767814609867095
 20
10.9287685970688493
 30
0.0
 11
9.767814609867095
 21
10.8905433757650094
 31
0.0
  0
ARC
  5
6A11
  8
0
 10
9.5068669568548287
 20
10.8922438613003703
 30
0.0
 40
0.2609531936261092
 50
322.8847083717149076
 51
359.6266329125650145
  0
LINE
  5
6A12
  8
0
 10
7.517522606271406
 20
10.7347792678688396
 30
0.0
 11
9.7149570120691777
 21
10.7347792678688396
 31
0.0
  0
LINE
  5
6A13
  8
0
 10
7.4646650085734834
 20
10.9287685970688493
 30
0.0
 11
9.7678146123202936
 21
10.9287685970688493
 31
0.0
  0
ARC
  5
6A14
  8
0
 10
4.0826771419203629
 20
8.527951346868889
 30
0.0
 40
4.0826771653999172
 50
13.3117747050523896
 51
32.7200330051415591
  0
ARC
  5
6A15
  8
0
 10
4.0826771460567306
 20
8.5279513475907933
 30
0.0
 40
4.0826771612084691
 50
359.6656501984817851
 51
13.3117747085593798
  0
ARC
  5
6A16
  8
0
 10
13.1498041284835097
 20
8.5279508235212234
 30
0.0
 40
4.0826788382043553
 50
147.2799733478981068
 51
166.6882233021349862
  0
ARC
  5
6A17
  8
0
 10
13.1498064934207992
 20
8.5279506557033251
 30
0.0
 40
4.0826811782395342
 50
166.688228652086309
 51
180.3343397625230011
  0
LINE
  5
6A18
  8
0
 10
8.1652847935202928
 20
8.504127000268852
 30
0.0
 11
9.0671948248202892
 21
8.5041270002687881
 31
0.0
  0
LINE
  5
6A19
  8
0
 10
8.1652847935202786
 20
8.5041270002667204
 30
0.0
 11
8.1652847935202928
 21
8.3607006934688481
 31
0.0
  0
ARC
  5
6A1A
  8
0
 10
5.6196779630382627
 20
8.3631022096452732
 30
0.0
 40
2.545607963272567
 50
342.0511668832173768
 51
359.945947387132378
  0
LINE
  5
6A1B
  8
0
 10
9.0671948248202892
 20
8.5041270002687881
 30
0.0
 11
9.0671948248202892
 21
8.2885990108688503
 31
0.0
  0
ARC
  5
6A1C
  8
0
 10
9.4521885297801163
 20
7.9614488056228501
 30
0.0
 40
0.5052201595850959
 50
139.6436242991769916
 51
174.6757930071850069
  0
ARC
  5
6A1D
  8
0
 10
9.9238413395551746
 20
8.1492417579399508
 30
0.0
 40
0.9848265662939324
 50
188.2263441834095943
 51
209.5593615864376034
  0
ARC
  5
6A1E
  8
0
 10
8.0788764238271256
 20
7.5665710856463297
 30
0.0
 40
0.0393715937169877
 50
162.1669117288323037
 51
227.2023190037006088
  0
ARC
  5
6A1F
  8
0
 10
8.7223682141740682
 20
8.2079667397440517
 30
0.0
 40
0.947895137885075
 50
225.0018610752970858
 51
261.4598823366255829
  0
ARC
  5
6A20
  8
0
 10
8.6645157662702701
 20
8.1695128573935332
 30
0.0
 40
0.9027466462812931
 50
264.7303071214498118
 51
281.8608311947915013
  0
ARC
  5
6A21
  8
0
 10
8.6645157662698935
 20
8.1695128573999671
 30
0.0
 40
0.9027466462876658
 50
299.1741886792128753
 51
299.1743179154552195
  0
ARC
  5
6A22
  8
0
 10
9.0843330931590316
 20
7.4150554710086141
 30
0.0
 40
0.0393703053609601
 50
251.9700352025496954
 51
252.4698971938937859
  0
ARC
  5
6A23
  8
0
 10
9.0843330931590316
 20
7.4150554710086141
 30
0.0
 40
0.0393703053609601
 50
297.2453716727138726
 51
6.8376113572703074
  0
LINE
  5
6A24
  8
0
 10
9.0671948248202892
 20
7.663402160468852
 30
0.0
 11
9.1234233799329516
 21
7.419742732911689
 31
0.0
  0
ARC
  5
6A25
  8
0
 10
8.8843741880892395
 20
9.8961379890094676
 30
0.0
 40
2.5255097382132701
 50
263.792800240752797
 51
274.9514951129821156
  0
ARC
  5
6A26
  8
0
 10
8.8258167405968848
 20
9.2763025889666508
 30
0.0
 40
1.9029970832759311
 50
246.0108363320686067
 51
263.5276935074397215
  0
ARC
  5
6A27
  8
0
 10
8.607491361665744
 20
8.3225444804829642
 30
0.0
 40
1.064510137163637
 50
283.1717405874071005
 51
297.7022170607311864
  0
LINE
  5
6A28
  8
0
 10
9.0671948248202892
 20
8.2885990108688503
 30
0.0
 11
26.2014378595979593
 21
8.2885990108689942
 31
0.0
  0
LINE
  5
6A29
  8
0
 10
26.2014378595979913
 20
7.6634021604689053
 30
0.0
 11
9.0671948248202892
 21
7.6634021604688618
 31
0.0
  0
LINE
  5
6A2A
  8
0
 10
27.8039676758446994
 20
10.9287685970690802
 30
0.0
 11
27.8039676758446888
 21
10.8905784766690807
 31
0.0
  0
ARC
  5
6A2B
  8
0
 10
27.5417299768919399
 20
10.8926811525840801
 30
0.0
 40
0.2622461286616791
 50
322.9785972241680838
 51
359.5406004767386889
  0
LINE
  5
6A2C
  8
0
 10
25.5008180745510913
 20
10.9287685970690305
 30
0.0
 11
25.5008180745510913
 21
10.8905433757651799
 31
0.0
  0
ARC
  5
6A2D
  8
0
 10
25.7617657275633505
 20
10.8922438613005497
 30
0.0
 40
0.2609531936261092
 50
180.3733670874362929
 51
217.1152916282862861
  0
LINE
  5
6A2E
  8
0
 10
27.7511100781467803
 20
10.7347792678690706
 30
0.0
 11
25.5536756723490015
 21
10.7347792678690208
 31
0.0
  0
LINE
  5
6A2F
  8
0
 10
27.8039676758446888
 20
10.9287685970686006
 30
0.0
 11
25.5008180745510806
 21
10.9287685970686006
 31
0.0
  0
ARC
  5
6A30
  8
0
 10
31.1859555424978616
 20
8.5279513468691981
 30
0.0
 40
4.0826771653999172
 50
147.2799669948597057
 51
166.6882252949490066
  0
ARC
  5
6A31
  8
0
 10
31.185955538361501
 20
8.5279513475911024
 30
0.0
 40
4.0826771612084691
 50
166.6882252914419098
 51
180.3343498015194086
  0
ARC
  5
6A32
  8
0
 10
22.1188285559344706
 20
8.5279508235212251
 30
0.0
 40
4.0826788382046102
 50
13.3117766978667795
 51
32.7200266521023977
  0
ARC
  5
6A33
  8
0
 10
22.1188261909974315
 20
8.5279506557034264
 30
0.0
 40
4.0826811782395342
 50
359.665660237478221
 51
13.31177134791497
  0
LINE
  5
6A34
  8
0
 10
27.1033478908979397
 20
8.5041270002690652
 30
0.0
 11
26.2014378595979416
 21
8.5041270002689835
 31
0.0
  0
LINE
  5
6A35
  8
0
 10
27.1033478908979504
 20
8.5041270002669354
 30
0.0
 11
27.1033478908979397
 21
8.3607006934690649
 31
0.0
  0
ARC
  5
6A36
  8
0
 10
29.6489547213799689
 20
8.3631022096455467
 30
0.0
 40
2.545607963272567
 50
180.0540526128687873
 51
197.9488331167837032
  0
LINE
  5
6A37
  8
0
 10
26.2014378595979416
 20
8.5041270002689835
 30
0.0
 11
26.2014378595979487
 21
8.2885990108690457
 31
0.0
  0
ARC
  5
6A38
  8
0
 10
25.8164441546381305
 20
7.9614488056230366
 30
0.0
 40
0.5052201595850959
 50
5.324206992816312
 51
40.3563757008241879
  0
ARC
  5
6A39
  8
0
 10
25.3447913448601803
 20
8.149241757940846
 30
0.0
 40
0.9848265662968968
 50
330.4406384136033807
 51
351.7736558165743759
  0
ARC
  5
6A3A
  8
0
 10
27.1897562605911212
 20
7.5665710856465473
 30
0.0
 40
0.0393715937169877
 50
312.7976809963004143
 51
17.8330882711689185
  0
ARC
  5
6A3B
  8
0
 10
26.5462644702441715
 20
8.2079667397442542
 30
0.0
 40
0.947895137885075
 50
278.5401176633754972
 51
314.9981389247041079
  0
ARC
  5
6A3C
  8
0
 10
26.6041169181479695
 20
8.1695128573937392
 30
0.0
 40
0.9027466462812931
 50
258.139168805210204
 51
275.2696928785518935
  0
ARC
  5
6A3D
  8
0
 10
26.6041169181483497
 20
8.1695128574001732
 30
0.0
 40
0.9027466462876658
 50
240.8256820845460027
 51
240.8258113207880058
  0
ARC
  5
6A3E
  8
0
 10
26.1842995912592293
 20
7.4150554710088086
 30
0.0
 40
0.0393703053609601
 50
287.5301028061073794
 51
288.0299647974517825
  0
ARC
  5
6A3F
  8
0
 10
26.1842995912592293
 20
7.4150554710088086
 30
0.0
 40
0.0393703053609601
 50
173.1623886427310026
 51
242.7546283272870085
  0
LINE
  5
6A40
  8
0
 10
26.2014378595981192
 20
7.6634021604690448
 30
0.0
 11
26.1452093044853093
 21
7.4197427329118826
 31
0.0
  0
ARC
  5
6A41
  8
0
 10
26.384258496328961
 20
9.8961379890096666
 30
0.0
 40
2.5255097382132701
 50
265.0485048870193054
 51
276.2071997592482262
  0
ARC
  5
6A42
  8
0
 10
26.4428159438213299
 20
9.2763025889668516
 30
0.0
 40
1.9029970832759311
 50
276.4723064925619838
 51
293.9891636679327007
  0
ARC
  5
6A43
  8
0
 10
26.6611413227524885
 20
8.3225444804831703
 30
0.0
 40
1.064510137163637
 50
242.2977829392704052
 51
256.8282594125943774
  0
LINE
  5
6A44
  8
0
 62
     4
 10
17.9031473532159602
 20
10.9287685970686006
 30
0.0
 11
24.6329820359843588
 21
20.0952817181593808
 31
0.0
  0
LINE
  5
6A45
  8
0
 62
     4
 10
17.9031473532159602
 20
-0.0000000300842942
 30
0.0
 11
22.3963351323106608
 21
4.993614497796286
 31
0.0
  0
ENDBLK
  5
6A49
  8
0
  0
ENDSEC
  0
SECTION
  2
ENTITIES
  0
ATTDEF
  5
3930
  8
DEFPOINTS
 10
4172.2263490185623596
 20
73.3833545010982675
 30
0.0
 40
0.001
  1
K-5310M
  3

  2
MODELNUMBER
 70
     0
1001
ACDBATTR
1070
     0
1070
     1
  0
ATTDEF
  5
3931
  8
DEFPOINTS
 10
4172.2263490185623596
 20
73.3816878344316024
 30
0.0
 40
0.001
  1
CIMARRON
  3

  2
TRADENAME
 70
     0
1001
ACDBATTR
1070
     0
1070
     1
  0
ATTDEF
  5
3932
  8
DEFPOINTS
 10
4172.2263490185623596
 20
73.380021167764923
 30
0.0
 40
0.001
  1
TOILET
  3

  2
PRODUCT
 70
     0
1001
ACDBATTR
1070
     0
1070
     1
  0
LINE
  5
9CE6
  8
0
 10
4180.8594728182715698
 20
101.9661685210338931
 30
0.0
 11
4163.6052866054405968
 21
101.9661710292792947
 31
0.0
  0
LINE
  5
9CE7
  8
0
 10
4179.2335017017730934
 20
90.1191685210339557
 30
0.0
 11
4165.2306166508724345
 21
90.1191685210339557
 31
0.0
  0
LINE
  5
9CE8
  8
0
 10
4165.2493335342724095
 20
89.8861685208311059
 30
0.0
 11
4179.2142479611729868
 21
89.8861685208311059
 31
0.0
  0
LINE
  5
9CE9
  8
0
 10
4176.9756988985718635
 20
73.3861685210339658
 30
0.0
 11
4167.4882223675722344
 21
73.3861685210339658
 31
0.0
  0
LINE
  5
9CEA
  8
0
 10
4179.8003306587479528
 20
87.8090723239189259
 30
0.0
 11
4164.6636234128436627
 21
87.809104014031675
 31
0.0
  0
ARC
  5
9CEB
  8
0
 10
4180.0529571724791822
 20
-985.7268592700523868
 30
0.0
 40
1089.6200131769419386
 50
90.4112759900101253
 51
90.8677244570534413
  0
ARC
  5
9CEC
  8
0
 10
4163.5554470786673846
 20
103.6429517546025068
 30
0.0
 40
0.1253034787745525
 50
91.724800867100825
 51
178.2436363291650139
  0
LINE
  5
9CED
  8
0
 10
4163.4302024683620402
 20
103.6467922471122023
 30
0.0
 11
4163.4845864768276442
 21
102.0819534042912977
 31
0.0
  0
ARC
  5
9CEE
  8
0
 10
4163.6045123874109777
 20
102.0861684942483976
 30
0.0
 40
0.1199999625523846
 50
182.0129719201144098
 51
270.3696645599346198
  0
ARC
  5
9CEF
  8
0
 10
4281.7390947721069097
 20
107.1610696855290001
 30
0.0
 40
117.8727683636650028
 50
182.5259626315107937
 51
185.4873917203213978
  0
ARC
  5
9CF0
  8
0
 10
4184.5013444174974211
 20
96.996420117502467
 30
0.0
 40
20.1253144020411909
 50
183.15355126018909
 51
197.5834957355579036
  0
ARC
  5
9CF1
  8
0
 10
4220.0778538870799821
 20
105.8189530011318027
 30
0.0
 40
56.1943783549429696
 50
183.9313800705012909
 51
188.1039823654813006
  0
ARC
  5
9CF2
  8
0
 10
4199.2981573596025555
 20
102.6449615848944035
 30
0.0
 40
35.175397824034242
 50
187.7570644959961044
 51
193.2212020298433117
  0
ARC
  5
9CF3
  8
0
 10
4175.126445884140594
 20
96.7326868929469867
 30
0.0
 40
10.2946786337243505
 50
191.9564529061613882
 51
210.6670889919435012
  0
ARC
  5
9CF4
  8
0
 10
4174.0037020038616902
 20
451.4309882207653004
 30
0.0
 40
359.8165850542201838
 50
269.0558681261762786
 51
269.7178164573151093
  0
ARC
  5
9CF5
  8
0
 10
4169.4326726482777303
 20
69.6229969416645957
 30
0.0
 40
22.0820423878159495
 50
93.5253692597480466
 51
97.0040979344661167
  0
ARC
  5
9CF6
  8
0
 10
4168.3477258827097103
 20
76.7239266152717931
 30
0.0
 40
14.9032982894776893
 50
96.1930323063635768
 51
99.8914297030268727
  0
ARC
  5
9CF7
  8
0
 10
4166.1099005477517494
 20
89.6907274082014681
 30
0.0
 40
1.744981291876182
 50
100.6433488770618965
 51
105.9528444113321939
  0
ARC
  5
9CF8
  8
0
 10
4165.6917564887980916
 20
91.0674903305319106
 30
0.0
 40
0.3072257419897362
 50
101.539269454107199
 51
158.618987573239508
  0
ARC
  5
9CF9
  8
0
 10
4169.0455040396000186
 20
89.7956306149941668
 30
0.0
 40
3.8940256766083281
 50
159.1831761749577083
 51
174.308572545024191
  0
ARC
  5
9CFA
  8
0
 10
4171.5480047514793114
 20
732.9226155401211145
 30
0.0
 40
641.6999310714635385
 50
269.630749117057178
 51
270.0610366085858232
  0
ARC
  5
9CFB
  8
0
 10
4167.6622692713635843
 20
124.1280275211315001
 30
0.0
 40
32.8929653649659812
 50
267.2683019891691174
 51
269.5649367588379732
  0
ARC
  5
9CFC
  8
0
 10
4166.1349903369309686
 20
93.314032886304517
 30
0.0
 40
2.0419922515690931
 50
256.5023875043228259
 51
268.8672217760203011
  0
ARC
  5
9CFD
  8
0
 10
4165.6645860662747509
 20
91.3580656309190431
 30
0.0
 40
0.030267640938005
 50
155.9702911460076962
 51
258.1671196508481785
  0
ARC
  5
9CFE
  8
0
 10
4165.2306166586231484
 20
90.1791688203968249
 30
0.0
 40
0.0600002993628735
 50
177.4822886111695937
 51
269.9999925989956182
  0
ARC
  5
9CFF
  8
0
 10
4165.7413610048406554
 20
89.9947335157627037
 30
0.0
 40
0.1876964366176009
 50
12.0990071216642896
 51
41.5259203627855911
  0
ARC
  5
9D00
  8
0
 10
4165.9835102740762522
 20
90.0466414319401167
 30
0.0
 40
0.059953922464313
 50
192.0990071216635044
 51
270.0355773155733914
  0
LINE
  5
9D01
  8
0
 10
4165.9835475019399382
 20
89.9866875210339572
 30
0.0
 11
4167.4064451756412382
 21
89.9875710570723157
 31
0.0
  0
ARC
  5
9D02
  8
0
 10
4165.3809867879181184
 20
86.4986721867216346
 30
0.0
 40
4.034215785990213
 50
57.1075474230578024
 51
63.8245375079894188
  0
ARC
  5
9D03
  8
0
 10
4165.2497379444002945
 20
89.6353318851589904
 30
0.0
 40
0.2508369616760153
 50
90.0923747576808438
 51
158.4516934114001003
  0
ARC
  5
9D04
  8
0
 10
4170.6477837701204407
 20
87.5037335336868836
 30
0.0
 40
6.0545090982263252
 50
158.4517595667379908
 51
175.721283917160207
  0
ARC
  5
9D05
  8
0
 10
4164.7985640039833015
 20
87.9413535181635666
 30
0.0
 40
0.1889415107380399
 50
175.7212839171610028
 51
224.482152204084997
  0
ARC
  5
9D06
  8
0
 10
4164.1950407239091874
 20
87.3486422784023091
 30
0.0
 40
0.6569585798923629
 50
33.2560120961817276
 51
44.4821522040856507
  0
ARC
  5
9D07
  8
0
 10
4164.6624641617490852
 20
87.6551686477478142
 30
0.0
 40
0.0979924938494735
 50
2.6914149476520142
 51
33.2560120961824097
  0
LINE
  5
9D08
  8
0
 10
4164.7603485622412336
 20
87.6597700596339564
 30
0.0
 11
4164.7708627144147613
 21
87.4361057783874003
 31
0.0
  0
ARC
  5
9D09
  8
0
 10
4169.8329950555926189
 20
88.4703224388292853
 30
0.0
 40
5.1666999080967644
 50
191.546881552574888
 51
248.8384651393267859
  0
ARC
  5
9D0A
  8
0
 10
4167.8625761332868933
 20
83.4310400608798233
 30
0.0
 40
0.2447742687957148
 50
47.0331211496256927
 51
64.533824252256963
  0
LINE
  5
9D0B
  8
0
 10
4168.0294082706395784
 20
83.6101530995192945
 30
0.0
 11
4167.4183488918843068
 21
73.4603754184029896
 31
0.0
  0
ARC
  5
9D0C
  8
0
 10
4167.4887013781626592
 20
73.4566195632548755
 30
0.0
 40
0.0704526706460385
 50
176.94411801414509
 51
269.6104406494250725
  0
LINE
  5
9D0D
  8
0
 10
4167.6939951718413795
 20
78.5779325978339642
 30
0.0
 11
4167.6845551599399187
 21
78.5744603554339562
 31
0.0
  0
ARC
  5
9D0E
  8
0
 10
4167.6914593269029865
 20
78.5556899440473018
 30
0.0
 40
0.0199998966263775
 50
110.1946235530087961
 51
170.554891806059203
  0
ARC
  5
9D0F
  8
0
 10
4173.5908893410060045
 20
77.5742731833969401
 30
0.0
 40
6.0005060081012704
 50
170.554891806059203
 51
184.474354944113287
  0
ARC
  5
9D10
  8
0
 10
4167.6286097111824347
 20
77.1077166958186808
 30
0.0
 40
0.0199998973851081
 50
184.4743549441116102
 51
244.8346221319798985
  0
LINE
  5
9D11
  8
0
 10
4167.6201051057423683
 20
77.0896151052339604
 30
0.0
 11
4167.6292087540614375
 21
77.0853379707643853
 31
0.0
  0
LINE
  5
9D12
  8
0
 10
4167.6939951718413795
 20
78.5779325978339642
 30
0.0
 11
4167.6292087541323781
 21
77.0853379707311035
 31
0.0
  0
ARC
  5
9D13
  8
0
 10
4167.6711924732881016
 20
77.3607764709904586
 30
0.0
 40
0.0299999999326797
 50
177.5146232923027867
 51
229.7076542549260125
  0
ARC
  5
9D14
  8
0
 10
4167.7119550119414271
 20
78.2998922335339671
 30
0.0
 40
0.0299999999999983
 50
90.842062308856498
 51
177.514623377003403
  0
LINE
  5
9D15
  8
0
 10
4164.4439960677727868
 20
100.4911311336338997
 30
0.0
 11
4164.2740864764718935
 21
100.4646012044838983
 31
0.0
  0
ARC
  5
9D16
  8
0
 10
4164.2770599367422619
 20
100.4444341068695934
 30
0.0
 40
0.0203851242860423
 50
98.3873274935436655
 51
172.9242836656256941
  0
LINE
  5
9D17
  8
0
 10
4164.2568300607763376
 20
100.4469451645339007
 30
0.0
 11
4164.2580495410729782
 21
100.3430657667339005
 31
0.0
  0
ARC
  5
9D18
  8
0
 10
4164.2780457435001153
 20
100.3433057591870039
 30
0.0
 40
0.0199976425580627
 50
180.6876252902825968
 51
270.0590069307679073
  0
LINE
  5
9D19
  8
0
 10
4164.2780663383728097
 20
100.3233081272339007
 30
0.0
 11
4165.4615901447377837
 21
100.3180647391865961
 31
0.0
  0
ARC
  5
9D1A
  8
0
 10
4165.4607515075731499
 20
100.2696761410233961
 30
0.0
 40
0.0483958649523914
 50
46.2599450934207681
 51
89.007089237505383
  0
ARC
  5
9D1B
  8
0
 10
4165.4474962388449057
 20
100.257902148103895
 30
0.0
 40
0.0660825268233842
 50
10.4912600161203393
 51
45.0145040351035703
  0
ARC
  5
9D1C
  8
0
 10
4166.1252117891563103
 20
100.3784511179827064
 30
0.0
 40
0.6222727145791322
 50
190.0429896795604066
 51
239.5220975434642128
  0
ARC
  5
9D1D
  8
0
 10
4166.0653052212610419
 20
100.2824854585661996
 30
0.0
 40
0.5091907259482343
 50
239.8545614711538008
 51
298.9675830294763728
  0
ARC
  5
9D1E
  8
0
 10
4165.9901634616098818
 20
100.3707532292616946
 30
0.0
 40
0.6232321536030769
 50
301.0817639750907233
 51
9.3585195227867413
  0
ARC
  5
9D1F
  8
0
 10
4166.0283342336433634
 20
100.4168914154934953
 30
0.0
 40
0.579402349751748
 50
5.4675528711178041
 51
94.6814690518777837
  0
ARC
  5
9D20
  8
0
 10
4166.0759210969090418
 20
100.4310276922582972
 30
0.0
 40
0.5712665973658262
 50
99.5599292625389154
 51
172.383751590042408
  0
ARC
  5
9D21
  8
0
 10
4165.4540641355179105
 20
100.5136310718197024
 30
0.0
 40
0.0560550287250141
 50
295.1136013110540262
 51
352.9405208894614816
  0
ARC
  5
9D22
  8
0
 10
4165.4620561527817699
 20
100.5010884970863998
 30
0.0
 40
0.0413504873768516
 50
269.221232599432426
 51
292.4616060145963274
  0
LINE
  5
9D23
  8
0
 10
4165.4614941319778154
 20
100.4597418292772062
 30
0.0
 11
4164.2751019177067064
 21
100.4647597569459947
 31
0.0
  0
LINE
  5
9D24
  8
0
 10
4165.981045635371629
 20
100.9943607838338977
 30
0.0
 11
4166.1638710471734157
 21
101.0216408792338996
 31
0.0
  0
LINE
  5
9D25
  8
0
 10
4166.0690129950717164
 20
99.7733612634839631
 30
0.0
 11
4166.271631008771692
 21
99.7782276865339668
 31
0.0
  0
ARC
  5
9D26
  8
0
 10
4166.2566181314250571
 20
100.4033026865650982
 30
0.0
 40
0.6252552615934009
 50
271.375849570141213
 51
98.5304353246461915
  0
LINE
  5
9D27
  8
0
 10
4164.4439960677727868
 20
100.4911311336338997
 30
0.0
 11
4165.5030621008836533
 21
100.4864030414940999
 31
0.0
  0
ARC
  5
9D28
  8
0
 10
4167.7345814309546768
 20
89.9639881403401915
 30
0.0
 40
0.15887294161599
 50
23.4550588777142295
 51
77.6228325044477714
  0
ARC
  5
9D29
  8
0
 10
4167.9847889910588492
 20
90.0616875213639361
 30
0.0
 40
0.1100000004719652
 50
198.2583498087564067
 51
270.0029110660519791
  0
LINE
  5
9D2A
  8
0
 10
4167.9847945799037916
 20
89.9516875210339606
 30
0.0
 11
4169.1415245627049444
 21
89.9516875210339606
 31
0.0
  0
ARC
  5
9D2B
  8
0
 10
4169.1388443013529468
 20
90.0441244544192045
 30
0.0
 40
0.0924757830709105
 50
271.6608583011454812
 51
323.4941059016409781
  0
ARC
  5
9D2C
  8
0
 10
4169.4153087029771996
 20
89.9149603968453732
 30
0.0
 40
0.2153040525362963
 50
108.4746568341089983
 51
159.8551118783491063
  0
LINE
  5
9D2D
  8
0
 10
4166.4157747845320046
 20
89.9869559088372455
 30
0.0
 11
4166.4157747845320046
 21
89.8861685210339658
 31
0.0
  0
LINE
  5
9D2E
  8
0
 10
4167.184890396031733
 20
89.9874334845427768
 30
0.0
 11
4167.184890396031733
 21
89.8861685210339658
 31
0.0
  0
LINE
  5
9D2F
  8
0
 10
4167.9947185626797364
 20
89.9516875210339606
 30
0.0
 11
4167.995418130231883
 21
89.9116875208310944
 31
0.0
  0
LINE
  5
9D30
  8
0
 10
4167.995418130231883
 20
89.9116875208310944
 30
0.0
 11
4169.1387806044322133
 21
89.9116875208310944
 31
0.0
  0
LINE
  5
9D31
  8
0
 10
4169.1387806044322133
 20
89.9116875208310944
 30
0.0
 11
4169.1394788070347204
 21
89.9516875210339606
 31
0.0
  0
ARC
  5
9D32
  8
0
 10
4164.1987827206266957
 20
-1004.6719480123820176
 30
0.0
 40
1108.5661343001800105
 50
89.1361760691462734
 51
89.5848234976819384
  0
ARC
  5
9D33
  8
0
 10
4180.9077549272178658
 20
103.6429517546025068
 30
0.0
 40
0.1253034787745525
 50
1.7563636708350101
 51
88.2751991328992034
  0
LINE
  5
9D34
  8
0
 10
4181.0329995375232102
 20
103.6467922471122023
 30
0.0
 11
4180.9786155290557872
 21
102.0819534042912977
 31
0.0
  0
ARC
  5
9D35
  8
0
 10
4180.8586896184742727
 20
102.0861684942483976
 30
0.0
 40
0.1199999625523846
 50
269.6303354400653802
 51
357.9870280798854765
  0
ARC
  5
9D36
  8
0
 10
4062.7241072337769765
 20
107.1610696855290001
 30
0.0
 40
117.8727683636650028
 50
354.5126082796784885
 51
357.4740373684891779
  0
ARC
  5
9D37
  8
0
 10
4159.9618575883869198
 20
96.996420117502467
 30
0.0
 40
20.1253144020411909
 50
342.4165042644420964
 51
356.84644873981091
  0
ARC
  5
9D38
  8
0
 10
4124.3853481188034493
 20
105.8189530011318027
 30
0.0
 40
56.1943783549429696
 50
351.8960176345187278
 51
356.0686199294987091
  0
ARC
  5
9D39
  8
0
 10
4145.1650446462799664
 20
102.6449615848944035
 30
0.0
 40
35.175397824034242
 50
346.7787979701565746
 51
352.2429355040039241
  0
ARC
  5
9D3A
  8
0
 10
4169.3367561217428374
 20
96.7326868929469867
 30
0.0
 40
10.2946786337243505
 50
329.3329110080564988
 51
348.0435470938385834
  0
ARC
  5
9D3B
  8
0
 10
4170.4595000020226507
 20
451.4309882206152906
 30
0.0
 40
359.816585054070174
 50
270.2821835426848907
 51
270.9441318738237214
  0
ARC
  5
9D3C
  8
0
 10
4175.0305293576047916
 20
69.622996941658343
 30
0.0
 40
22.0820423878222201
 50
82.9959020655338691
 51
86.4746307402519392
  0
ARC
  5
9D3D
  8
0
 10
4176.1154761231737211
 20
76.7239266152717931
 30
0.0
 40
14.9032982894776893
 50
80.1085702969731557
 51
83.8069676936364232
  0
ARC
  5
9D3E
  8
0
 10
4178.3533014581307725
 20
89.6907274082014681
 30
0.0
 40
1.744981291876182
 50
74.0471555886677777
 51
79.3566511229381604
  0
ARC
  5
9D3F
  8
0
 10
4178.7714455170862493
 20
91.0674903305319106
 30
0.0
 40
0.3072257419897362
 50
21.3810124267605097
 51
78.4607305458927868
  0
ARC
  5
9D40
  8
0
 10
4175.4176979662843223
 20
89.7956306149941668
 30
0.0
 40
3.8940256766083281
 50
5.6914274549757726
 51
20.816823825042281
  0
ARC
  5
9D41
  8
0
 10
4172.9151972544050295
 20
732.9226155401211145
 30
0.0
 40
641.6999310714635385
 50
269.9389633914141768
 51
270.369250882942822
  0
ARC
  5
9D42
  8
0
 10
4176.8009327345189377
 20
124.1280275211315001
 30
0.0
 40
32.8929653649659812
 50
270.4350632411620268
 51
272.7316980108308826
  0
ARC
  5
9D43
  8
0
 10
4178.3282116689533723
 20
93.314032886304517
 30
0.0
 40
2.0419922515690931
 50
271.1327782239795852
 51
283.4976124956771173
  0
ARC
  5
9D44
  8
0
 10
4178.798615939607771
 20
91.3580656309190431
 30
0.0
 40
0.030267640938005
 50
281.8328803491518215
 51
24.0297088539923394
  0
ARC
  5
9D45
  8
0
 10
4179.2325735097783763
 20
90.1791732725763353
 30
0.0
 40
0.0600119300475907
 50
270.8862171968420967
 51
2.5129683548165951
  0
ARC
  5
9D46
  8
0
 10
4178.721841001042776
 20
89.9947335157627037
 30
0.0
 40
0.1876964366176009
 50
138.4740796372144018
 51
167.9009928783356997
  0
ARC
  5
9D47
  8
0
 10
4178.4796917318080887
 20
90.0466414319401167
 30
0.0
 40
0.059953922464313
 50
269.9644226844266086
 51
347.900992878336524
  0
LINE
  5
9D48
  8
0
 10
4178.4796545039416742
 20
89.9866875210339572
 30
0.0
 11
4177.0567568302421932
 21
89.9875710570723157
 31
0.0
  0
ARC
  5
9D49
  8
0
 10
4179.0822152179662226
 20
86.4986721867216346
 30
0.0
 40
4.034215785990213
 50
116.1754624920105954
 51
122.8924525769422047
  0
ARC
  5
9D4A
  8
0
 10
4179.2134619273838325
 20
89.6353301792026684
 30
0.0
 40
0.2508395731937276
 50
21.5484899838720985
 51
89.8204569886269155
  0
ARC
  5
9D4B
  8
0
 10
4173.8154182357639002
 20
87.5037335336868836
 30
0.0
 40
6.0545090982263252
 50
4.2787160828397584
 51
21.5482404332619417
  0
ARC
  5
9D4C
  8
0
 10
4179.6646380019010394
 20
87.9413535181635666
 30
0.0
 40
0.1889415107380399
 50
315.5178477959144061
 51
4.2787160828397584
  0
ARC
  5
9D4D
  8
0
 10
4180.2681612819751535
 20
87.3486422784023091
 30
0.0
 40
0.6569585798923629
 50
135.5178477959142924
 51
146.7439879038182085
  0
ARC
  5
9D4E
  8
0
 10
4179.8007378441352557
 20
87.6551686477478142
 30
0.0
 40
0.0979924938494735
 50
146.7439879038176116
 51
177.3085850523480076
  0
LINE
  5
9D4F
  8
0
 10
4179.7028534436421978
 20
87.6597700596339564
 30
0.0
 11
4179.6923392914677606
 21
87.4361057783874003
 31
0.0
  0
ARC
  5
9D50
  8
0
 10
4174.630206950291722
 20
88.4703224388292853
 30
0.0
 40
5.1666999080967644
 50
291.1615348606732141
 51
348.4531184474242878
  0
ARC
  5
9D51
  8
0
 10
4176.6006258725974476
 20
83.4310400608798233
 30
0.0
 40
0.2447742687957148
 50
115.4661757477429944
 51
132.966878850374286
  0
LINE
  5
9D52
  8
0
 10
4176.433793735243853
 20
83.6101530995192945
 30
0.0
 11
4177.0448531139991246
 21
73.4603754184029896
 31
0.0
  0
ARC
  5
9D53
  8
0
 10
4176.9744862598572581
 20
73.4566248241886939
 30
0.0
 40
0.0704667378760191
 50
270.9860327334050112
 51
3.0509876715962059
  0
LINE
  5
9D54
  8
0
 10
4176.7692068340429614
 20
78.5779325978339642
 30
0.0
 11
4176.7786468459416938
 21
78.5744603554339562
 31
0.0
  0
ARC
  5
9D55
  8
0
 10
4176.7717426789804449
 20
78.5556899440473018
 30
0.0
 40
0.0199998966263775
 50
9.4451081939408112
 51
69.8053764469911755
  0
ARC
  5
9D56
  8
0
 10
4170.8723126648783364
 20
77.5742731833969401
 30
0.0
 40
6.0005060081012704
 50
355.5256450558866845
 51
9.4451081939408112
  0
ARC
  5
9D57
  8
0
 10
4176.8345922947009967
 20
77.1077166958186808
 30
0.0
 40
0.0199998973851081
 50
295.165377868020073
 51
355.5256450558882761
  0
LINE
  5
9D58
  8
0
 10
4176.8430969001419726
 20
77.0896151052339604
 30
0.0
 11
4176.8339932518229034
 21
77.0853379707643853
 31
0.0
  0
LINE
  5
9D59
  8
0
 10
4176.7692068340429614
 20
78.5779325978339642
 30
0.0
 11
4176.8339932517519628
 21
77.0853379707311035
 31
0.0
  0
ARC
  5
9D5A
  8
0
 10
4176.7920095325953298
 20
77.3607764709904586
 30
0.0
 40
0.0299999999326797
 50
310.2923457450738738
 51
2.4853767076971218
  0
ARC
  5
9D5B
  8
0
 10
4176.7512469939429138
 20
78.2998922335339671
 30
0.0
 40
0.0299999999999983
 50
2.4853766229966321
 51
89.1579376911435304
  0
ARC
  5
9D5C
  8
0
 10
4176.7286205749278452
 20
89.9639881403401915
 30
0.0
 40
0.15887294161599
 50
102.3771674955522002
 51
156.5449411222857918
  0
ARC
  5
9D5D
  8
0
 10
4176.4784130148245822
 20
90.0616875213639361
 30
0.0
 40
0.1100000004719652
 50
269.9970889339479072
 51
341.7416501912434796
  0
LINE
  5
9D5E
  8
0
 10
4176.4784074259778208
 20
89.9516875210339606
 30
0.0
 11
4175.3216774431793965
 21
89.9516875210339606
 31
0.0
  0
ARC
  5
9D5F
  8
0
 10
4175.3243577045295751
 20
90.0441244544192045
 30
0.0
 40
0.0924757830709105
 50
216.5058940983589935
 51
268.3391416988545188
  0
ARC
  5
9D60
  8
0
 10
4175.0478933029062318
 20
89.9149603968453732
 30
0.0
 40
0.2153040525362963
 50
20.1448881216508511
 51
71.5253431658910159
  0
LINE
  5
9D61
  8
0
 10
4178.0474272213514269
 20
89.9869559088372455
 30
0.0
 11
4178.0474272213514269
 21
89.8861685210339658
 31
0.0
  0
LINE
  5
9D62
  8
0
 10
4177.278311609850789
 20
89.9874334845427768
 30
0.0
 11
4177.278311609850789
 21
89.8861685210339658
 31
0.0
  0
LINE
  5
9D63
  8
0
 10
4176.4684834432036951
 20
89.9516875210339606
 30
0.0
 11
4176.4677838756515484
 21
89.9116875208310944
 31
0.0
  0
LINE
  5
9D64
  8
0
 10
4176.4677838756515484
 20
89.9116875208310944
 30
0.0
 11
4175.3244214014521276
 21
89.9116875208310944
 31
0.0
  0
LINE
  5
9D65
  8
0
 10
4175.3244214014521276
 20
89.9116875208310944
 30
0.0
 11
4175.3237231988478015
 21
89.9516875210339606
 31
0.0
  0
ENDSEC
  0
EOF
