  0
SECTION
  2
HEADER
  9
$ACADVER
  1
AC1009
  9
$INSBASE
 10
4233.1263501657467714
 20
593.3894229394072681
 30
0.0
  9
$EXTMIN
 10
4216.4720697071079485
 20
593.3440783851031028
 30
-0.0015258207003583
  9
$EXTMAX
 10
4233.2661261100311094
 20
631.0401012313968749
 30
0.0000000349246037
  9
$LIMMIN
 10
0.0
 20
0.0
  9
$LIMMAX
 10
11.6929133858000007
 20
8.2677165353999982
  9
$ORTHOMODE
 70
     0
  9
$REGENMODE
 70
     1
  9
$FILLMODE
 70
     1
  9
$QTEXTMODE
 70
     0
  9
$MIRRTEXT
 70
     0
  9
$DRAGMODE
 70
     2
  9
$LTSCALE
 40
0.6431102362
  9
$OSMODE
 70
  2039
  9
$ATTMODE
 70
     1
  9
$TEXTSIZE
 40
0.2
  9
$TRACEWID
 40
0.05
  9
$TEXTSTYLE
  7
STANDARD
  9
$CLAYER
  8
0
  9
$CELTYPE
  6
BYLAYER
  9
$CECOLOR
 62
     1
  9
$DIMSCALE
 40
1.0
  9
$DIMASZ
 40
0.1875
  9
$DIMEXO
 40
0.0625
  9
$DIMDLI
 40
0.4443307087
  9
$DIMRND
 40
0.0
  9
$DIMDLE
 40
0.0
  9
$DIMEXE
 40
0.125
  9
$DIMTP
 40
0.01
  9
$DIMTM
 40
0.01
  9
$DIMTXT
 40
2.0
  9
$DIMCEN
 40
0.1052362205
  9
$DIMTSZ
 40
0.0
  9
$DIMTOL
 70
     1
  9
$DIMLIM
 70
     0
  9
$DIMTIH
 70
     1
  9
$DIMTOH
 70
     1
  9
$DIMSE1
 70
     0
  9
$DIMSE2
 70
     0
  9
$DIMTAD
 70
     0
  9
$DIMZIN
 70
     0
  9
$DIMBLK
  1

  9
$DIMASO
 70
     1
  9
$DIMSHO
 70
     1
  9
$DIMPOST
  1
\X
  9
$DIMAPOST
  1

  9
$DIMALT
 70
     1
  9
$DIMALTD
 70
     2
  9
$DIMALTF
 40
25.3999999999999986
  9
$DIMLFAC
 40
1.0
  9
$DIMTOFL
 70
     0
  9
$DIMTVP
 40
0.0
  9
$DIMTIX
 70
     0
  9
$DIMSOXD
 70
     0
  9
$DIMSAH
 70
     0
  9
$DIMBLK1
  1

  9
$DIMBLK2
  1

  9
$DIMSTYLE
  2
STANDARD
  9
$DIMCLRD
 70
     0
  9
$DIMCLRE
 70
     0
  9
$DIMCLRT
 70
     0
  9
$DIMTFAC
 40
1.0
  9
$DIMGAP
 40
0.09
  9
$LUNITS
 70
     2
  9
$LUPREC
 70
     4
  9
$SKETCHINC
 40
0.1
  9
$FILLETRAD
 40
0.0
  9
$AUNITS
 70
     0
  9
$AUPREC
 70
     0
  9
$MENU
  1
.
  9
$ELEVATION
 40
0.0
  9
$PELEVATION
 40
0.0
  9
$THICKNESS
 40
0.0
  9
$LIMCHECK
 70
     0
  9
$BLIPMODE
 70
     0
  9
$CHAMFERA
 40
0.0
  9
$CHAMFERB
 40
0.0
  9
$SKPOLY
 70
     0
  9
$TDCREATE
 40
2458060.468368056230247
  9
$TDUPDATE
 40
2459297.3908680551685393
  9
$TDINDWG
 40
0.502634375
  9
$TDUSRTIMER
 40
0.502634375
  9
$USRTIMER
 70
     1
  9
$ANGBASE
 50
0.0
  9
$ANGDIR
 70
     0
  9
$PDMODE
 70
     0
  9
$PDSIZE
 40
0.3125
  9
$PLINEWID
 40
0.0
  9
$COORDS
 70
     1
  9
$SPLFRAME
 70
     0
  9
$SPLINETYPE
 70
     6
  9
$SPLINESEGS
 70
     8
  9
$ATTDIA
 70
     1
  9
$ATTREQ
 70
     1
  9
$HANDLING
 70
     1
  9
$HANDSEED
  5
C74D
  9
$SURFTAB1
 70
     6
  9
$SURFTAB2
 70
     6
  9
$SURFTYPE
 70
     6
  9
$SURFU
 70
     6
  9
$SURFV
 70
     6
  9
$UCSNAME
  2

  9
$UCSORG
 10
0.0
 20
0.0
 30
0.0
  9
$UCSXDIR
 10
1.0
 20
0.0
 30
0.0
  9
$UCSYDIR
 10
0.0
 20
1.0
 30
0.0
  9
$PUCSNAME
  2

  9
$PUCSORG
 10
0.0
 20
0.0
 30
0.0
  9
$PUCSXDIR
 10
1.0
 20
0.0
 30
0.0
  9
$PUCSYDIR
 10
0.0
 20
1.0
 30
0.0
  9
$USERI1
 70
     0
  9
$USERI2
 70
     0
  9
$USERI3
 70
     0
  9
$USERI4
 70
     0
  9
$USERI5
 70
     0
  9
$USERR1
 40
0.0
  9
$USERR2
 40
0.0
  9
$USERR3
 40
0.0
  9
$USERR4
 40
0.0
  9
$USERR5
 40
0.0
  9
$WORLDVIEW
 70
     1
  9
$SHADEDGE
 70
     3
  9
$SHADEDIF
 70
    70
  9
$TILEMODE
 70
     1
  9
$MAXACTVP
 70
    64
  9
$PLIMCHECK
 70
     0
  9
$PEXTMIN
 10
1.0000000000000000E+20
 20
1.0000000000000000E+20
 30
1.0000000000000000E+20
  9
$PEXTMAX
 10
-1.0000000000000000E+20
 20
-1.0000000000000000E+20
 30
-1.0000000000000000E+20
  9
$PLIMMIN
 10
0.0
 20
0.0
  9
$PLIMMAX
 10
12.0
 20
9.0
  9
$UNITMODE
 70
     0
  9
$VISRETAIN
 70
     1
  9
$PLINEGEN
 70
     0
  9
$PSLTSCALE
 70
     1
  0
ENDSEC
  0
SECTION
  2
TABLES
  0
TABLE
  2
VPORT
 70
     1
  0
VPORT
  2
*ACTIVE
 70
     0
 10
0.0
 20
0.0
 11
1.0
 21
1.0
 12
-23.372601310180471
 22
50.2443969371562389
 13
0.0
 23
0.0
 14
1.0
 24
1.0
 15
0.0
 25
0.0
 16
0.0
 26
0.0
 36
108.7448548052009016
 17
4248.24169921875
 27
561.94769287109375
 37
0.0
 40
38.009720678579157
 41
2.6486111111111108
 42
50.0
 43
0.0
 44
0.0
 50
0.0
 51
0.0
 71
     0
 72
   100
 73
     1
 74
     1
 75
     0
 76
     0
 77
     0
 78
     0
  0
ENDTAB
  0
TABLE
  2
LTYPE
 70
     2
  0
LTYPE
  2
CONTINUOUS
 70
     0
  3
Solid line
 72
    65
 73
     0
 40
0.0
  0
LTYPE
  2
PHANTOM2
 70
     0
  3
___ _ _ ___ _ _ ___ _ _ ___ _ _
 72
    65
 73
     6
 40
1.25
 49
0.625
 49
-0.125
 49
0.125
 49
-0.125
 49
0.125
 49
-0.125
  0
ENDTAB
  0
TABLE
  2
LAYER
 70
     2
  0
LAYER
  2
0
 70
     0
 62
   255
  6
CONTINUOUS
  0
LAYER
  2
DEFPOINTS
 70
     0
 62
     7
  6
CONTINUOUS
  0
ENDTAB
  0
TABLE
  2
STYLE
 70
     1
  0
STYLE
  2
STANDARD
 70
     0
 40
0.0
 41
0.8
 50
0.0
 71
     0
 42
0.2
  3
txt
  4

  0
ENDTAB
  0
TABLE
  2
VIEW
 70
     0
  0
ENDTAB
  0
TABLE
  2
UCS
 70
     0
  0
ENDTAB
  0
TABLE
  2
APPID
 70
     9
  0
APPID
  2
ACAD
 70
     0
  0
APPID
  2
ACAD_MLEADERVER
 70
     0
  0
APPID
  2
ACAD_EXEMPT_FROM_CAD_STANDARDS
 70
     0
  0
APPID
  2
ACAD_NAV_VCDISPLAY
 70
     0
  0
APPID
  2
ACAECLAYERSTANDARD
 70
     0
  0
APPID
  2
ACCMTRANSPARENCY
 70
     0
  0
APPID
  2
ACAD_DSTYLE_DIMJAG
 70
     0
  0
APPID
  2
ACAD_DSTYLE_DIMTALN
 70
     0
  0
APPID
  2
ACDBATTR
 70
     0
  0
ENDTAB
  0
TABLE
  2
DIMSTYLE
 70
     1
  0
DIMSTYLE
  2
STANDARD
 70
     0
  3

  4

  5

  6

  7

 40
1.0
 41
0.1875
 42
0.0625
 43
0.38
 44
0.125
 45
0.0
 46
0.0
 47
0.01
 48
0.01
140
0.15625
141
0.09
142
0.0
143
25.3999999999999986
144
1.0
145
0.0
146
1.0
147
0.09
 71
     1
 72
     0
 73
     1
 74
     1
 75
     0
 76
     0
 77
     0
 78
     4
170
     0
171
     2
172
     0
173
     0
174
     0
175
     0
176
     0
177
     0
178
     0
  0
ENDTAB
  0
ENDSEC
  0
SECTION
  2
BLOCKS
  0
BLOCK
  8
0
  2
$MODEL_SPACE
 70
     0
 10
0.0
 20
0.0
 30
0.0
  3
$MODEL_SPACE
  1

  0
ENDBLK
  5
21
  8
0
  0
BLOCK
 67
     1
  8
0
  2
$PAPER_SPACE
 70
     0
 10
0.0
 20
0.0
 30
0.0
  3
$PAPER_SPACE
  1

  0
ENDBLK
  5
1D
 67
     1
  8
0
  0
BLOCK
  8
0
  2
_FILLED
 70
     0
 10
0.0
 20
0.0
 30
0.0
  3
_FILLED
  1

  0
SOLID
  5
6471
  8
0
  6
BYBLOCK
 62
     0
 10
0.0
 20
0.0
 30
0.0
 11
-1.0
 21
0.1666666667
 31
0.0
 12
-1.0
 22
-0.1666666667
 32
0.0
 13
-1.0
 23
-0.1666666667
 33
0.0
  0
ENDBLK
  5
6472
  8
0
  6
BYBLOCK
 62
     0
  0
BLOCK
  8
0
  2
A$C873C864F
 70
     0
 10
0.0
 20
0.0
 30
0.0
  3
A$C873C864F
  1

  0
LINE
  5
7255
  8
0
 10
0.6753371649940904
 20
60.1395632600817081
 30
0.0
 11
0.6753371649940904
 21
57.8723476960816967
 31
0.0
  0
LINE
  5
7256
  8
0
 10
0.6753371649940904
 20
57.8723476960816967
 30
0.0
 11
5.714707243794094
 21
57.8723476961816985
 31
0.0
  0
ARC
  5
7257
  8
0
 10
5.7147072437933133
 20
57.9117177748824901
 30
0.0
 40
0.0393700787007845
 50
270.000000001133003
 51
359.9999999988625063
  0
LINE
  5
7258
  8
0
 10
5.7540773224940827
 20
57.9117177748817085
 30
0.0
 11
5.7540773224980049
 21
58.1085681685816979
 31
0.0
  0
LINE
  5
7259
  8
0
 10
5.7540773224980049
 20
58.1085681685816979
 30
0.0
 11
1.0296678736940941
 21
58.1085681685816908
 31
0.0
  0
LINE
  5
725A
  8
0
 10
1.0142664178939489
 20
58.856943228965207
 30
0.0
 11
1.0113430111940851
 21
58.5219539952816987
 31
0.0
  0
LINE
  5
725B
  8
0
 10
1.0113430111940851
 20
58.5219539952816987
 30
0.0
 11
1.1174631492940961
 21
58.5219539952816987
 31
0.0
  0
LINE
  5
725C
  8
0
 10
1.1174631492940961
 20
58.5219539952816987
 30
0.0
 11
1.1174631492940961
 21
58.075918625181707
 31
0.0
  0
ARC
  5
725D
  8
0
 10
1.053635072868274
 20
58.8565995107399189
 30
0.0
 40
0.0393702325418642
 50
90.0001095470532704
 51
179.4752679439559984
  0
LINE
  5
725E
  8
0
 10
1.0536349975940871
 20
58.8959697432817109
 30
0.0
 11
5.6986141356856024
 21
58.8959786242809997
 31
0.0
  0
ARC
  5
725F
  8
0
 10
5.6975816059131574
 20
58.8555828096782108
 30
0.0
 40
0.0404090083416611
 50
1.9292978762098389
 51
88.5358205983131654
  0
LINE
  5
7260
  8
0
 10
1.1675012837889931
 20
58.5335422624979316
 30
0.0
 11
1.167463149294093
 21
58.1355063047817069
 31
0.0
  0
LINE
  5
7261
  8
0
 10
1.0296678736940941
 20
58.4432138378817001
 30
0.0
 11
1.0296738592955419
 21
57.9110312828033997
 31
0.0
  0
ARC
  5
7262
  8
0
 10
1.075696420906268
 20
57.9184933765592405
 30
0.0
 40
0.0466235886696078
 50
189.20978395617351
 51
261.7893273868277788
  0
LINE
  5
7263
  8
0
 10
1.0296678736940941
 20
58.4432138378817001
 30
0.0
 11
1.108408031194088
 21
58.4432138377817125
 31
0.0
  0
ARC
  5
7264
  8
0
 10
1.108408031219084
 20
58.462898877079077
 30
0.0
 40
0.0196850392973715
 50
269.9999999272451987
 51
297.3871074967893264
  0
LINE
  5
7265
  8
0
 10
1.0296678736940941
 20
58.1092359755817114
 30
0.0
 11
1.014879610194086
 21
58.1091262682816989
 31
0.0
  0
ARC
  5
7266
  8
0
 10
1.0153577452169309
 20
58.0446748898777827
 30
0.0
 40
0.0644531519110259
 50
90.425043140736804
 51
181.534792167782598
  0
LINE
  5
7267
  8
0
 10
0.9509277161940872
 20
58.0429485783817114
 30
0.0
 11
0.9509265567940872
 21
57.9773351910816999
 31
0.0
  0
ARC
  5
7268
  8
0
 10
1.0212114631742819
 20
57.9812666245009183
 30
0.0
 40
0.0703923058824181
 50
183.1824646300910047
 51
264.8392153026218239
  0
LINE
  5
7269
  8
0
 10
1.014879609109627
 20
57.9111596751196629
 30
0.0
 11
1.0296738592955419
 21
57.9110312828033997
 31
0.0
  0
LINE
  5
726A
  8
0
 10
0.6753371649940904
 20
58.7581744677817071
 30
0.0
 11
0.8772263254940924
 21
58.7581744676816982
 31
0.0
  0
ARC
  5
726B
  8
0
 10
0.8772263255038411
 20
58.7778595070348331
 30
0.0
 40
0.0196850393531207
 50
269.9999999716210937
 51
293.5291798808643193
  0
LINE
  5
726C
  8
0
 10
0.8721875586940939
 20
58.7581744676841993
 30
0.0
 11
0.8721875587940957
 21
58.5194804143322216
 31
0.0
  0
LINE
  5
726D
  8
0
 10
0.8721875587717705
 20
58.5727747700816721
 30
0.0
 11
1.0117859580900861
 21
58.5727747700816721
 31
0.0
  0
ARC
  5
726E
  8
0
 10
1.0690379523940969
 20
58.482583916581703
 30
0.0
 40
0.314960629900014
 50
128.6821874535004042
 51
179.9999999999988063
  0
LINE
  5
726F
  8
0
 10
0.7540773224940835
 20
58.4825839165817101
 30
0.0
 11
0.7540773224940835
 21
58.2266784047817083
 31
0.0
  0
ARC
  5
7270
  8
0
 10
1.0850248424395801
 20
58.2311065169516979
 30
0.0
 40
0.3309771429199626
 50
180.7665777334202915
 51
251.476641821806794
  0
ARC
  5
7271
  8
0
 10
0.9706127554860159
 20
57.8999067510768626
 30
0.0
 40
0.0196850395080688
 50
0.0000003051724406
 51
61.9275130500561986
  0
LINE
  5
7272
  8
0
 10
0.9902977949940918
 20
57.8999067511817103
 30
0.0
 11
0.9902977951408757
 21
57.8723476960816967
 31
0.0
  0
LINE
  5
7273
  8
0
 10
0.675176286454061
 20
60.1395632600817081
 30
0.0
 11
0.9120838615540662
 21
60.1354280229282878
 31
0.0
  0
ARC
  5
7274
  8
0
 10
0.911396758930735
 20
60.0960639404587766
 30
0.0
 40
0.0393700787233334
 50
0.0000000333692602
 51
88.9999999883823847
  0
LINE
  5
7275
  8
0
 10
0.9509277161940872
 20
60.096063940481713
 30
0.0
 11
0.9509277168185406
 21
59.0238718480817113
 31
0.0
  0
ARC
  5
7276
  8
0
 10
0.475462758165179
 20
59.0238718478047915
 30
0.0
 40
0.4754649586533644
 50
341.3730257812792956
 51
0.0000000333692602
  0
LINE
  5
7277
  8
0
 10
0.926021979094088
 20
58.8720057378817003
 30
0.0
 11
0.9069997628295993
 21
58.8086123118462112
 31
0.0
  0
LINE
  5
7278
  8
0
 10
0.638296157829771
 20
59.0773159168460396
 30
0.0
 11
1.1124875358940891
 21
58.6031245387817066
 31
0.0
  0
ARC
  5
7279
  8
0
 10
0.6206184883047712
 20
59.0596382473210397
 30
0.0
 40
0.0249999999934018
 50
44.9999997915175598
 51
225.000000046434792
  0
LINE
  5
727A
  8
0
 10
0.6029408187940959
 20
59.0419605777817083
 30
0.0
 11
1.11310262646738
 21
58.531789107520531
 31
0.0
  0
ARC
  5
727B
  8
0
 10
1.8076039592511961
 20
58.9571072077981313
 30
0.0
 40
0.5003586730146014
 50
178.030341515863995
 51
221.5764814423397127
  0
ARC
  5
727C
  8
0
 10
1.3325258959540629
 20
58.9734382472817131
 30
0.0
 40
0.0250000000000005
 50
0.0
 51
178.0139237990298966
  0
ARC
  5
727D
  8
0
 10
1.807596799954666
 20
58.9571617552165179
 30
0.0
 40
0.4503651216755895
 50
177.9288417589301048
 51
232.0949657680999962
  0
ARC
  5
727E
  8
0
 10
1.1011372904597461
 20
58.5205999198270206
 30
0.0
 40
0.0163819164634654
 50
4.7412904505838807
 51
43.0801428380712395
  0
ARC
  5
727F
  8
0
 10
1.1238012443982079
 20
58.6144382472959009
 30
0.0
 40
0.0160000000143801
 50
225.00000002553071
 51
267.3023829476222204
  0
LINE
  5
7280
  8
0
 10
1.123048205892601
 20
58.5984559779492429
 30
0.0
 11
1.4210035553918909
 21
58.5984382472816918
 31
0.0
  0
ARC
  5
7281
  8
0
 10
1.4213309425216629
 20
58.6144377363038274
 30
0.0
 40
0.0160028382264591
 50
268.8277573484526215
 51
41.5863258612664524
  0
ARC
  5
7282
  8
0
 10
1.5407379289540151
 20
58.6144382472815693
 30
0.0
 40
0.015999999999864
 50
232.1162523322178117
 51
265.5880121777761929
  0
LINE
  5
7283
  8
0
 10
1.539507086765709
 20
58.598485660422277
 30
0.0
 11
1.6126458780077391
 21
58.5983832921314232
 31
0.0
  0
ARC
  5
7284
  8
0
 10
1.6107087157021731
 20
58.5491652053989071
 30
0.0
 40
0.0492561941222382
 50
353.0304607581268215
 51
87.7460731950778552
  0
ARC
  5
7285
  8
0
 10
1.640302270754062
 20
58.5484382472817018
 30
0.0
 40
0.0199999999999996
 50
180.0
 51
344.7819317667108976
  0
LINE
  5
7286
  8
0
 10
1.620302270754066
 20
58.5484382472817018
 30
0.0
 11
1.5474218812540661
 21
58.5484382472817018
 31
0.0
  0
ARC
  5
7287
  8
0
 10
1.5474218812540661
 20
58.6084382475359433
 30
0.0
 40
0.0600000002542345
 50
241.4473627014768908
 51
270.0000000000003979
  0
ARC
  5
7288
  8
0
 10
1.4766829244540669
 20
58.4784382470838295
 30
0.0
 40
0.0880000001738061
 50
61.4473627014773527
 51
118.5526372989211978
  0
ARC
  5
7289
  8
0
 10
1.4055017978068061
 20
58.6092508419364009
 30
0.0
 40
0.060925107725552
 50
266.5173660851863815
 51
298.5526372989212973
  0
LINE
  5
728A
  8
0
 10
1.401800840804426
 20
58.5484382472817018
 30
0.0
 11
1.1834631492940839
 21
58.5484382472817018
 31
0.0
  0
ARC
  5
728B
  8
0
 10
1.184764487623482
 20
58.5310437918165505
 30
0.0
 40
0.0174430663123401
 50
94.2785215090055289
 51
171.7648713153797928
  0
ARC
  5
728C
  8
0
 10
1.1879995222408151
 20
58.141457136194937
 30
0.0
 40
0.0213811835105999
 50
196.1600195858227096
 51
270.2553356297225946
  0
LINE
  5
728D
  8
0
 10
1.1880948060458669
 20
58.1200761649983093
 30
0.0
 11
1.3460718131114211
 21
58.1479317737041512
 31
0.0
  0
ARC
  5
728E
  8
0
 10
1.133463149355137
 20
58.0759186252101784
 30
0.0
 40
0.0160000000610516
 50
180.0000001019556066
 51
279.9999995842885028
  0
LINE
  5
728F
  8
0
 10
1.1362415200940881
 20
58.0601617010816966
 30
0.0
 11
1.633951184015614
 21
58.1479213396669792
 31
0.0
  0
ARC
  5
7290
  8
0
 10
0.9902977949940918
 20
58.5194804143817109
 30
0.0
 40
0.1181102361999988
 50
180.0000000240073064
 51
289.4712206173390996
  0
LINE
  5
7291
  8
0
 10
1.080483365925303
 20
58.4432138378817001
 30
0.0
 11
1.1174631492940961
 21
58.5010767126831581
 31
0.0
  0
LINE
  5
7292
  8
0
 10
0.6753371649940904
 20
58.7443949401817065
 30
0.0
 11
0.8721875586998635
 21
58.7443949402641792
 31
0.0
  0
LINE
  5
7293
  8
0
 10
1.1674936588561871
 20
58.4684382472817035
 30
0.0
 11
1.168171139004349
 21
58.4684382227816997
 31
0.0
  0
LINE
  5
7294
  8
0
 10
5.733422703742348
 20
58.1085681685816979
 30
0.0
 11
5.733422703742348
 21
58.1477727564668072
 31
0.0
  0
LINE
  5
7295
  8
0
 10
5.7379677076634152
 20
58.8569432289423489
 30
0.0
 11
5.7379677076634152
 21
58.5284382227817019
 31
0.0
  0
LINE
  5
7296
  8
0
 10
0.6753371649940904
 20
58.4496664161817066
 30
0.0
 11
0.3268179697940903
 21
58.1012951768817132
 31
0.0
  0
LINE
  5
7297
  8
0
 10
0.3268179697940903
 20
58.1012951768817132
 30
0.0
 11
0.6753371649940904
 21
58.1012951768817132
 31
0.0
  0
LINE
  5
7298
  8
0
 10
1.168171139004349
 20
58.4684382227816997
 30
0.0
 11
1.22746314929409
 21
58.5284382227817019
 31
0.0
  0
LINE
  5
7299
  8
0
 10
1.22746314929409
 20
58.5284382227817019
 30
0.0
 11
25.744519730214499
 21
58.5284382227817019
 31
0.0
  0
LINE
  5
729A
  8
0
 10
25.8146161857404302
 20
58.528438222781709
 30
0.0
 11
25.9194631492940886
 21
58.5284382227817019
 31
0.0
  0
LINE
  5
729B
  8
0
 10
25.9194631492940886
 20
58.5284382227817019
 30
0.0
 11
25.9794631492940908
 21
58.4684382227816997
 31
0.0
  0
LINE
  5
729C
  8
0
 10
25.9794631492940908
 20
58.4684382227816997
 30
0.0
 11
25.9794631492940908
 21
58.2079382227816993
 31
0.0
  0
LINE
  5
729D
  8
0
 10
25.9794631492940908
 20
58.2079382227816993
 30
0.0
 11
25.9194631492940886
 21
58.1479382227817112
 31
0.0
  0
LINE
  5
729E
  8
0
 10
25.9194631492940886
 20
58.1479382227817112
 30
0.0
 11
25.8294991878730293
 21
58.1479382227817112
 31
0.0
  0
LINE
  5
729F
  8
0
 10
25.7464790758947011
 20
58.1479382227817112
 30
0.0
 11
1.22746314929409
 21
58.1479382227817112
 31
0.0
  0
LINE
  5
72A0
  8
0
 10
1.22746314929409
 20
58.1479382227817112
 30
0.0
 11
1.1674631492940899
 21
58.2079382227816993
 31
0.0
  0
LINE
  5
72A1
  8
0
 10
0.9509277161940904
 20
59.037371819381697
 30
0.0
 11
22.7087072437940911
 21
59.037371819381697
 31
0.0
  0
LINE
  5
72A2
  8
0
 10
23.6142190547940913
 20
59.037371819381697
 30
0.0
 11
26.1712318777940887
 21
59.037371819381697
 31
0.0
  0
LINE
  5
72A3
  8
0
 10
26.1712318777940887
 20
59.037371819381697
 30
0.0
 11
26.1751824304030691
 21
58.5847642664597075
 31
0.0
  0
LINE
  5
72A4
  8
0
 10
5.7379677076634161
 20
58.5886444284817074
 30
0.0
 11
22.7087072437940911
 21
58.5886444284817074
 31
0.0
  0
LINE
  5
72A5
  8
0
 10
5.7540773224940889
 20
58.0199382227817111
 30
0.0
 11
22.7087072437940911
 21
58.0199382227817111
 31
0.0
  0
LINE
  5
72A6
  8
0
 10
23.6142190547940913
 20
58.0199382227817111
 30
0.0
 11
33.5948677150582
 21
58.0199382227816969
 31
0.0
  0
LINE
  5
72A7
  8
0
 10
23.6142190547940913
 20
58.5886444284817074
 30
0.0
 11
25.8492795490145895
 21
58.5847642664597075
 31
0.0
  0
LINE
  5
72A8
  8
0
 10
26.9457602092444795
 20
58.5828607284451124
 30
0.0
 11
33.5947038963118274
 21
58.571317873633042
 31
0.0
  0
LINE
  5
72A9
  8
0
 10
26.1746142824312784
 20
58.6498559355663005
 30
0.0
 11
33.5946829001489533
 21
58.6419865682614372
 31
0.0
  0
LINE
  5
72AA
  8
0
 10
5.7540773224940889
 20
58.1003160118817092
 30
0.0
 11
22.7087072437940911
 21
58.1003160118817092
 31
0.0
  0
LINE
  5
72AB
  8
0
 10
1.167463149294089
 20
58.4684382227816997
 30
0.0
 11
25.9794631492940908
 21
58.4684382227816997
 31
0.0
  0
LINE
  5
72AC
  8
0
 10
25.9794631492940908
 20
58.2079382227816993
 30
0.0
 11
1.1674631492940899
 21
58.2079382227816993
 31
0.0
  0
LINE
  5
72AD
  8
0
 10
5.7379677076634152
 20
58.5356897301817085
 30
0.0
 11
22.7185497633940905
 21
58.5356897301817085
 31
0.0
  0
LINE
  5
72AE
  8
0
 10
22.7087072437940911
 20
58.1341788047619019
 30
0.0
 11
5.7334227037423471
 21
58.1339662415157221
 31
0.0
  0
LINE
  5
72AF
  8
0
 10
25.9794631492857384
 20
58.4809686380793465
 30
0.0
 11
25.9794631492857384
 21
58.220468638079339
 31
0.0
  0
LINE
  5
72B0
  8
0
 10
25.9794631492857491
 20
58.5310843286793485
 30
0.0
 11
25.9794631492857491
 21
58.1587921170791375
 31
0.0
  0
ARC
  5
72B1
  8
0
 10
25.7956411041191913
 20
58.5259663113296824
 30
0.0
 40
0.0511811021386698
 50
98.3673770996775261
 51
184.8741960400178073
  0
ARC
  5
72B2
  8
0
 10
26.1274916997519711
 20
56.2697901327188319
 30
0.0
 40
2.331631883618698
 50
92.6710596132221269
 51
98.3673770996775261
  0
ARC
  5
72B3
  8
0
 10
26.0319190173367616
 20
58.3309130463841683
 30
0.0
 40
0.2682950606548682
 50
72.1376487202055046
 51
92.7956473594863951
  0
ARC
  5
72B4
  8
0
 10
26.0949909450867388
 20
58.5519169014807801
 30
0.0
 40
0.0393700786982634
 50
51.4307763495256935
 51
60.7741851274442624
  0
LINE
  5
72B5
  8
0
 10
26.1195366030950282
 20
58.5826986130908764
 30
0.0
 11
26.22948359928575
 21
58.4862776523793499
 31
0.0
  0
LINE
  5
72B6
  8
0
 10
26.2294835993396909
 20
58.4862776524849366
 30
0.0
 11
26.4752780068857483
 21
58.2404832444793499
 31
0.0
  0
LINE
  5
72B7
  8
0
 10
26.4752780068857483
 20
58.2404832444793499
 30
0.0
 11
26.4994662201857487
 21
58.2112463469793511
 31
0.0
  0
ARC
  5
72B8
  8
0
 10
26.4489731268699693
 20
58.1694724990086982
 30
0.0
 40
0.0655332499336799
 50
278.5500575001042876
 51
39.6015685543997193
  0
ARC
  5
72B9
  8
0
 10
26.1553910916059706
 20
60.7535513382215981
 30
0.0
 40
2.6661941724544689
 50
264.1388685838529113
 51
276.5325164127791027
  0
ARC
  5
72BA
  8
0
 10
25.3361876563792414
 20
54.1489211089324201
 30
0.0
 40
3.9900378010247528
 50
82.121327496527357
 51
83.4953692259228291
  0
ARC
  5
72BB
  8
0
 10
25.7938003761826593
 20
58.1624523484969203
 30
0.0
 40
0.0494971242217133
 50
173.2630472989299903
 51
263.495369225924378
  0
LINE
  5
72BC
  8
0
 10
25.7446450900499215
 20
58.5216175453924521
 30
0.0
 11
25.8231475675857496
 21
58.5292698490793484
 31
0.0
  0
LINE
  5
72BD
  8
0
 10
25.8231475675857496
 20
58.5292698490793484
 30
0.0
 11
25.8229442171857499
 21
58.5411296917793393
 31
0.0
  0
ARC
  5
72BE
  8
0
 10
25.9788438230311698
 20
57.3041450806484107
 30
0.0
 40
1.2467700732013329
 50
90.8762060462555468
 51
97.1832267355969037
  0
ARC
  5
72BF
  8
0
 10
25.9600746353495602
 20
58.5313808541431726
 30
0.0
 40
0.0193907813149533
 50
359.1237939538193018
 51
90.8762060462384369
  0
LINE
  5
72C0
  8
0
 10
25.7446450198712817
 20
58.1682589182348408
 30
0.0
 11
25.8231474967857508
 21
58.1606066087793394
 31
0.0
  0
LINE
  5
72C1
  8
0
 10
25.8231474967857508
 20
58.1606066087793394
 30
0.0
 11
25.8229441455204096
 21
58.1487467651567869
 31
0.0
  0
ARC
  5
72C2
  8
0
 10
25.9788448790026116
 20
59.3856946123996394
 30
0.0
 40
1.2467337388147399
 50
262.8165105826525973
 51
269.1224684238554801
  0
ARC
  5
72C3
  8
0
 10
25.959778109885761
 20
58.1587921170793294
 30
0.0
 40
0.0196850393999775
 50
269.9207493622378138
 51
359.9999999994415134
  0
LINE
  5
72C4
  8
0
 10
26.0188332344876905
 20
58.5553815206107302
 30
0.0
 11
26.0188332348857507
 21
58.1334684934682073
 31
0.0
  0
ARC
  5
72C5
  8
0
 10
26.0306442584857507
 20
58.1334684934793486
 30
0.0
 40
0.0118110236000035
 50
180.0000000540578071
 51
265.4925720990806894
  0
ARC
  5
72C6
  8
0
 10
26.1885936164157904
 20
60.1370844416342791
 30
0.0
 40
2.0216430731432689
 50
265.4925720990806894
 51
277.724294301591101
  0
ARC
  5
72C7
  8
0
 10
26.4445442448226409
 20
58.1738476859523104
 30
0.0
 40
0.0430550005042424
 50
291.4876417508841087
 51
49.0864939390918806
  0
ARC
  5
72C8
  8
0
 10
26.4649217533147016
 20
58.1975329024558476
 30
0.0
 40
0.0118110235235048
 50
48.5401001654650628
 51
134.999995216430591
  0
LINE
  5
72C9
  8
0
 10
26.4565700991857611
 20
58.2058845579793527
 30
0.0
 11
26.4032777562305796
 21
58.1525922239228308
 31
0.0
  0
ARC
  5
72CA
  8
0
 10
26.3933947878586004
 20
58.1660809050069076
 30
0.0
 40
0.0167217696799763
 50
241.3785266124999964
 51
306.2297130293829923
  0
LINE
  5
72CB
  8
0
 10
26.3853847110994515
 20
58.1514024769050124
 30
0.0
 11
26.1412155450138499
 21
58.3952572968935684
 31
0.0
  0
ARC
  5
72CC
  8
0
 10
26.1490446529658591
 20
58.4044881291168778
 30
0.0
 40
0.0121038504145985
 50
141.792742232492202
 51
229.6971373230610141
  0
LINE
  5
72CD
  8
0
 10
26.1395337069149001
 20
58.4119744566594576
 30
0.0
 11
26.1892401241747201
 21
58.4619249555076834
 31
0.0
  0
ARC
  5
72CE
  8
0
 10
26.1808469558904591
 20
58.4702771108312191
 30
0.0
 40
0.0118407673905196
 50
315.140329617413272
 51
43.4752416197377585
  0
LINE
  5
72CF
  8
0
 10
26.1039085942677502
 20
58.5543000752216329
 30
0.0
 11
26.1894394663052985
 21
58.4784240450501329
 31
0.0
  0
ARC
  5
72D0
  8
0
 10
26.0306093004974315
 20
58.5553957873303119
 30
0.0
 40
0.0117760746518997
 50
89.8321541811202451
 51
180.0694141998309021
  0
ARC
  5
72D1
  8
0
 10
26.0295148855383189
 20
58.1818078169053479
 30
0.0
 40
0.3853656481016137
 50
80.735986388322857
 51
89.8321541811202451
  0
ARC
  5
72D2
  8
0
 10
26.0769919857761892
 20
58.5255685715648895
 30
0.0
 40
0.0393700789397603
 50
46.8679692680492224
 51
68.2943136155167849
  0
LINE
  5
72D3
  8
0
 10
26.1495634657857501
 20
58.4047324576793514
 30
0.0
 11
26.2219444749857509
 21
58.4771134667793504
 31
0.0
  0
LINE
  5
72D4
  8
0
 10
26.2219444749857509
 20
58.4771134667793504
 30
0.0
 11
26.4669263522857499
 21
58.2321315894793514
 31
0.0
  0
LINE
  5
72D5
  8
0
 10
26.4669263522857499
 20
58.2321315894793514
 30
0.0
 11
26.3945453429857508
 21
58.1597505801793488
 31
0.0
  0
LINE
  5
72D6
  8
0
 10
26.3945453429857508
 20
58.1597505801793488
 30
0.0
 11
26.1495634657857501
 21
58.4047324576793514
 31
0.0
  0
LINE
  5
72D7
  8
0
 10
26.8062361327201906
 20
58.1588076845395889
 30
0.0
 11
26.8062361327202012
 21
58.5310998961397999
 31
0.0
  0
ARC
  5
72D8
  8
0
 10
26.9900581778867696
 20
58.1639257018892621
 30
0.0
 40
0.0511811021386698
 50
278.3673770996775261
 51
4.8741960400179041
  0
ARC
  5
72D9
  8
0
 10
26.6582075822539686
 20
60.4201018805001127
 30
0.0
 40
2.331631883618698
 50
272.6710596132220985
 51
278.3673770996775261
  0
ARC
  5
72DA
  8
0
 10
26.7545628541017599
 20
58.3788085964181889
 30
0.0
 40
0.2880682284839042
 50
252.3832750492965999
 51
272.4478096986164246
  0
LINE
  5
72DB
  8
0
 10
26.6673795464859786
 20
58.1042500869251768
 30
0.0
 11
26.1751824304030691
 21
58.5847642664597075
 31
0.0
  0
ARC
  5
72DC
  8
0
 10
26.3379559116871
 20
58.5188907124405091
 30
0.0
 40
0.0672351645460424
 50
99.3927110895185706
 51
217.6337821785118081
  0
ARC
  5
72DD
  8
0
 10
26.6303081903999797
 20
55.9363406749973393
 30
0.0
 40
2.6661941724544689
 50
84.1388685838529113
 51
96.5325164127791453
  0
ARC
  5
72DE
  8
0
 10
27.4495116256267018
 20
62.5409709042865174
 30
0.0
 40
3.9900378010247528
 50
262.1213274965272717
 51
263.4953692259219906
  0
ARC
  5
72DF
  8
0
 10
26.9918989058232803
 20
58.5274396647220314
 30
0.0
 40
0.0494971242217133
 50
353.2630472989300188
 51
83.4953692259236533
  0
LINE
  5
72E0
  8
0
 10
27.0410541919560217
 20
58.1682744678264925
 30
0.0
 11
26.9625517144202007
 21
58.1606221641395891
 31
0.0
  0
LINE
  5
72E1
  8
0
 10
26.9625517144202007
 20
58.1606221641395891
 30
0.0
 11
26.9627550648202003
 21
58.148762321439591
 31
0.0
  0
ARC
  5
72E2
  8
0
 10
26.8068554589747698
 20
59.3857469325705267
 30
0.0
 40
1.2467700732013329
 50
270.8762060462562999
 51
277.1832267355969179
  0
ARC
  5
72E3
  8
0
 10
26.8256246466563795
 20
58.158511159075772
 30
0.0
 40
0.0193907813149533
 50
179.1237939538193871
 51
270.8762060462383943
  0
LINE
  5
72E4
  8
0
 10
27.0410542621346508
 20
58.5216330949841108
 30
0.0
 11
26.9625517852201888
 21
58.529285404439598
 31
0.0
  0
LINE
  5
72E5
  8
0
 10
26.9625517852201888
 20
58.529285404439598
 30
0.0
 11
26.96275513648553
 21
58.5411452480621506
 31
0.0
  0
ARC
  5
72E6
  8
0
 10
26.8068544030033316
 20
57.3041974008193122
 30
0.0
 40
1.2467337388147399
 50
82.8165105826534358
 51
89.1224684238554659
  0
ARC
  5
72E7
  8
0
 10
26.8259211721201716
 20
58.5310998961396081
 30
0.0
 40
0.0196850393999775
 50
89.9207493622378138
 51
179.9999999994413997
  0
LINE
  5
72E8
  8
0
 10
26.7668660475182492
 20
58.1345104926082072
 30
0.0
 11
26.7668660471201889
 21
58.5564235197507372
 31
0.0
  0
ARC
  5
72E9
  8
0
 10
26.7550550235201889
 20
58.5564235197395888
 30
0.0
 40
0.0118110236000035
 50
0.0000000540578269
 51
85.4925720990807463
  0
ARC
  5
72EA
  8
0
 10
26.5971056655901492
 20
56.5528075715846583
 30
0.0
 40
2.0216430731432689
 50
85.4925720990807463
 51
97.724294301590291
  0
ARC
  5
72EB
  8
0
 10
26.3411550371832988
 20
58.5160443272666271
 30
0.0
 40
0.0430550005042424
 50
111.4876417508841939
 51
229.0864939390918096
  0
ARC
  5
72EC
  8
0
 10
26.3207775286912415
 20
58.4923591107630898
 30
0.0
 40
0.0118110235235048
 50
228.5401001654649917
 51
314.9999952164307047
  0
LINE
  5
72ED
  8
0
 10
26.3291291828201999
 20
58.484007455239599
 30
0.0
 11
26.38242152577536
 21
58.5372997892961067
 31
0.0
  0
ARC
  5
72EE
  8
0
 10
26.3920476655854195
 20
58.5276736478787001
 30
0.0
 40
0.0136134186092593
 50
52.6082444255165811
 51
134.9999952164272088
  0
LINE
  5
72EF
  8
0
 10
26.4003145709064917
 20
58.5384895363139321
 30
0.0
 11
26.6444837369920897
 21
58.2946347163253691
 31
0.0
  0
LINE
  5
72F0
  8
0
 10
26.6461655750910289
 20
58.2779175565594798
 30
0.0
 11
26.5964591578312302
 21
58.2279670577112611
 31
0.0
  0
ARC
  5
72F1
  8
0
 10
26.6048523261154806
 20
58.2196149023877183
 30
0.0
 40
0.0118407673905196
 50
135.1403296174134141
 51
223.4752416197376874
  0
LINE
  5
72F2
  8
0
 10
26.6817906877382001
 20
58.1355919379973116
 30
0.0
 11
26.5962598157006411
 21
58.2114679681688116
 31
0.0
  0
ARC
  5
72F3
  8
0
 10
26.7550899815085117
 20
58.1344962258886326
 30
0.0
 40
0.0117760746518997
 50
269.8321541811201882
 51
0.0694141998305786
  0
ARC
  5
72F4
  8
0
 10
26.7561843964676314
 20
58.5080841963135896
 30
0.0
 40
0.3853656481016137
 50
260.7359863883227717
 51
269.8321541811193924
  0
ARC
  5
72F5
  8
0
 10
26.7087072962297505
 20
58.164323441654048
 30
0.0
 40
0.0393700789397603
 50
226.8679692680491939
 51
248.2943136155168133
  0
LINE
  5
72F6
  8
0
 10
26.6361358162201896
 20
58.2851595555395932
 30
0.0
 11
26.5637548070201888
 21
58.212778546439587
 31
0.0
  0
LINE
  5
72F7
  8
0
 10
26.5637548070201888
 20
58.212778546439587
 30
0.0
 11
26.3187729297201791
 21
58.4577604237395931
 31
0.0
  0
LINE
  5
72F8
  8
0
 10
26.3187729297201791
 20
58.4577604237395931
 30
0.0
 11
26.3911539390201888
 21
58.5301414330395886
 31
0.0
  0
LINE
  5
72F9
  8
0
 10
26.3911539390201888
 20
58.5301414330395886
 30
0.0
 11
26.6361358162201896
 21
58.2851595555395932
 31
0.0
  0
ARC
  5
72FA
  8
0
 10
26.6322978036563285
 20
58.2849655635366304
 30
0.0
 40
0.0155560112790862
 50
333.058991065585019
 51
38.4308884899919505
  0
LINE
  5
72FB
  8
0
 10
26.4245211917562592
 20
58.1009751650602624
 30
0.0
 11
26.6673795464859786
 21
58.1042500869251768
 31
0.0
  0
LINE
  5
72FC
  8
0
 10
26.8062348027940907
 20
58.5093161727817019
 30
0.0
 11
26.8475322912365293
 21
58.5502673526710709
 31
0.0
  0
LINE
  5
72FD
  8
0
 10
26.8062361327202012
 20
58.5093161727817019
 30
0.0
 11
33.5947223174503122
 21
58.5093161727817019
 31
0.0
  0
LINE
  5
72FE
  8
0
 10
26.8062361327201906
 20
58.2573148428556067
 30
0.0
 11
33.5947971884109222
 21
58.2573161726080713
 31
0.0
  0
LINE
  5
72FF
  8
0
 10
26.8062361327201906
 20
58.2573161727817066
 30
0.0
 11
26.8682348027940883
 21
58.195316172781709
 31
0.0
  0
LINE
  5
7300
  8
0
 10
26.8682348027940883
 20
58.195316172781709
 30
0.0
 11
33.5948156090440193
 21
58.195316172781709
 31
0.0
  0
LINE
  5
7301
  8
0
 10
23.6142190547940913
 20
58.1003160118817092
 30
0.0
 11
25.7532972511268703
 21
58.1003319177894966
 31
0.0
  0
LINE
  5
7302
  8
0
 10
25.7532972511268703
 20
58.1003319177894966
 30
0.0
 11
25.7531466398305788
 21
58.1342169270048288
 31
0.0
  0
LINE
  5
7303
  8
0
 10
26.8062361327201906
 20
58.1835051491817126
 30
0.0
 11
33.4747582815940916
 21
58.1835051491817126
 31
0.0
  0
LINE
  5
7304
  8
0
 10
26.8092348027940908
 20
58.0278122387817135
 30
0.0
 11
33.5948542118293432
 21
58.0653872680280614
 31
0.0
  0
LINE
  5
7305
  8
0
 10
33.4652721446398829
 20
58.2081764698179498
 30
0.0
 11
33.4899680282940935
 21
58.2277242329817213
 31
0.0
  0
LINE
  5
7306
  8
0
 10
33.4899680282940935
 20
58.2277242329817213
 30
0.0
 11
33.5156202823940887
 21
58.195316172781709
 31
0.0
  0
ARC
  5
7307
  8
0
 10
33.4701590886002833
 20
58.2020024947368029
 30
0.0
 40
0.0078740199120118
 50
128.3629997757321917
 51
218.3630001800522962
  0
LINE
  5
7308
  8
0
 10
33.4639851135898567
 20
58.1971155506870303
 30
0.0
 11
33.5446196692619196
 21
58.0952449891013387
 31
0.0
  0
ARC
  5
7309
  8
0
 10
33.5600545677940971
 20
58.1074623182817405
 30
0.0
 40
0.0196850000000232
 50
218.3630000001479061
 51
276.3701149741934273
  0
ARC
  5
730A
  8
0
 10
33.5600545677940971
 20
58.1074623182816765
 30
0.0
 40
0.0196849999999623
 50
276.370114974189903
 51
300.9041420808196108
  0
LINE
  5
730B
  8
0
 10
33.5701648484151818
 20
58.0905720414703879
 30
0.0
 11
33.5815328821944235
 21
58.0993578536819584
 31
0.0
  0
ARC
  5
730C
  8
0
 10
33.5766459380723816
 20
58.1055318287937865
 30
0.0
 40
0.0078740200229471
 50
308.3630000687081747
 51
38.362999895100927
  0
LINE
  5
730D
  8
0
 10
33.5948261364569092
 20
58.1598831019817126
 30
0.0
 11
33.5436669514940888
 21
58.1598831019817126
 31
0.0
  0
LINE
  5
730E
  8
0
 10
33.5436669514940888
 20
58.1598831019817126
 30
0.0
 11
33.5828199132002823
 21
58.1104187728738992
 31
0.0
  0
LINE
  5
730F
  8
0
 10
33.5946594711071498
 20
58.7208438246635893
 30
0.0
 11
33.5948831979908817
 21
57.9678259083871907
 31
0.0
  0
ARC
  5
7310
  8
0
 10
33.6160554640201212
 20
57.9706850187788376
 30
0.0
 40
0.021364441510242
 50
187.6907187323182029
 51
266.7829248274219935
  0
ARC
  5
7311
  8
0
 10
35.1498869915328029
 20
57.9699238677324686
 30
0.0
 40
0.0206190537507428
 50
273.9681997109124723
 51
357.5226529644410789
  0
ARC
  5
7312
  8
0
 10
35.1490199391562399
 20
58.7191191661469603
 30
0.0
 40
0.0215256144249681
 50
4.2351631539504258
 51
83.8824688517112946
  0
ARC
  5
7313
  8
0
 10
33.6143445103925416
 20
58.7208438247101867
 30
0.0
 40
0.0196850392853918
 50
91.4908517835001049
 51
180.0000001356480936
  0
ARC
  5
7314
  8
0
 10
34.3825731215664732
 20
29.3752916133022808
 30
0.0
 40
29.37529114411468
 50
88.5004189337031164
 51
91.4995810614512664
  0
ARC
  5
7315
  8
0
 10
34.3830851996426716
 20
88.1583649058390364
 30
0.0
 40
30.2187772812414508
 50
268.5432566083833876
 51
271.4567433918776942
  0
LINE
  5
7316
  8
0
 10
35.170486774494087
 20
58.7207088381099283
 30
0.0
 11
35.170486774494087
 21
57.9690326216817127
 31
0.0
  0
LINE
  5
7317
  8
0
 10
22.7087072437940911
 20
58.1479382227817112
 30
0.0
 11
22.7087072437940911
 21
56.1859185378817116
 31
0.0
  0
ARC
  5
7318
  8
0
 10
22.7321501675075908
 20
56.1896764221887324
 30
0.0
 40
0.0237422064413117
 50
189.1069968287175129
 51
260.8930030723839195
  0
LINE
  5
7319
  8
0
 10
22.7283922831601117
 20
56.1662334984817093
 30
0.0
 11
23.594534015394089
 21
56.1662334969865071
 31
0.0
  0
ARC
  5
731A
  8
0
 10
23.5920570989779286
 20
56.1883954526145502
 30
0.0
 40
0.0222999415288847
 50
276.3771601032948979
 51
353.6228442486328731
  0
LINE
  5
731B
  8
0
 10
23.6142190547940913
 20
56.1859185378817116
 30
0.0
 11
23.6142190547940913
 21
58.1479382227817112
 31
0.0
  0
LINE
  5
731C
  8
0
 10
26.8089961269859494
 20
58.0933509149937279
 30
0.0
 11
26.8093672475694405
 21
58.0199382227816969
 31
0.0
  0
LINE
  5
731D
  8
0
 10
26.8092348027940908
 20
58.6491828876160426
 30
0.0
 11
26.8092348027940908
 21
58.5965242462208167
 31
0.0
  0
LINE
  5
731E
  8
0
 10
22.7185497633940905
 20
58.5284382227817019
 30
0.0
 11
22.7185497633940905
 21
58.5678083015817066
 31
0.0
  0
LINE
  5
731F
  8
0
 10
22.7087072437940911
 20
58.5678083015817066
 30
0.0
 11
22.7087072437940911
 21
60.5559972779817102
 31
0.0
  0
ARC
  5
7320
  8
0
 10
22.7296765319183791
 20
60.554713029157881
 30
0.0
 40
0.0210085777595914
 50
93.5046609720566977
 51
176.4953390482714042
  0
LINE
  5
7321
  8
0
 10
22.7283922830871106
 20
60.5756823172817107
 30
0.0
 11
23.594534015404431
 21
60.575682317588722
 31
0.0
  0
ARC
  5
7322
  8
0
 10
23.5896515147999395
 20
60.5511147776484933
 30
0.0
 40
0.025048010517172
 50
11.2403817101245398
 51
78.7596176572048563
  0
LINE
  5
7323
  8
0
 10
23.6142190547940913
 20
60.5559972779817102
 30
0.0
 11
23.6142190321365
 21
58.5678083015817066
 31
0.0
  0
LINE
  5
7324
  8
0
 10
23.6142190321365
 20
58.5678083015817066
 30
0.0
 11
22.7087072437940911
 21
58.5678083015817066
 31
0.0
  0
LINE
  5
7325
  8
0
 10
26.1751824304030691
 20
58.5847642664597075
 30
0.0
 11
26.11666626803963
 21
58.5847830462439703
 31
0.0
  0
LINE
  5
7326
  8
0
 62
     1
 10
17.7486523721440896
 20
58.3450827574169608
 30
0.0
 11
78.229885398694023
 21
99.6483125688653786
 31
0.0
  0
ENDBLK
  5
732A
  8
0
  0
BLOCK
  8
0
 62
     1
  2
A$C647C424A
 70
     0
 10
0.0
 20
0.0
 30
0.0
  3
A$C647C424A
  1

  0
LINE
  5
A504
  8
0
 10
194.1499902063852119
 20
135.0960165847833139
 30
0.0
 11
194.1499901974609088
 21
136.4576358326351908
 31
0.0
  0
LINE
  5
A505
  8
0
 10
194.9619901974608922
 20
135.0713495982352015
 30
0.0
 11
194.9619901974608922
 21
136.4576358326351908
 31
0.0
  0
ARC
  5
A506
  8
0
 10
194.5559901974608863
 20
136.4576358326351908
 30
0.0
 40
1.264999999999999
 50
288.7203028918905829
 51
251.279697108107797
  0
ARC
  5
A507
  8
0
 10
194.5559901974608863
 20
136.4576358326351908
 30
0.0
 40
0.5918386707
 50
313.3141256067563063
 51
226.6858743932455127
  0
ARC
  5
A508
  8
0
 10
194.5559901974608863
 20
136.4576358326351908
 30
0.0
 40
0.4085
 50
353.6578962626928728
 51
186.3421037373151989
  0
ARC
  5
A509
  8
0
 10
194.5559901974608863
 20
136.4576358326351908
 30
0.0
 40
0.4060000000000001
 50
0.0
 51
180.0
  0
ARC
  5
A50A
  8
0
 10
194.5559902100162049
 20
134.586274961373789
 30
0.0
 40
0.4297563615613847
 50
60.9506944071648391
 51
119.0493098301673029
  0
ARC
  5
A50B
  8
0
 10
194.4533510766787003
 20
134.8098552216902135
 30
0.0
 40
0.2233296728375274
 50
191.6630367183531973
 51
241.6544406559596041
  0
ARC
  5
A50C
  8
0
 10
194.5559901850465963
 20
134.9889967040471106
 30
0.0
 40
0.4297563617118917
 50
240.9506944079714117
 51
299.049309797510773
  0
ARC
  5
A50D
  8
0
 10
194.666520162210503
 20
134.8038654362462978
 30
0.0
 40
0.2143508016040151
 50
297.2493406181931164
 51
354.6549723760105053
  0
ARC
  5
A50E
  8
0
 10
194.6702049031079866
 20
134.7744729255510947
 30
0.0
 40
0.2099456864295028
 50
2.573039224785989
 51
63.2614667202158074
  0
ARC
  5
A50F
  8
0
 10
194.4383463338324987
 20
134.7791530012706005
 30
0.0
 40
0.2042254388508581
 50
116.4700985288654067
 51
184.0559850848057124
  0
LINE
  5
A510
  8
0
 10
194.4386129452608998
 20
110.7001358326351976
 30
0.0
 11
194.6733674496609012
 21
110.7001358326351976
 31
0.0
  0
LINE
  5
A511
  8
0
 10
194.4386129452608998
 20
110.7451358326351993
 30
0.0
 11
194.6733674496609012
 21
110.7451358326351993
 31
0.0
  0
LINE
  5
A512
  8
0
 10
194.5334901974609068
 20
110.8400130847352045
 30
0.0
 11
194.5334901974609068
 21
110.6052585804352049
 31
0.0
  0
LINE
  5
A513
  8
0
 10
194.5784901974608943
 20
110.6052585804352049
 30
0.0
 11
194.5784901974608943
 21
110.8400130847352045
 31
0.0
  0
ARC
  5
A514
  8
0
 10
194.5559901974608863
 20
109.457635832635205
 30
0.0
 40
3.259998382
 50
280.4018233463636989
 51
259.5981766536361874
  0
ARC
  5
A515
  8
0
 10
194.5559901974608863
 20
109.457635832635205
 30
0.0
 40
2.8064808682999991
 50
282.7059919192585085
 51
257.2940080807414915
  0
ARC
  5
A516
  8
0
 10
194.5559901974608863
 20
109.457635832635205
 30
0.0
 40
1.6005266493000001
 50
295.8022306389298137
 51
244.1977693610701863
  0
ARC
  5
A517
  8
0
 10
194.5559901974608863
 20
109.457635832635205
 30
0.0
 40
0.9251968504000002
 50
359.9210430331003181
 51
180.0789569668995966
  0
ARC
  5
A518
  8
0
 10
194.5559901974608863
 20
110.4339568116351984
 30
0.0
 40
0.4066791696000001
 50
86.8284246558990986
 51
93.1715753441009156
  0
ARC
  5
A519
  8
0
 10
194.5559901974608863
 20
111.0113072240352068
 30
0.0
 40
0.4066715517000001
 50
266.8283651838987112
 51
273.1716348161012888
  0
ARC
  5
A51A
  8
0
 10
194.2672141432252886
 20
110.722635832240897
 30
0.0
 40
0.4067760542495385
 50
356.8291808795776774
 51
3.170819220915265
  0
ARC
  5
A51B
  8
0
 10
194.5559902240144083
 20
110.7226358603737992
 30
0.0
 40
0.183108623461369
 50
309.7693910520183067
 51
230.230647100688202
  0
CIRCLE
  5
A51C
  8
0
 10
194.5559901974608863
 20
110.7226358326352056
 30
0.0
 40
0.156
  0
ARC
  5
A51D
  8
0
 10
194.8447662516963987
 20
110.7226358322407975
 30
0.0
 40
0.406776054249496
 50
176.829180779083913
 51
183.1708191204222942
  0
ARC
  5
A51E
  8
0
 10
194.5569585134722956
 20
110.800867874470498
 30
0.0
 40
0.2487927968534921
 50
241.6600007058179074
 51
269.7805847246248163
  0
ARC
  5
A51F
  8
0
 10
194.5550207282151973
 20
110.8008714022963943
 30
0.0
 40
0.2487964503483045
 50
270.226845108098189
 51
298.3398856682692895
  0
ARC
  5
A520
  8
0
 10
194.551832537451304
 20
110.7477013297940971
 30
0.0
 40
0.1995046737139655
 50
326.3809413288861947
 51
88.8058065395962331
  0
ARC
  5
A521
  8
0
 10
194.5601483306705006
 20
110.7477013297940971
 30
0.0
 40
0.1995046737139655
 50
91.1941934604037243
 51
213.618006380552913
  0
LINE
  5
A522
  8
0
 10
193.8502125409609107
 20
108.1657207021352036
 30
0.0
 11
193.98856104056091
 21
105.9054258971352027
 31
0.0
  0
ARC
  5
A523
  8
0
 10
190.6496681290500135
 20
107.8126235338829986
 30
0.0
 40
3.219963065446835
 50
6.2956451606062718
 51
16.4447283913537916
  0
ARC
  5
A524
  8
0
 10
196.2375420529957069
 20
109.4637880831420063
 30
0.0
 40
2.6067584083576789
 50
180.1632484532993033
 51
196.4831508630390999
  0
ARC
  5
A525
  8
0
 10
194.7058353374744115
 20
105.9443553037341985
 30
0.0
 40
0.718329949056105
 50
183.106628061376
 51
190.2335796584632988
  0
ARC
  5
A526
  8
0
 10
194.5690793765095918
 20
105.9314775042364971
 30
0.0
 40
0.581577822619178
 50
191.3787617605474907
 51
268.7103737194701125
  0
LINE
  5
A527
  8
0
 10
195.2617678539608903
 20
108.1657207021352036
 30
0.0
 11
195.123419354360891
 21
105.9054258971352027
 31
0.0
  0
ARC
  5
A528
  8
0
 10
198.4623122658717875
 20
107.8126235338829986
 30
0.0
 40
3.219963065446835
 50
163.5552716086461942
 51
173.7043548393936874
  0
ARC
  5
A529
  8
0
 10
192.8744383419260942
 20
109.4637880831420063
 30
0.0
 40
2.6067584083576789
 50
343.5168491369609001
 51
359.8367515467007252
  0
ARC
  5
A52A
  8
0
 10
194.4061450574473895
 20
105.9443553037341985
 30
0.0
 40
0.718329949056105
 50
349.7664203415366728
 51
356.8933719386238863
  0
ARC
  5
A52B
  8
0
 10
194.5429010184122092
 20
105.9314775042364971
 30
0.0
 40
0.5815778226191785
 50
271.2896262805298875
 51
348.6212382394525093
  0
ARC
  5
A52C
  8
0
 10
194.5564849447463871
 20
99.4577069072427946
 30
0.0
 40
1.3008898758663521
 50
106.7785151581768019
 51
230.3465288968803861
  0
ARC
  5
A52D
  8
0
 10
194.5564849447463871
 20
99.4577069072427946
 30
0.0
 40
1.3008898758663521
 50
235.3439965703265102
 51
258.8979859526946257
  0
ARC
  5
A52E
  8
0
 10
194.641508862189113
 20
99.462214962139015
 30
0.0
 40
1.0504149662792419
 50
134.2990638955085956
 51
180.2478384764168027
  0
ARC
  5
A52F
  8
0
 10
194.5497901695520113
 20
99.5014907562744497
 30
0.0
 40
0.9596873695669629
 50
182.6170427652737942
 51
207.0410371148250874
  0
LINE
  5
A530
  8
0
 10
194.7095728390609111
 20
100.0676327550352056
 30
0.0
 11
194.4024075558608899
 21
100.0676327550352056
 31
0.0
  0
LINE
  5
A531
  8
0
 10
194.5559901974608863
 20
100.1391327367852
 30
0.0
 11
194.4504534220608889
 21
100.1391327367352062
 31
0.0
  0
LINE
  5
A532
  8
0
 10
194.3959534220608987
 20
100.1436327367351993
 30
0.0
 11
194.7160269728609023
 21
100.1436327367351993
 31
0.0
  0
LINE
  5
A533
  8
0
 10
194.9190864354609118
 20
100.7362135315351992
 30
0.0
 11
194.1928939594608892
 21
100.7362135315351992
 31
0.0
  0
LINE
  5
A534
  8
0
 10
194.9260269728607966
 20
100.5736327367352061
 30
0.0
 11
194.1859534220608907
 21
100.5736327367352061
 31
0.0
  0
LINE
  5
A535
  8
0
 10
194.1809534220608953
 20
100.7215288562351958
 30
0.0
 11
194.1809534220608953
 21
100.5786327367352015
 31
0.0
  0
LINE
  5
A536
  8
0
 10
194.3959534220608987
 20
100.5736327367352061
 30
0.0
 11
194.3959534220608987
 21
100.1436327367351993
 31
0.0
  0
LINE
  5
A537
  8
0
 10
194.462953422060906
 20
100.1436327367351993
 30
0.0
 11
194.462953422060906
 21
100.1391327367411037
 31
0.0
  0
ARC
  5
A538
  8
0
 10
194.5559534220608953
 20
98.9936327538239311
 30
0.0
 40
1.7799999832112741
 50
89.9988162498693782
 51
101.768975912858096
  0
ARC
  5
A539
  8
0
 10
194.4023784136217046
 20
100.0203927739570986
 30
0.0
 40
0.0472399900669299
 50
89.9646543655743045
 51
179.0058738640809111
  0
ARC
  5
A53A
  8
0
 10
194.4504534220608889
 20
100.1036327368351948
 30
0.0
 40
0.0355
 50
90.0
 51
270.0
  0
ARC
  5
A53B
  8
0
 10
194.1959534220659123
 20
100.7215288562334052
 30
0.0
 40
0.0150000000049639
 50
101.7688694802848062
 51
179.9999999932664139
  0
ARC
  5
A53C
  8
0
 10
194.1859534220608907
 20
100.5786327367352015
 30
0.0
 40
0.005
 50
180.0
 51
270.0
  0
LINE
  5
A53D
  8
0
 10
194.3551455341608971
 20
100.0212123832351949
 30
0.0
 11
194.3534955419609105
 21
99.9265794616352139
 31
0.0
  0
ARC
  5
A53E
  8
0
 10
194.5280004505592046
 20
99.9270788887884009
 30
0.0
 40
0.1745056232686829
 50
180.1639781376572955
 51
204.6724191444600081
  0
ARC
  5
A53F
  8
0
 10
194.5740381346168988
 20
99.937031693892763
 30
0.0
 40
0.2207296526699306
 50
202.0307570058942019
 51
265.3099807452524033
  0
ARC
  5
A540
  8
0
 10
186.3952755327246962
 20
98.3845157163820829
 30
0.0
 40
7.3314056773941241
 50
0.0242586681272728
 51
5.3272159610438079
  0
LINE
  5
A541
  8
0
 10
193.7266805539609038
 20
98.3876196850352187
 30
0.0
 11
195.3852998419247911
 21
98.3876197867592168
 31
0.0
  0
ARC
  5
A542
  8
0
 10
191.5156924810167141
 20
98.8708110456668834
 30
0.0
 40
2.1879735981738908
 50
5.0968466269524413
 51
12.5677918868617997
  0
ARC
  5
A543
  8
0
 10
193.4199087161983073
 20
99.2930202687129366
 30
0.0
 40
0.2375240909179707
 50
13.1116126898215803
 51
43.8837310649598393
  0
ARC
  5
A544
  8
0
 10
194.3855743675867132
 20
100.1576680139818052
 30
0.0
 40
0.5579332983102525
 50
111.5239636070666052
 51
118.9964018711400939
  0
ARC
  5
A545
  8
0
 10
194.8086097230030873
 20
99.5012844205570275
 30
0.0
 40
1.3381115672277599
 50
121.2159303701842958
 51
129.7344025332500905
  0
ARC
  5
A546
  8
0
 10
194.014426432741601
 20
100.4494514648004042
 30
0.0
 40
0.1013968875508367
 50
127.1098656495585999
 51
183.8314908060241066
  0
ARC
  5
A547
  8
0
 10
190.4542897276602957
 20
100.4093655740932007
 30
0.0
 40
3.4591268382261791
 50
356.7623311193685254
 51
0.5517490947702186
  0
ARC
  5
A548
  8
0
 10
195.5110124679465002
 20
99.9647480820485157
 30
0.0
 40
1.6223784700322019
 50
171.1623925500531982
 51
177.8364876248988082
  0
ARC
  5
A549
  8
0
 10
291.4861313381866239
 20
97.6258492858539739
 30
0.0
 40
97.6258492750207267
 50
178.5912328579686061
 51
179.5529188984702103
  0
LINE
  5
A54A
  8
0
 10
194.3059901946531056
 20
98.1811620199367638
 30
0.0
 11
194.3059910641609065
 21
98.1981700864352121
 31
0.0
  0
ARC
  5
A54B
  8
0
 10
194.5367516081902011
 20
97.4018055016246933
 30
0.0
 40
0.8413807752161426
 50
88.6897893605902965
 51
102.8555741689190057
  0
ARC
  5
A54C
  8
0
 10
194.3076142885184083
 20
98.198044476051507
 30
0.0
 40
0.0016280771736418
 50
114.1515120697133057
 51
175.5750844260026895
  0
ARC
  5
A54D
  8
0
 10
194.2504882404024897
 20
98.2831056658981623
 30
0.0
 40
0.100859344097785
 50
304.0411845708650276
 51
310.2645999641483172
  0
ARC
  5
A54E
  8
0
 10
194.3771787640154969
 20
98.1194902921916849
 30
0.0
 40
0.1062608561398622
 50
105.0710173847100037
 51
125.365845212098705
  0
ARC
  5
A54F
  8
0
 10
194.0333744355675947
 20
100.0823366212837016
 30
0.0
 40
0.181880754387599
 50
100.6019405529684008
 51
133.6220310997996137
  0
ARC
  5
A550
  8
0
 10
194.5575531569647865
 20
97.1366961850201847
 30
0.0
 40
3.173789842202221
 50
92.9185890133743584
 51
100.1195267578727055
  0
LINE
  5
A551
  8
0
 10
194.4504534220608889
 20
100.0681327368351958
 30
0.0
 11
194.4504534260476021
 21
100.0676327550352056
 31
0.0
  0
ARC
  5
A552
  8
0
 10
194.5554954501753002
 20
99.4577069072427946
 30
0.0
 40
1.3008898758663521
 50
309.6534711031196139
 51
73.2214848418231696
  0
ARC
  5
A553
  8
0
 10
194.5554954501753002
 20
99.4577069072427946
 30
0.0
 40
1.3008898758663521
 50
281.1020140473053175
 51
304.6560104529340265
  0
ARC
  5
A554
  8
0
 10
194.470471532732688
 20
99.462214962139015
 30
0.0
 40
1.0504149662792419
 50
359.7521615235830836
 51
45.7009361044913902
  0
ARC
  5
A555
  8
0
 10
194.5621902253697897
 20
99.5014907562744497
 30
0.0
 40
0.9596873695669629
 50
332.9589628851749126
 51
357.3829572347261774
  0
LINE
  5
A556
  8
0
 10
194.5559901974608863
 20
100.1391327367852
 30
0.0
 11
194.6615269728609121
 21
100.1391327367352062
 31
0.0
  0
LINE
  5
A557
  8
0
 10
194.9310269728609057
 20
100.7215288562351958
 30
0.0
 11
194.9310269728609057
 21
100.5786327367352015
 31
0.0
  0
LINE
  5
A558
  8
0
 10
194.7160269728609023
 20
100.5736327367352061
 30
0.0
 11
194.7160269728609023
 21
100.1436327367351993
 31
0.0
  0
LINE
  5
A559
  8
0
 10
194.6490269728608951
 20
100.1436327367351993
 30
0.0
 11
194.6490269728608951
 21
100.1391327367411037
 31
0.0
  0
ARC
  5
A55A
  8
0
 10
194.5560269728609057
 20
98.9936327538239311
 30
0.0
 40
1.7799999832112741
 50
78.2310240871402698
 51
90.0011837501306076
  0
ARC
  5
A55B
  8
0
 10
194.7096019813000964
 20
100.0203927739570986
 30
0.0
 40
0.0472399900669299
 50
0.9941261359190418
 51
90.0353456344256955
  0
ARC
  5
A55C
  8
0
 10
194.6615269728609121
 20
100.1036327368351948
 30
0.0
 40
0.0355
 50
270.0
 51
90.0
  0
ARC
  5
A55D
  8
0
 10
194.9160269728558035
 20
100.7215288562334052
 30
0.0
 40
0.0150000000049639
 50
0.0000000067336159
 51
78.2311305197151938
  0
ARC
  5
A55E
  8
0
 10
194.9260269728607966
 20
100.5786327367352015
 30
0.0
 40
0.005
 50
270.0
 51
0.0
  0
LINE
  5
A55F
  8
0
 10
194.7568348607609039
 20
100.0212123832351949
 30
0.0
 11
194.7584848529608905
 21
99.9265794616352139
 31
0.0
  0
ARC
  5
A560
  8
0
 10
194.5839799443625111
 20
99.9270788887884009
 30
0.0
 40
0.1745056232686829
 50
335.3275808555399067
 51
359.8360218623427045
  0
ARC
  5
A561
  8
0
 10
194.5379422603049022
 20
99.937031693892763
 30
0.0
 40
0.2207296526699306
 50
274.690019254747483
 51
337.9692429941057981
  0
ARC
  5
A562
  8
0
 10
202.7167048621971048
 20
98.3845157163820829
 30
0.0
 40
7.3314056773941241
 50
174.6727840389561948
 51
179.9757413318727117
  0
ARC
  5
A563
  8
0
 10
197.5962879139050017
 20
98.8708110456668834
 30
0.0
 40
2.1879735981738908
 50
167.4322081131381879
 51
174.9031533730475871
  0
ARC
  5
A564
  8
0
 10
195.6920716787234937
 20
99.2930202687129366
 30
0.0
 40
0.2375240909179707
 50
136.1162689350400967
 51
166.8883873101783877
  0
ARC
  5
A565
  8
0
 10
194.7264060273350026
 20
100.1576680139818052
 30
0.0
 40
0.5579332983102525
 50
61.003598128859899
 51
68.476036392933338
  0
ARC
  5
A566
  8
0
 10
194.3033706719187137
 20
99.5012844205570275
 30
0.0
 40
1.3381115672277599
 50
50.2655974667498668
 51
58.7840696298156686
  0
ARC
  5
A567
  8
0
 10
195.0975539621802
 20
100.4494514648004042
 30
0.0
 40
0.1013968875508367
 50
356.1685091939759218
 51
52.8901343504414285
  0
ARC
  5
A568
  8
0
 10
198.6576906672615053
 20
100.4093655740932007
 30
0.0
 40
3.4591268382261791
 50
179.4482509052297985
 51
183.2376688806313894
  0
ARC
  5
A569
  8
0
 10
193.6009679269751871
 20
99.9647480820485157
 30
0.0
 40
1.6223784700322019
 50
2.1635123751012189
 51
8.8376074499467911
  0
ARC
  5
A56A
  8
0
 10
97.6258490567352766
 20
97.6258492858539739
 30
0.0
 40
97.6258492750207267
 50
0.4470811514007517
 51
1.408767142031349
  0
LINE
  5
A56B
  8
0
 10
194.8059902002686954
 20
98.1811620199367638
 30
0.0
 11
194.8059893307608945
 21
98.1981700864352121
 31
0.0
  0
ARC
  5
A56C
  8
0
 10
194.5752287867314863
 20
97.4018055016246933
 30
0.0
 40
0.8413807752161426
 50
77.1444258310809943
 51
91.3102106394097319
  0
ARC
  5
A56D
  8
0
 10
194.8043661064033927
 20
98.198044476051507
 30
0.0
 40
0.0016280771736418
 50
4.4249155739973096
 51
65.8484879302870354
  0
ARC
  5
A56E
  8
0
 10
194.8614921545193113
 20
98.2831056658981623
 30
0.0
 40
0.100859344097785
 50
229.7354000358517965
 51
235.9588154291350008
  0
ARC
  5
A56F
  8
0
 10
194.7348016309063041
 20
98.1194902921916849
 30
0.0
 40
0.1062608561398622
 50
54.6341547879012595
 51
74.9289826152899536
  0
ARC
  5
A570
  8
0
 10
195.0786059593540926
 20
100.0823366212837016
 30
0.0
 40
0.181880754387599
 50
46.3779689002004005
 51
79.398059447031514
  0
ARC
  5
A571
  8
0
 10
194.5544272379569861
 20
97.1366961850201847
 30
0.0
 40
3.173789842202221
 50
79.8804732421273087
 51
87.0814109866256274
  0
LINE
  5
A572
  8
0
 10
194.6615269728609121
 20
100.0681327368351958
 30
0.0
 11
194.6615269688741989
 21
100.0676327550352056
 31
0.0
  0
ARC
  5
A573
  8
0
 10
194.5516208736300996
 20
134.5884103339454896
 30
0.0
 40
0.4467342392071238
 50
89.4396046142427963
 51
122.9705613066361991
  0
ARC
  5
A574
  8
0
 10
194.4288338778800949
 20
134.8002851858011013
 30
0.0
 40
0.2233421086292355
 50
183.2468432400966094
 51
239.4676003952978078
  0
ARC
  5
A575
  8
0
 10
194.5644713490995912
 20
134.997767548288607
 30
0.0
 40
0.462643737406887
 50
237.4232190630675916
 51
252.9840620182430087
  0
ARC
  5
A576
  8
0
 10
194.4283958380952129
 20
134.7753027245572071
 30
0.0
 40
0.22288702298261
 50
122.5409203708711061
 51
176.8280706193465051
  0
ARC
  5
A577
  8
0
 10
194.5652234354627979
 20
134.587800198807912
 30
0.0
 40
0.5253873005719339
 50
91.006976764819413
 51
116.451474359550204
  0
ARC
  5
A578
  8
0
 10
194.3687337166834936
 20
134.8237588429498999
 30
0.0
 40
0.2067398052786463
 50
164.1900368196407101
 51
206.1501041741665006
  0
ARC
  5
A579
  8
0
 10
194.456352683325207
 20
134.8719941124562069
 30
0.0
 40
0.3066845149503046
 50
207.024885404907991
 51
241.5430958064195863
  0
ARC
  5
A57A
  8
0
 10
194.5514598985990915
 20
135.0387966388142047
 30
0.0
 40
0.4986687584010424
 50
241.067994662009994
 51
270.5205270452203195
  0
ARC
  5
A57B
  8
0
 10
194.4586600387158057
 20
134.7805224127858139
 30
0.0
 40
0.305522881586703
 50
114.6581069673995046
 51
160.9814213815892003
  0
ARC
  5
A57C
  8
0
 10
194.5621438683907058
 20
134.6207199813119075
 30
0.0
 40
0.5281638659464796
 50
90.6675718900143153
 51
119.9616781137109029
  0
ARC
  5
A57D
  8
0
 10
194.4312633315996948
 20
134.8283759701799056
 30
0.0
 40
0.2830602877171024
 50
118.0015246234018065
 51
172.6584891534099029
  0
ARC
  5
A57E
  8
0
 10
194.5634296239595926
 20
134.628177000901502
 30
0.0
 40
0.5363426161963499
 50
90.7947558084874089
 51
115.7454937224737961
  0
ARC
  5
A57F
  8
0
 10
194.3850855703028913
 20
134.860749019511502
 30
0.0
 40
0.2353600471132266
 50
147.1127554789246972
 51
174.8800386662591961
  0
ARC
  5
A580
  8
0
 10
194.2364489331681057
 20
134.8724457241241907
 30
0.0
 40
0.086287741144623
 50
173.8079399367358917
 51
185.2526242636816107
  0
ARC
  5
A581
  8
0
 10
194.4756729735728129
 20
134.7973778773254026
 30
0.0
 40
0.3458631722864165
 50
114.8262508210295039
 51
146.4455433252765033
  0
ARC
  5
A582
  8
0
 10
194.5627920173986922
 20
134.6617696752516906
 30
0.0
 40
0.5364252464244819
 50
90.726524379433755
 51
115.7445290646317062
  0
ARC
  5
A583
  8
0
 10
194.3893358293960887
 20
134.8942015155085983
 30
0.0
 40
0.2396194469953505
 50
147.7071052297449114
 51
175.2888724588601121
  0
ARC
  5
A584
  8
0
 10
194.3641799632291907
 20
134.8987391365319866
 30
0.0
 40
0.2141899702930413
 50
175.945916504536001
 51
184.5486032421706
  0
ARC
  5
A585
  8
0
 10
194.475007609552307
 20
134.8310489023837988
 30
0.0
 40
0.3458631722864165
 50
114.8262508210295039
 51
146.4455433252765033
  0
ARC
  5
A586
  8
0
 10
194.5623974922444006
 20
134.6790983296316142
 30
0.0
 40
0.536513314634375
 50
90.684269460093347
 51
115.7435012507185945
  0
ARC
  5
A587
  8
0
 10
194.3835858309892046
 20
134.9124239437281005
 30
0.0
 40
0.2337945753325481
 50
147.1774283136026895
 51
175.2285750113275924
  0
ARC
  5
A588
  8
0
 10
194.239895970816292
 20
134.9225014898418067
 30
0.0
 40
0.089784728202661
 50
174.0098643842578952
 51
185.5090069757121114
  0
ARC
  5
A589
  8
0
 10
194.4682985905365058
 20
134.8582391476709859
 30
0.0
 40
0.3343537172894863
 50
114.5523114801062974
 51
147.243108699939711
  0
ARC
  5
A58A
  8
0
 10
194.5634296244134021
 20
134.7111645567453877
 30
0.0
 40
0.5363426161963499
 50
90.7947558084874089
 51
115.7454937224737961
  0
ARC
  5
A58B
  8
0
 10
194.3840549209463973
 20
134.9442945486759982
 30
0.0
 40
0.2341916136125466
 50
147.0904731699635875
 51
177.4658259185829081
  0
ARC
  5
A58C
  8
0
 10
194.3198671600162868
 20
134.9470493949702927
 30
0.0
 40
0.1699448420461295
 50
177.4368563508967043
 51
185.1240637660606865
  0
ARC
  5
A58D
  8
0
 10
194.4756729740265939
 20
134.880365433169402
 30
0.0
 40
0.3458631722864165
 50
114.8262508210295039
 51
146.4455433252765033
  0
ARC
  5
A58E
  8
0
 10
194.5634296239595074
 20
134.7303877284014959
 30
0.0
 40
0.5363426161963499
 50
90.7947558084874089
 51
115.7454937224737961
  0
ARC
  5
A58F
  8
0
 10
194.3851712766712865
 20
134.9629180462345062
 30
0.0
 40
0.2354546615280323
 50
147.1155586813185892
 51
175.2726760402657078
  0
ARC
  5
A590
  8
0
 10
194.6059348382750898
 20
134.9614846013888041
 30
0.0
 40
0.4558937408677667
 50
177.3801910575984948
 51
180.8590670894681978
  0
ARC
  5
A591
  8
0
 10
194.4756729735726992
 20
134.8995886048253965
 30
0.0
 40
0.3458631722864165
 50
114.8262508210295039
 51
146.4455433252765033
  0
ARC
  5
A592
  8
0
 10
194.5634296239595074
 20
134.7604683762014872
 30
0.0
 40
0.5363426161963499
 50
90.7947558084874089
 51
115.7454937224737961
  0
ARC
  5
A593
  8
0
 10
194.3787789864541935
 20
134.9952786790358914
 30
0.0
 40
0.2288540051567563
 50
146.7259926982752063
 51
178.6321253260919093
  0
ARC
  5
A594
  8
0
 10
194.3764914996017126
 20
134.998010084383111
 30
0.0
 40
0.2265177744681313
 50
179.3090182121883061
 51
183.971157178327104
  0
ARC
  5
A595
  8
0
 10
194.4756729735726992
 20
134.9296692526253878
 30
0.0
 40
0.3458631722864165
 50
114.8262508210295039
 51
146.4455433252765033
  0
ARC
  5
A596
  8
0
 10
194.5634296239595074
 20
134.7814930922014867
 30
0.0
 40
0.5363426161963499
 50
90.7947558084874089
 51
115.7454937224737961
  0
ARC
  5
A597
  8
0
 10
194.3844822638025107
 20
135.0143586520073029
 30
0.0
 40
0.2346940508532161
 50
147.0929591533636085
 51
175.6216007901358864
  0
ARC
  5
A598
  8
0
 10
194.5119237708011894
 20
135.0109695479497134
 30
0.0
 40
0.3620780555459563
 50
176.6264970091357043
 51
181.6186693830111949
  0
ARC
  5
A599
  8
0
 10
194.4756729735726992
 20
134.9506939686253872
 30
0.0
 40
0.3458631722864165
 50
114.8262508210295039
 51
146.4455433252765033
  0
ARC
  5
A59A
  8
0
 10
194.5634296239595074
 20
134.8097721754014913
 30
0.0
 40
0.5363426161963499
 50
90.7947558084874089
 51
115.7454937224737961
  0
ARC
  5
A59B
  8
0
 10
194.3829484330790081
 20
135.0433245618449973
 30
0.0
 40
0.2330333223066435
 50
147.0298521997079035
 51
178.2447397504556932
  0
ARC
  5
A59C
  8
0
 10
194.3640558069718054
 20
135.0466441297371034
 30
0.0
 40
0.2140654094779535
 50
178.9779548071300042
 51
183.848620803087897
  0
ARC
  5
A59D
  8
0
 10
194.4756729735726992
 20
134.9789730518253918
 30
0.0
 40
0.3458631722864165
 50
114.8262508210295039
 51
146.4455433252765033
  0
ARC
  5
A59E
  8
0
 10
194.5634296239595074
 20
134.8325984559014898
 30
0.0
 40
0.5363426161963499
 50
90.7947558084874089
 51
115.7454937224737961
  0
ARC
  5
A59F
  8
0
 10
194.385085570302806
 20
135.0651704745114898
 30
0.0
 40
0.2353600471132266
 50
147.1127554789246972
 51
174.8800386662591961
  0
ARC
  5
A5A0
  8
0
 10
194.4717311347181123
 20
135.0625574098760069
 30
0.0
 40
0.3219339633898441
 50
175.7930333642113112
 51
182.1530937297287949
  0
ARC
  5
A5A1
  8
0
 10
194.4756729735726992
 20
135.0017993323253904
 30
0.0
 40
0.3458631722864165
 50
114.8262508210295039
 51
146.4455433252765033
  0
ARC
  5
A5A2
  8
0
 10
194.5634296239595074
 20
134.8590759746014953
 30
0.0
 40
0.5363426161963499
 50
90.7947558084874089
 51
115.7454937224737961
  0
ARC
  5
A5A3
  8
0
 10
194.385085570302806
 20
135.0916479932114953
 30
0.0
 40
0.2353600471132266
 50
147.1127554789246972
 51
174.8800386662591961
  0
ARC
  5
A5A4
  8
0
 10
194.376699153678004
 20
135.0951570657099126
 30
0.0
 40
0.2267105766294478
 50
175.5742086849398902
 51
179.7827761985016934
  0
ARC
  5
A5A5
  8
0
 10
194.4756729735726992
 20
135.0282768510253959
 30
0.0
 40
0.3458631722864165
 50
114.8262508210295039
 51
146.4455433252765033
  0
ARC
  5
A5A6
  8
0
 10
194.3642722719071116
 20
135.0959586062699884
 30
0.0
 40
0.2142820733655332
 50
179.9844974238804127
 51
183.6293050552060038
  0
ARC
  5
A5A7
  8
0
 10
194.3715596267308001
 20
134.8492411895354053
 30
0.0
 40
0.2215653401832249
 50
176.0390090372196994
 51
211.7520794445773902
  0
ARC
  5
A5A8
  8
0
 10
194.5705954244658926
 20
134.6865370675928091
 30
0.0
 40
0.5292378823704232
 50
65.9707909438645146
 51
91.5813760647545649
  0
ARC
  5
A5A9
  8
0
 10
194.7636721900950079
 20
134.9410606822785894
 30
0.0
 40
0.1983094951708628
 50
4.5936139599196926
 51
27.6145247538524217
  0
ARC
  5
A5AA
  8
0
 10
194.7063880934232998
 20
134.9381660820941988
 30
0.0
 40
0.255647075467141
 50
358.0736689402041861
 51
4.2120555319435571
  0
ARC
  5
A5AB
  8
0
 10
194.6623352507729976
 20
134.8770888472103024
 30
0.0
 40
0.3179034273924465
 50
29.3653342375844097
 51
67.0876295075121192
  0
ARC
  5
A5AC
  8
0
 10
194.5706482739136902
 20
134.6742770388588895
 30
0.0
 40
0.5240797850950083
 50
65.856059228191171
 51
91.602724389137677
  0
ARC
  5
A5AD
  8
0
 10
194.7554930877664106
 20
134.9214960193137927
 30
0.0
 40
0.2065555722276753
 50
2.240918057248269
 51
32.9203036981268724
  0
ARC
  5
A5AE
  8
0
 10
194.7697274504247105
 20
134.9233957701646887
 30
0.0
 40
0.1922624940427624
 50
355.254721669293076
 51
1.841073146813891
  0
ARC
  5
A5AF
  8
0
 10
194.6592465043756022
 20
134.8536277957535106
 30
0.0
 40
0.3242655912954258
 50
33.7442779521390719
 51
67.1792281507952538
  0
ARC
  5
A5B0
  8
0
 10
194.5729558995790001
 20
134.6008181073584922
 30
0.0
 40
0.5125691063421368
 50
65.5616500413823218
 51
91.8967992739122934
  0
ARC
  5
A5B1
  8
0
 10
194.7554099734784074
 20
134.8362229722592076
 30
0.0
 40
0.2068404915951987
 50
5.7291639336047631
 51
27.2773730102350918
  0
ARC
  5
A5B2
  8
0
 10
194.732251970400597
 20
134.8327049850740025
 30
0.0
 40
0.2302370735041948
 50
337.9081146754840006
 51
6.0249645345717182
  0
ARC
  5
A5B3
  8
0
 10
194.6665945702426086
 20
134.7782108668621959
 30
0.0
 40
0.3125549621891796
 50
29.2680321039154911
 51
67.7361779952717455
  0
ARC
  5
A5B4
  8
0
 10
194.5706488662185905
 20
134.6249762118889919
 30
0.0
 40
0.5240768306943266
 50
65.8559854104356504
 51
91.6027982068926434
  0
ARC
  5
A5B5
  8
0
 10
194.757249682522513
 20
134.872161910746911
 30
0.0
 40
0.2048531709990511
 50
4.6658679247123622
 51
27.4649457511442208
  0
ARC
  5
A5B6
  8
0
 10
194.7698452444267048
 20
134.8740869398561983
 30
0.0
 40
0.1921448395333502
 50
354.8594987531301967
 51
4.3992647945781416
  0
ARC
  5
A5B7
  8
0
 10
194.6634091110987868
 20
134.810962573776294
 30
0.0
 40
0.3165347144036976
 50
29.4604234982348885
 51
67.4076623552650602
  0
ARC
  5
A5B8
  8
0
 10
194.56990344385909
 20
134.6271377624289016
 30
0.0
 40
0.5375103569627333
 50
66.1805108683367251
 51
91.4832446176215655
  0
ARC
  5
A5B9
  8
0
 10
194.7490518876645922
 20
134.8858145501544072
 30
0.0
 40
0.2133828609302064
 50
5.8303409888583886
 51
36.243816599478123
  0
ARC
  5
A5BA
  8
0
 10
194.863115213691799
 20
134.8976683160069001
 30
0.0
 40
0.0987056496740818
 50
354.8601951398209735
 51
5.7110319214823058
  0
ARC
  5
A5BB
  8
0
 10
194.6511816351103903
 20
134.8107706901319887
 30
0.0
 40
0.3366941808760578
 50
36.6965454490054697
 51
66.2134824824225774
  0
ARC
  5
A5BC
  8
0
 10
194.5703024772026879
 20
134.7194049544270058
 30
0.0
 40
0.5282445454877261
 50
65.9583222400236338
 51
91.5525641823883944
  0
ARC
  5
A5BD
  8
0
 10
194.7576922221691973
 20
134.9710397494895062
 30
0.0
 40
0.2043721901415065
 50
1.544135047454855
 51
27.393728898550151
  0
ARC
  5
A5BE
  8
0
 10
194.7535178378095111
 20
134.973598816264996
 30
0.0
 40
0.2084932044569923
 50
355.4179126221486058
 51
0.8102036975610113
  0
ARC
  5
A5BF
  8
0
 10
194.6619010841733939
 20
134.9082727232022023
 30
0.0
 40
0.3185144408848706
 50
29.4907389927954213
 51
67.1649750540791217
  0
ARC
  5
A5C0
  8
0
 10
194.5712456931215115
 20
134.7455203466664955
 30
0.0
 40
0.5213816343439845
 50
65.7881564434473489
 51
91.6766994213696194
  0
ARC
  5
A5C1
  8
0
 10
194.7578422060290109
 20
134.9905088213355953
 30
0.0
 40
0.2042502557868056
 50
4.6699849273058582
 51
27.4056377060198493
  0
ARC
  5
A5C2
  8
0
 10
194.5551797566405128
 20
134.9841906700160052
 30
0.0
 40
0.4068822446671395
 50
358.9235756748315112
 51
3.2331006801926412
  0
ARC
  5
A5C3
  8
0
 10
194.6648442621037134
 20
134.9300965388272004
 30
0.0
 40
0.314804268356702
 50
29.376490358459499
 51
67.548120171076306
  0
ARC
  5
A5C4
  8
0
 10
194.5706840955527923
 20
134.7732756960085112
 30
0.0
 40
0.5236898832208094
 50
65.846465791655362
 51
91.6078386823734974
  0
ARC
  5
A5C5
  8
0
 10
194.7567423382984089
 20
135.0198200701435951
 30
0.0
 40
0.205420241123126
 50
2.3474280840991839
 51
27.4677616279517487
  0
ARC
  5
A5C6
  8
0
 10
194.7234992219397043
 20
135.0241877886359987
 30
0.0
 40
0.2385252943745709
 50
355.901035928869419
 51
0.9719456984248838
  0
ARC
  5
A5C7
  8
0
 10
194.6635238607910026
 20
134.9589614275809879
 30
0.0
 40
0.3163925763906828
 50
29.4603623448399112
 51
67.4280190410454878
  0
ARC
  5
A5C8
  8
0
 10
194.5705403849678135
 20
134.7880751257183078
 30
0.0
 40
0.5299087818501319
 50
65.996613915281273
 51
91.57342009498457
  0
ARC
  5
A5C9
  8
0
 10
194.7537274498307056
 20
135.0415224277001869
 30
0.0
 40
0.2083619955092159
 50
4.3654702190097847
 51
26.7808891284317596
  0
ARC
  5
A5CA
  8
0
 10
194.6155836167652069
 20
135.0368081254615049
 30
0.0
 40
0.346512679806372
 50
358.5821019066308963
 51
3.403978329228408
  0
ARC
  5
A5CB
  8
0
 10
194.6603424555742095
 20
134.9761902495837091
 30
0.0
 40
0.3215781996866668
 50
29.6768607881543005
 51
66.9788532587212586
  0
ARC
  5
A5CC
  8
0
 10
194.5699095824018059
 20
134.8133341355631956
 30
0.0
 40
0.5329108736277872
 50
66.0660832976599863
 51
91.4967094126377134
  0
ARC
  5
A5CD
  8
0
 10
194.7552909263476977
 20
135.0703739252300863
 30
0.0
 40
0.2067015738124797
 50
0.2704486082617791
 51
26.8307734730202512
  0
ARC
  5
A5CE
  8
0
 10
194.6647867053582956
 20
135.075108119221909
 30
0.0
 40
0.2972272568221074
 50
356.5810569534934871
 51
359.2754596883767135
  0
ARC
  5
A5CF
  8
0
 10
194.6603424555742095
 20
135.0044542196147859
 30
0.0
 40
0.3215781996866668
 50
29.6768607881543005
 51
66.9788532587212586
  0
ARC
  5
A5D0
  8
0
 10
194.5714756882802021
 20
134.8561667059767046
 30
0.0
 40
0.5129565654412788
 50
78.7352320491595066
 51
91.7299478166595037
  0
ARC
  5
A5D1
  8
0
 10
194.567379337471607
 20
134.8327216093061054
 30
0.0
 40
0.5627606425399199
 50
79.3349101110168249
 51
91.1596301491432541
  0
ARC
  5
A5D2
  8
0
 10
194.6014500110289021
 20
135.0503807837490058
 30
0.0
 40
0.3426234598696453
 50
52.5473823999941203
 51
78.1977620493733951
  0
ARC
  5
A5D3
  8
0
 10
194.2574285491184867
 20
133.5300495786846966
 30
0.0
 40
1.875511816596835
 50
72.8713453671153815
 51
77.2396941932062191
  0
ARC
  5
A5D4
  8
0
 10
194.5603595212917014
 20
134.5884103339454896
 30
0.0
 40
0.4467342392071198
 50
57.0294386933638009
 51
90.5603953857572037
  0
ARC
  5
A5D5
  8
0
 10
194.6831465170417061
 20
134.8002851858011013
 30
0.0
 40
0.2233421086292355
 50
300.5323996047021069
 51
356.7531567599033906
  0
ARC
  5
A5D6
  8
0
 10
194.5475090458222098
 20
134.997767548288607
 30
0.0
 40
0.462643737406887
 50
287.0159379817570198
 51
302.5767809369323231
  0
ARC
  5
A5D7
  8
0
 10
194.6835845568265881
 20
134.7753027245572071
 30
0.0
 40
0.22288702298261
 50
3.1719293806535269
 51
57.4590796291288726
  0
ARC
  5
A5D8
  8
0
 10
194.7729628723836015
 20
134.8029756163813886
 30
0.0
 40
0.1817464129261708
 50
341.7683248965971075
 51
24.5037305390777504
  0
ARC
  5
A5D9
  8
0
 10
194.6699339732699059
 20
134.8794267883062048
 30
0.0
 40
0.3061959137152619
 50
293.1763281052221828
 51
334.1903601785411979
  0
ARC
  5
A5DA
  8
0
 10
194.5634613720536095
 20
135.0142887358992994
 30
0.0
 40
0.4741991358121016
 50
269.0972474394164919
 51
298.5978604378959744
  0
ARC
  5
A5DB
  8
0
 10
194.7004087892059943
 20
134.7604565039594036
 30
0.0
 40
0.265539989759431
 50
26.3591682971461694
 51
65.6440218385180998
  0
ARC
  5
A5DC
  8
0
 10
194.6168464669545131
 20
134.6043635406684018
 30
0.0
 40
0.4423584197218737
 50
64.1216983345139226
 51
86.9036252773479845
  0
ARC
  5
A5DD
  8
0
 10
194.7389000515292139
 20
134.7968885692745005
 30
0.0
 40
0.1877869238569267
 50
326.1030360720249064
 51
17.4965145294452604
  0
ARC
  5
A5DE
  8
0
 10
194.6752519450872114
 20
134.7632909735721967
 30
0.0
 40
0.258913347385446
 50
20.354052654121741
 51
63.8508415742483635
  0
ARC
  5
A5DF
  8
0
 10
194.5519033357527121
 20
134.5395443409634026
 30
0.0
 40
0.5142631276006174
 50
62.5007669793433678
 51
80.0524272879924439
  0
ARC
  5
A5E0
  8
0
 10
194.6481787132852048
 20
134.8603446278056026
 30
0.0
 40
0.2984861635844515
 50
298.4644223813081112
 51
325.7045753223292195
  0
LINE
  5
A5E1
  8
0
 10
194.5559901974608863
 20
109.457635832635205
 30
0.0
 11
203.7991023469710967
 21
115.1601119360326066
 31
0.0
  0
ENDBLK
  5
A5E5
  8
0
 62
     1
  0
BLOCK
  8
0
 62
     1
  2
A$CFD3048AA
 70
     0
 10
0.0
 20
0.0
 30
0.0
  3
A$CFD3048AA
  1

  0
LINE
  5
AC2A
  8
0
 10
194.1499854953202089
 20
135.0960165847833139
 30
0.0
 11
194.1499854953202089
 21
136.4576358326351908
 31
0.0
  0
LINE
  5
AC2B
  8
0
 10
194.9619948996015921
 20
135.0713495982352015
 30
0.0
 11
194.9619948996015921
 21
136.4576358326351908
 31
0.0
  0
ARC
  5
AC2C
  8
0
 10
194.5559901974608863
 20
136.4576358326351908
 30
0.0
 40
1.264999999999999
 50
288.7205277630400246
 51
251.2794722369598901
  0
ARC
  5
AC2D
  8
0
 10
194.5559901974608863
 20
136.4576358326351908
 30
0.0
 40
0.5918386707
 50
313.3147512435741078
 51
226.6852487564260059
  0
ARC
  5
AC2E
  8
0
 10
194.5559901974608863
 20
136.4576358326351908
 30
0.0
 40
0.4085
 50
353.6638694539312269
 51
186.336130546076987
  0
ARC
  5
AC2F
  8
0
 10
194.5559901974608863
 20
136.4576311304809053
 30
0.0
 40
0.4060047021679367
 50
0.0006635726030609
 51
179.9993364273969121
  0
ARC
  5
AC30
  8
0
 10
194.5559902100162049
 20
134.586274961373789
 30
0.0
 40
0.4297563615613847
 50
60.9506944071648391
 51
119.0493098301673029
  0
ARC
  5
AC31
  8
0
 10
194.4533510766787003
 20
134.8098552216902135
 30
0.0
 40
0.2233296728375274
 50
191.6630367183531973
 51
241.6544406559596041
  0
ARC
  5
AC32
  8
0
 10
194.5559901850465963
 20
134.9889967040471106
 30
0.0
 40
0.4297563617118917
 50
240.9506944079714117
 51
299.049309797510773
  0
ARC
  5
AC33
  8
0
 10
194.666520162210503
 20
134.8038654362462978
 30
0.0
 40
0.2143508016040151
 50
297.2493406181931164
 51
354.6549723760105053
  0
ARC
  5
AC34
  8
0
 10
194.6702049031079866
 20
134.7744729255510947
 30
0.0
 40
0.2099456864295028
 50
2.573039224785989
 51
63.2614667202158074
  0
ARC
  5
AC35
  8
0
 10
194.4383463338324987
 20
134.7791530012706005
 30
0.0
 40
0.2042254388508581
 50
116.4700985288654067
 51
184.0559850848057124
  0
ARC
  5
AC36
  8
0
 10
194.5559901974608863
 20
109.457635832635205
 30
0.0
 40
3.259998382
 50
280.4018233463636989
 51
259.5981766536361874
  0
ARC
  5
AC37
  8
0
 10
194.5559901974608863
 20
109.457635832635205
 30
0.0
 40
2.8064808682999991
 50
282.7059919192585085
 51
257.2940080807414915
  0
ARC
  5
AC38
  8
0
 10
194.5559901974608863
 20
109.457635832635205
 30
0.0
 40
1.6005266493000001
 50
295.8022306389298137
 51
244.1977693610701863
  0
ARC
  5
AC39
  8
0
 10
194.5559901974608863
 20
109.457635832635205
 30
0.0
 40
0.9251968504000002
 50
359.9210430331003181
 51
180.0789569668995966
  0
ARC
  5
AC3A
  8
0
 10
194.5559902240144083
 20
110.7226358603737992
 30
0.0
 40
0.183108623461369
 50
309.7693910520183067
 51
230.230647100688202
  0
CIRCLE
  5
AC3B
  8
0
 10
194.5559901974608863
 20
110.7226358326352056
 30
0.0
 40
0.1193646425421111
  0
ARC
  5
AC3C
  8
0
 10
194.5569585134722956
 20
110.800867874470498
 30
0.0
 40
0.2487927968534921
 50
241.6600007058179074
 51
269.7805847246248163
  0
ARC
  5
AC3D
  8
0
 10
194.5550207282151973
 20
110.8008714022963943
 30
0.0
 40
0.2487964503483045
 50
270.226845108098189
 51
298.3398856682692895
  0
ARC
  5
AC3E
  8
0
 10
194.551832537451304
 20
110.7477013297940971
 30
0.0
 40
0.1995046737139655
 50
326.3809413288861947
 51
88.8058065395962331
  0
ARC
  5
AC3F
  8
0
 10
194.5601483306705006
 20
110.7477013297940971
 30
0.0
 40
0.1995046737139655
 50
91.1941934604037243
 51
213.618006380552913
  0
LINE
  5
AC40
  8
0
 10
193.8502125409609107
 20
108.1657207021352036
 30
0.0
 11
193.98856104056091
 21
105.9054258971352027
 31
0.0
  0
ARC
  5
AC41
  8
0
 10
190.6496681290500135
 20
107.8126235338829986
 30
0.0
 40
3.219963065446835
 50
6.2956451606062718
 51
16.4447283913537916
  0
ARC
  5
AC42
  8
0
 10
196.2375420529957069
 20
109.4637880831420063
 30
0.0
 40
2.6067584083576789
 50
180.1632484532993033
 51
196.4831508630390999
  0
ARC
  5
AC43
  8
0
 10
194.7058353374744115
 20
105.9443553037341985
 30
0.0
 40
0.718329949056105
 50
183.106628061376
 51
190.2335796584632988
  0
ARC
  5
AC44
  8
0
 10
194.5691339272721052
 20
105.9315099091320036
 30
0.0
 40
0.5816376948218583
 50
191.380830955821807
 51
268.7051314565997018
  0
LINE
  5
AC45
  8
0
 10
195.2617678539608903
 20
108.1657207021352036
 30
0.0
 11
195.123419354360891
 21
105.9054258971352027
 31
0.0
  0
ARC
  5
AC46
  8
0
 10
198.4623122658717875
 20
107.8126235338829986
 30
0.0
 40
3.219963065446835
 50
163.5552716086461942
 51
173.7043548393936874
  0
ARC
  5
AC47
  8
0
 10
192.8744383419260942
 20
109.4637880831420063
 30
0.0
 40
2.6067584083576789
 50
343.5168491369609001
 51
359.8367515467007252
  0
ARC
  5
AC48
  8
0
 10
194.4061450574473895
 20
105.9443553037341985
 30
0.0
 40
0.718329949056105
 50
349.7664203415366728
 51
356.8933719386238863
  0
ARC
  5
AC49
  8
0
 10
194.5428464676496958
 20
105.9315099091320036
 30
0.0
 40
0.581637694821864
 50
271.2948685434001845
 51
348.6191690441780793
  0
ARC
  5
AC4A
  8
0
 10
194.5564849447463871
 20
99.4577069072427946
 30
0.0
 40
1.3008898758663521
 50
106.7785151581768019
 51
230.3465288968803861
  0
ARC
  5
AC4B
  8
0
 10
194.5564849447463871
 20
99.4577069072427946
 30
0.0
 40
1.3008898758663521
 50
235.3439969981143065
 51
258.8979859523428786
  0
ARC
  5
AC4C
  8
0
 10
194.641508862189113
 20
99.462214962139015
 30
0.0
 40
1.0504149662792419
 50
134.2990638955085956
 51
180.2478384764168027
  0
ARC
  5
AC4D
  8
0
 10
194.5497901695520113
 20
99.5014907562744497
 30
0.0
 40
0.9596873695669629
 50
182.6170427652737942
 51
207.0410371148250874
  0
LINE
  5
AC4E
  8
0
 10
194.7095728390609111
 20
100.0676327550352056
 30
0.0
 11
194.4024075558608899
 21
100.0676327550352056
 31
0.0
  0
LINE
  5
AC4F
  8
0
 10
194.5559901974608863
 20
100.1391327367852
 30
0.0
 11
194.4504534220608889
 21
100.1391327367352062
 31
0.0
  0
LINE
  5
AC50
  8
0
 10
194.3959534220608987
 20
100.1436327367351993
 30
0.0
 11
194.7160269728609023
 21
100.1436327367351993
 31
0.0
  0
LINE
  5
AC51
  8
0
 10
194.9190864354609118
 20
100.7362135315351992
 30
0.0
 11
194.1928939594608892
 21
100.7362135315351992
 31
0.0
  0
LINE
  5
AC52
  8
0
 10
194.9260269728607966
 20
100.5736327367352061
 30
0.0
 11
194.1859534220608907
 21
100.5736327367352061
 31
0.0
  0
LINE
  5
AC53
  8
0
 10
194.1809534220608953
 20
100.7215288562351958
 30
0.0
 11
194.1809534220608953
 21
100.5786327367352015
 31
0.0
  0
LINE
  5
AC54
  8
0
 10
194.3959534220608987
 20
100.5736327367352061
 30
0.0
 11
194.3959534220608987
 21
100.1436327367351993
 31
0.0
  0
LINE
  5
AC55
  8
0
 10
194.462953422060906
 20
100.1436327367351993
 30
0.0
 11
194.462953422060906
 21
100.1391327367411037
 31
0.0
  0
ARC
  5
AC56
  8
0
 10
194.5559985580003115
 20
98.9933420805500219
 30
0.0
 40
1.780293752204857
 50
90.0002690699918588
 51
101.768489932614898
  0
ARC
  5
AC57
  8
0
 10
194.4023784136217046
 20
100.0203927739570986
 30
0.0
 40
0.0472399900669299
 50
89.9646543655743045
 51
179.0058738640809111
  0
ARC
  5
AC58
  8
0
 10
194.4504534220608889
 20
100.1036327368351948
 30
0.0
 40
0.0355
 50
90.0
 51
270.0
  0
ARC
  5
AC59
  8
0
 10
194.1959534220659123
 20
100.7215288562334052
 30
0.0
 40
0.0150000000049639
 50
101.7688694802848062
 51
179.9999999932664139
  0
ARC
  5
AC5A
  8
0
 10
194.1859534220608907
 20
100.5786327367352015
 30
0.0
 40
0.005
 50
180.0
 51
270.0
  0
LINE
  5
AC5B
  8
0
 10
194.3551455341608971
 20
100.0212123832351949
 30
0.0
 11
194.3534955419609105
 21
99.9265794616352139
 31
0.0
  0
ARC
  5
AC5C
  8
0
 10
194.5280004505592046
 20
99.9270788887884009
 30
0.0
 40
0.1745056232686829
 50
180.1639781376572955
 51
204.6724191444600081
  0
ARC
  5
AC5D
  8
0
 10
194.5740381346168988
 20
99.937031693892763
 30
0.0
 40
0.2207296526699306
 50
202.0307570058942019
 51
265.3099807452524033
  0
ARC
  5
AC5E
  8
0
 10
186.3952755327246962
 20
98.3845157163820829
 30
0.0
 40
7.3314056773941241
 50
0.0242578731428268
 51
5.3272159610438079
  0
LINE
  5
AC5F
  8
0
 10
193.726680553040012
 20
98.3876196850352187
 30
0.0
 11
195.3852998419247911
 21
98.3876196850352187
 31
0.0
  0
ARC
  5
AC60
  8
0
 10
191.5156924810167141
 20
98.8708110456668834
 30
0.0
 40
2.1879735981738908
 50
5.0968466269524413
 51
12.5677918868617997
  0
ARC
  5
AC61
  8
0
 10
193.4199087161983073
 20
99.2930202687129366
 30
0.0
 40
0.2375240909179707
 50
13.1116126898215803
 51
43.8837310649598393
  0
ARC
  5
AC62
  8
0
 10
195.5110124679465002
 20
99.9647480820485157
 30
0.0
 40
1.6223784700322019
 50
171.1623925500531982
 51
177.8364876248988082
  0
ARC
  5
AC63
  8
0
 10
291.4861313381866239
 20
97.6258492858539739
 30
0.0
 40
97.6258492750207267
 50
178.5912328579686061
 51
179.5529189033865975
  0
LINE
  5
AC64
  8
0
 10
194.3059901946531056
 20
98.1811620199367638
 30
0.0
 11
194.3059910641609065
 21
98.1981700864352121
 31
0.0
  0
ARC
  5
AC65
  8
0
 10
194.5367516081902011
 20
97.4018055016246933
 30
0.0
 40
0.8413807752161426
 50
88.6897893605902965
 51
102.8555741689190057
  0
ARC
  5
AC66
  8
0
 10
194.3076142885184083
 20
98.198044476051507
 30
0.0
 40
0.0016280771736418
 50
114.1515120697133057
 51
175.5750844260026895
  0
ARC
  5
AC67
  8
0
 10
194.2504882404024897
 20
98.2831056658981623
 30
0.0
 40
0.100859344097785
 50
304.0411845708650276
 51
310.2645999641483172
  0
ARC
  5
AC68
  8
0
 10
194.3771787640154969
 20
98.1194902921916849
 30
0.0
 40
0.1062608561398622
 50
105.0710173847100037
 51
125.365845212098705
  0
ARC
  5
AC69
  8
0
 10
194.0333744355675947
 20
100.0823366212837016
 30
0.0
 40
0.181880754387599
 50
100.6019405529684008
 51
133.6220310997996137
  0
ARC
  5
AC6A
  8
0
 10
194.5575531569647865
 20
97.1366961850201847
 30
0.0
 40
3.173789842202221
 50
92.9185890133743584
 51
100.1195267578727055
  0
LINE
  5
AC6B
  8
0
 10
194.4504534220608889
 20
100.0681327368351958
 30
0.0
 11
194.4504534260476021
 21
100.0676327550352056
 31
0.0
  0
ARC
  5
AC6C
  8
0
 10
194.5554954501753002
 20
99.4577069072427946
 30
0.0
 40
1.3008898758663521
 50
309.6534711049010866
 51
73.2214848418231696
  0
ARC
  5
AC6D
  8
0
 10
194.5554954501753002
 20
99.4577069072427946
 30
0.0
 40
1.3008898758663521
 50
281.1020140476571214
 51
304.6560030018857219
  0
ARC
  5
AC6E
  8
0
 10
194.470471532732688
 20
99.462214962139015
 30
0.0
 40
1.0504149662792419
 50
359.7521615235830836
 51
45.7009361044913902
  0
ARC
  5
AC6F
  8
0
 10
194.5621902253697897
 20
99.5014907562744497
 30
0.0
 40
0.9596873695669629
 50
332.9589628851749126
 51
357.3829572347261774
  0
LINE
  5
AC70
  8
0
 10
194.5559901974608863
 20
100.1391327367852
 30
0.0
 11
194.6615269728609121
 21
100.1391327367352062
 31
0.0
  0
LINE
  5
AC71
  8
0
 10
194.9310269728609057
 20
100.7215288562351958
 30
0.0
 11
194.9310269728609057
 21
100.5786327367352015
 31
0.0
  0
LINE
  5
AC72
  8
0
 10
194.7160269728609023
 20
100.5736327367352061
 30
0.0
 11
194.7160269728609023
 21
100.1436327367351993
 31
0.0
  0
LINE
  5
AC73
  8
0
 10
194.6490269728608951
 20
100.1436327367351993
 30
0.0
 11
194.6490269728608951
 21
100.1391327367411037
 31
0.0
  0
ARC
  5
AC74
  8
0
 10
194.5559818369214042
 20
98.9933420805499793
 30
0.0
 40
1.7802937522048941
 50
78.231510067385102
 51
89.999730930008127
  0
ARC
  5
AC75
  8
0
 10
194.7096019813000964
 20
100.0203927739570986
 30
0.0
 40
0.0472399900669299
 50
0.9941261359190418
 51
90.0353456344256955
  0
ARC
  5
AC76
  8
0
 10
194.6615269728609121
 20
100.1036327368351948
 30
0.0
 40
0.0355
 50
270.0
 51
90.0
  0
ARC
  5
AC77
  8
0
 10
194.9160269728558035
 20
100.7215288562334052
 30
0.0
 40
0.0150000000049639
 50
0.0000000067336159
 51
78.2311305197151938
  0
ARC
  5
AC78
  8
0
 10
194.9260269728607966
 20
100.5786327367352015
 30
0.0
 40
0.005
 50
270.0
 51
0.0
  0
LINE
  5
AC79
  8
0
 10
194.7568348607609039
 20
100.0212123832351949
 30
0.0
 11
194.7584848529608905
 21
99.9265794616352139
 31
0.0
  0
ARC
  5
AC7A
  8
0
 10
194.5839799443625111
 20
99.9270788887884009
 30
0.0
 40
0.1745056232686829
 50
335.3275808555399067
 51
359.8360218623427045
  0
ARC
  5
AC7B
  8
0
 10
194.5379422603049022
 20
99.937031693892763
 30
0.0
 40
0.2207296526699306
 50
274.690019254747483
 51
337.9692429941057981
  0
ARC
  5
AC7C
  8
0
 10
202.7167048421264894
 20
98.384515717786087
 30
0.0
 40
7.3314056572798281
 50
174.6727840353188128
 51
179.9757421377636035
  0
ARC
  5
AC7D
  8
0
 10
197.5962879139050017
 20
98.8708110456668834
 30
0.0
 40
2.1879735981738908
 50
167.4322081131381879
 51
174.9031533730475871
  0
ARC
  5
AC7E
  8
0
 10
195.6920716787234937
 20
99.2930202687129366
 30
0.0
 40
0.2375240909179707
 50
136.1162689350400967
 51
166.8883873101783877
  0
ARC
  5
AC7F
  8
0
 10
193.6009679269751871
 20
99.9647480820485157
 30
0.0
 40
1.6223784700322019
 50
2.1635123751012189
 51
8.8376074499467911
  0
ARC
  5
AC80
  8
0
 10
97.6258490567352766
 20
97.6258492858539739
 30
0.0
 40
97.6258492750207267
 50
0.4470810966133489
 51
1.408767142031349
  0
LINE
  5
AC81
  8
0
 10
194.8059902002686954
 20
98.1811620199367638
 30
0.0
 11
194.8059893307608945
 21
98.1981700864352121
 31
0.0
  0
ARC
  5
AC82
  8
0
 10
194.5752287867314863
 20
97.4018055016246933
 30
0.0
 40
0.8413807752161426
 50
77.1444258310809943
 51
91.3102106394097319
  0
ARC
  5
AC83
  8
0
 10
194.8043661064033927
 20
98.198044476051507
 30
0.0
 40
0.0016280771736418
 50
4.4249155739973096
 51
65.8484879302870354
  0
ARC
  5
AC84
  8
0
 10
194.8614921545193113
 20
98.2831056658981623
 30
0.0
 40
0.100859344097785
 50
229.7354000358517965
 51
235.9588154291350008
  0
ARC
  5
AC85
  8
0
 10
194.7348016309063041
 20
98.1194902921916849
 30
0.0
 40
0.1062608561398622
 50
54.6341547879012595
 51
74.9289826152899536
  0
ARC
  5
AC86
  8
0
 10
195.0786059593540926
 20
100.0823366212837016
 30
0.0
 40
0.181880754387599
 50
46.3779689002004005
 51
79.398059447031514
  0
ARC
  5
AC87
  8
0
 10
194.5544272379569861
 20
97.1366961850201847
 30
0.0
 40
3.173789842202221
 50
79.8804732421273087
 51
87.0814109866256274
  0
LINE
  5
AC88
  8
0
 10
194.6615269728609121
 20
100.0681327368351958
 30
0.0
 11
194.6615269688741989
 21
100.0676327550352056
 31
0.0
  0
ARC
  5
AC89
  8
0
 10
194.5516208736300996
 20
134.5884103339454896
 30
0.0
 40
0.4467342392071238
 50
89.4396046142427963
 51
122.9705613066361991
  0
ARC
  5
AC8A
  8
0
 10
194.4288338778800949
 20
134.8002851858011013
 30
0.0
 40
0.2233421086292355
 50
183.2468432400966094
 51
239.4676003952978078
  0
ARC
  5
AC8B
  8
0
 10
194.5300298936141985
 20
134.9348239218637104
 30
0.0
 40
0.3910889963848578
 50
236.7100391739116958
 51
255.1041865817001906
  0
ARC
  5
AC8C
  8
0
 10
194.4283958380952129
 20
134.7753027245572071
 30
0.0
 40
0.22288702298261
 50
122.5409203708711061
 51
176.8280706193465051
  0
ARC
  5
AC8D
  8
0
 10
194.5652234354627979
 20
134.587800198807912
 30
0.0
 40
0.5253873005719339
 50
91.006976764819413
 51
116.451474359550204
  0
ARC
  5
AC8E
  8
0
 10
194.3687337166834936
 20
134.8237588429498999
 30
0.0
 40
0.2067398052786463
 50
164.1900368196407101
 51
206.1501041741665006
  0
ARC
  5
AC8F
  8
0
 10
194.456352683325207
 20
134.8719941124562069
 30
0.0
 40
0.3066845149503046
 50
207.024885404907991
 51
241.5430958064195863
  0
ARC
  5
AC90
  8
0
 10
194.5642826089753044
 20
135.0894501609004976
 30
0.0
 40
0.5493642903767555
 50
242.453409058418714
 51
269.1351126488110026
  0
ARC
  5
AC91
  8
0
 10
194.4586600387158057
 20
134.7805224127858139
 30
0.0
 40
0.305522881586703
 50
114.6581069673995046
 51
160.9814213815892003
  0
ARC
  5
AC92
  8
0
 10
194.5621438683907058
 20
134.6207199813119075
 30
0.0
 40
0.5281638659464796
 50
90.6675718900143153
 51
119.9616781137109029
  0
ARC
  5
AC93
  8
0
 10
194.4312633315996948
 20
134.8283759701799056
 30
0.0
 40
0.2830602877171024
 50
118.0015246234018065
 51
172.6584891534099029
  0
ARC
  5
AC94
  8
0
 10
194.5634296239595926
 20
134.628177000901502
 30
0.0
 40
0.5363426161963499
 50
90.7947558084874089
 51
115.7454937224737961
  0
ARC
  5
AC95
  8
0
 10
194.3850855703028913
 20
134.860749019511502
 30
0.0
 40
0.2353600471132266
 50
147.1127554789246972
 51
174.8800386662591961
  0
ARC
  5
AC96
  8
0
 10
194.2364489331681057
 20
134.8724457241241907
 30
0.0
 40
0.086287741144623
 50
173.8079399367358917
 51
185.2526242636816107
  0
ARC
  5
AC97
  8
0
 10
194.4756729735728129
 20
134.7973778773254026
 30
0.0
 40
0.3458631722864165
 50
114.8262508210295039
 51
146.4455433252765033
  0
ARC
  5
AC98
  8
0
 10
194.5627920173986922
 20
134.6617696752516906
 30
0.0
 40
0.5364252464244819
 50
90.726524379433755
 51
115.7445290646317062
  0
ARC
  5
AC99
  8
0
 10
194.3893358293960887
 20
134.8942015155085983
 30
0.0
 40
0.2396194469953505
 50
147.7071052297449114
 51
175.2888724588601121
  0
ARC
  5
AC9A
  8
0
 10
194.3641799632291907
 20
134.8987391365319866
 30
0.0
 40
0.2141899702930413
 50
175.945916504536001
 51
184.5486032421706
  0
ARC
  5
AC9B
  8
0
 10
194.475007609552307
 20
134.8310489023837988
 30
0.0
 40
0.3458631722864165
 50
114.8262508210295039
 51
146.4455433252765033
  0
ARC
  5
AC9C
  8
0
 10
194.5623974922444006
 20
134.6790983296316142
 30
0.0
 40
0.536513314634375
 50
90.684269460093347
 51
115.7435012507185945
  0
ARC
  5
AC9D
  8
0
 10
194.3835858309892046
 20
134.9124239437281005
 30
0.0
 40
0.2337945753325481
 50
147.1774283136026895
 51
175.2285750113275924
  0
ARC
  5
AC9E
  8
0
 10
194.239895970816292
 20
134.9225014898418067
 30
0.0
 40
0.089784728202661
 50
174.0098643842578952
 51
185.5090069757121114
  0
ARC
  5
AC9F
  8
0
 10
194.4682985905365058
 20
134.8582391476709859
 30
0.0
 40
0.3343537172894863
 50
114.5523114801062974
 51
147.243108699939711
  0
ARC
  5
ACA0
  8
0
 10
194.5634296244134021
 20
134.7111645567453877
 30
0.0
 40
0.5363426161963499
 50
90.7947558084874089
 51
115.7454937224737961
  0
ARC
  5
ACA1
  8
0
 10
194.3840549209463973
 20
134.9442945486759982
 30
0.0
 40
0.2341916136125466
 50
147.0904731699635875
 51
177.4658259185829081
  0
ARC
  5
ACA2
  8
0
 10
194.3198671600162868
 20
134.9470493949702927
 30
0.0
 40
0.1699448420461295
 50
177.4368563508967043
 51
185.1240637660606865
  0
ARC
  5
ACA3
  8
0
 10
194.4756729740265939
 20
134.880365433169402
 30
0.0
 40
0.3458631722864165
 50
114.8262508210295039
 51
146.4455433252765033
  0
ARC
  5
ACA4
  8
0
 10
194.5634296239595074
 20
134.7303877284014959
 30
0.0
 40
0.5363426161963499
 50
90.7947558084874089
 51
115.7454937224737961
  0
ARC
  5
ACA5
  8
0
 10
194.3851712766712865
 20
134.9629180462345062
 30
0.0
 40
0.2354546615280323
 50
147.1155586813185892
 51
175.2726760402657078
  0
ARC
  5
ACA6
  8
0
 10
194.6059348382750898
 20
134.9614846013888041
 30
0.0
 40
0.4558937408677667
 50
177.3801910575984948
 51
180.8590670894681978
  0
ARC
  5
ACA7
  8
0
 10
194.4756729735726992
 20
134.8995886048253965
 30
0.0
 40
0.3458631722864165
 50
114.8262508210295039
 51
146.4455433252765033
  0
ARC
  5
ACA8
  8
0
 10
194.5634296239595074
 20
134.7604683762014872
 30
0.0
 40
0.5363426161963499
 50
90.7947558084874089
 51
115.7454937224737961
  0
ARC
  5
ACA9
  8
0
 10
194.3787789864541935
 20
134.9952786790358914
 30
0.0
 40
0.2288540051567563
 50
146.7259926982752063
 51
178.6321253260919093
  0
ARC
  5
ACAA
  8
0
 10
194.3764914996017126
 20
134.998010084383111
 30
0.0
 40
0.2265177744681313
 50
179.3090182121883061
 51
183.971157178327104
  0
ARC
  5
ACAB
  8
0
 10
194.4756729735726992
 20
134.9296692526253878
 30
0.0
 40
0.3458631722864165
 50
114.8262508210295039
 51
146.4455433252765033
  0
ARC
  5
ACAC
  8
0
 10
194.5634296239595074
 20
134.7814930922014867
 30
0.0
 40
0.5363426161963499
 50
90.7947558084874089
 51
115.7454937224737961
  0
ARC
  5
ACAD
  8
0
 10
194.3844822638025107
 20
135.0143586520073029
 30
0.0
 40
0.2346940508532161
 50
147.0929591533636085
 51
175.6216007901358864
  0
ARC
  5
ACAE
  8
0
 10
194.5119237708011894
 20
135.0109695479497134
 30
0.0
 40
0.3620780555459563
 50
176.6264970091357043
 51
181.6186693830111949
  0
ARC
  5
ACAF
  8
0
 10
194.4756729735726992
 20
134.9506939686253872
 30
0.0
 40
0.3458631722864165
 50
114.8262508210295039
 51
146.4455433252765033
  0
ARC
  5
ACB0
  8
0
 10
194.5634296239595074
 20
134.8097721754014913
 30
0.0
 40
0.5363426161963499
 50
90.7947558084874089
 51
115.7454937224737961
  0
ARC
  5
ACB1
  8
0
 10
194.3829484330790081
 20
135.0433245618449973
 30
0.0
 40
0.2330333223066435
 50
147.0298521997079035
 51
178.2447397504556932
  0
ARC
  5
ACB2
  8
0
 10
194.3640558069718054
 20
135.0466441297371034
 30
0.0
 40
0.2140654094779535
 50
178.9779548071300042
 51
183.848620803087897
  0
ARC
  5
ACB3
  8
0
 10
194.4756729735726992
 20
134.9789730518253918
 30
0.0
 40
0.3458631722864165
 50
114.8262508210295039
 51
146.4455433252765033
  0
ARC
  5
ACB4
  8
0
 10
194.5634296239595074
 20
134.8325984559014898
 30
0.0
 40
0.5363426161963499
 50
90.7947558084874089
 51
115.7454937224737961
  0
ARC
  5
ACB5
  8
0
 10
194.3841993442296996
 20
135.0656016713593033
 30
0.0
 40
0.234381742712928
 50
147.0836369508583914
 51
175.8914279987247085
  0
ARC
  5
ACB6
  8
0
 10
194.4667317718536026
 20
135.0625082766746914
 30
0.0
 40
0.316936314473037
 50
176.4026318731077083
 51
182.1781726679159874
  0
ARC
  5
ACB7
  8
0
 10
194.4756729735726992
 20
135.0017993323253904
 30
0.0
 40
0.3458631722864165
 50
114.8262508210295039
 51
146.4455433252765033
  0
ARC
  5
ACB8
  8
0
 10
194.5634296239595074
 20
134.8590759746014953
 30
0.0
 40
0.5363426161963499
 50
90.7947558084874089
 51
115.7454937224737961
  0
ARC
  5
ACB9
  8
0
 10
194.385085570302806
 20
135.0916479932114953
 30
0.0
 40
0.2353600471132266
 50
147.1127554789246972
 51
174.8800386662591961
  0
ARC
  5
ACBA
  8
0
 10
194.3802412368982004
 20
135.094948261915107
 30
0.0
 40
0.2302582199257966
 50
175.5904210662079947
 51
179.7341653594984905
  0
ARC
  5
ACBB
  8
0
 10
194.4756729735726992
 20
135.0282768510253959
 30
0.0
 40
0.3458631722864165
 50
114.8262508210295039
 51
146.4455433252765033
  0
ARC
  5
ACBC
  8
0
 10
194.3690279849666922
 20
135.0961843859817861
 30
0.0
 40
0.2190425539199928
 50
180.0438923909553068
 51
183.6095001689506034
  0
ARC
  5
ACBD
  8
0
 10
194.3715596267308001
 20
134.8492411895354053
 30
0.0
 40
0.2215653401832249
 50
176.0390090372196994
 51
211.7520794445773902
  0
ARC
  5
ACBE
  8
0
 10
194.5705954244658926
 20
134.6865370675928091
 30
0.0
 40
0.5292378823704232
 50
65.9707909438645146
 51
91.5813760647545649
  0
ARC
  5
ACBF
  8
0
 10
194.7636721900950079
 20
134.9410606822785894
 30
0.0
 40
0.1983094951708628
 50
4.5936139599196926
 51
27.6145247538524217
  0
ARC
  5
ACC0
  8
0
 10
194.7063880934232998
 20
134.9381660820941988
 30
0.0
 40
0.255647075467141
 50
358.0736689402041861
 51
4.2120555319435571
  0
ARC
  5
ACC1
  8
0
 10
194.6623352507729976
 20
134.8770888472103024
 30
0.0
 40
0.3179034273924465
 50
29.3653342375844097
 51
67.0876295075121192
  0
ARC
  5
ACC2
  8
0
 10
194.5706482739136902
 20
134.6742770388588895
 30
0.0
 40
0.5240797850950083
 50
65.856059228191171
 51
91.602724389137677
  0
ARC
  5
ACC3
  8
0
 10
194.7554930877664106
 20
134.9214960193137927
 30
0.0
 40
0.2065555722276753
 50
2.240918057248269
 51
32.9203036981268724
  0
ARC
  5
ACC4
  8
0
 10
194.7697274504247105
 20
134.9233957701646887
 30
0.0
 40
0.1922624940427624
 50
355.254721669293076
 51
1.841073146813891
  0
ARC
  5
ACC5
  8
0
 10
194.6592465043756022
 20
134.8536277957535106
 30
0.0
 40
0.3242655912954258
 50
33.7442779521390719
 51
67.1792281507952538
  0
ARC
  5
ACC6
  8
0
 10
194.5729558995790001
 20
134.6008181073584922
 30
0.0
 40
0.5125691063421368
 50
65.5616500413823218
 51
91.8967992739122934
  0
ARC
  5
ACC7
  8
0
 10
194.7554099734784074
 20
134.8362229722592076
 30
0.0
 40
0.2068404915951987
 50
5.7291639336047631
 51
27.2773730102350918
  0
ARC
  5
ACC8
  8
0
 10
194.732251970400597
 20
134.8327049850740025
 30
0.0
 40
0.2302370735041948
 50
337.9081146754840006
 51
6.0249645345717182
  0
ARC
  5
ACC9
  8
0
 10
194.6665945702426086
 20
134.7782108668621959
 30
0.0
 40
0.3125549621891796
 50
29.2680321039154911
 51
67.7361779952717455
  0
ARC
  5
ACCA
  8
0
 10
194.5706488662185905
 20
134.6249762118889919
 30
0.0
 40
0.5240768306943266
 50
65.8559854104356504
 51
91.6027982068926434
  0
ARC
  5
ACCB
  8
0
 10
194.757249682522513
 20
134.872161910746911
 30
0.0
 40
0.2048531709990511
 50
4.6658679247123622
 51
27.4649457511442208
  0
ARC
  5
ACCC
  8
0
 10
194.7698452444267048
 20
134.8740869398561983
 30
0.0
 40
0.1921448395333502
 50
354.8594987531301967
 51
4.3992647945781416
  0
ARC
  5
ACCD
  8
0
 10
194.6634091110987868
 20
134.810962573776294
 30
0.0
 40
0.3165347144036976
 50
29.4604234982348885
 51
67.4076623552650602
  0
ARC
  5
ACCE
  8
0
 10
194.56990344385909
 20
134.6271377624289016
 30
0.0
 40
0.5375103569627333
 50
66.1805108683367251
 51
91.4832446176215655
  0
ARC
  5
ACCF
  8
0
 10
194.7490518876645922
 20
134.8858145501544072
 30
0.0
 40
0.2133828609302064
 50
5.8303409888583886
 51
36.243816599478123
  0
ARC
  5
ACD0
  8
0
 10
194.863115213691799
 20
134.8976683160069001
 30
0.0
 40
0.0987056496740818
 50
354.8601951398209735
 51
5.7110319214823058
  0
ARC
  5
ACD1
  8
0
 10
194.6511816351103903
 20
134.8107706901319887
 30
0.0
 40
0.3366941808760578
 50
36.6965454490054697
 51
66.2134824824225774
  0
ARC
  5
ACD2
  8
0
 10
194.5703024772026879
 20
134.7194049544270058
 30
0.0
 40
0.5282445454877261
 50
65.9583222400236338
 51
91.5525641823883944
  0
ARC
  5
ACD3
  8
0
 10
194.7576922221691973
 20
134.9710397494895062
 30
0.0
 40
0.2043721901415065
 50
1.544135047454855
 51
27.393728898550151
  0
ARC
  5
ACD4
  8
0
 10
194.7535178378095111
 20
134.973598816264996
 30
0.0
 40
0.2084932044569923
 50
355.4179126221486058
 51
0.8102036975610113
  0
ARC
  5
ACD5
  8
0
 10
194.6619010841733939
 20
134.9082727232022023
 30
0.0
 40
0.3185144408848706
 50
29.4907389927954213
 51
67.1649750540791217
  0
ARC
  5
ACD6
  8
0
 10
194.5712456931215115
 20
134.7455203466664955
 30
0.0
 40
0.5213816343439845
 50
65.7881564434473489
 51
91.6766994213696194
  0
ARC
  5
ACD7
  8
0
 10
194.7578422060290109
 20
134.9905088213355953
 30
0.0
 40
0.2042502557868056
 50
4.6699849273058582
 51
27.4056377060198493
  0
ARC
  5
ACD8
  8
0
 10
194.5551797566405128
 20
134.9841906700160052
 30
0.0
 40
0.4068822446671395
 50
358.9235756748315112
 51
3.2331006801926412
  0
ARC
  5
ACD9
  8
0
 10
194.6648442621037134
 20
134.9300965388272004
 30
0.0
 40
0.314804268356702
 50
29.376490358459499
 51
67.548120171076306
  0
ARC
  5
ACDA
  8
0
 10
194.5706840955527923
 20
134.7732756960085112
 30
0.0
 40
0.5236898832208094
 50
65.846465791655362
 51
91.6078386823734974
  0
ARC
  5
ACDB
  8
0
 10
194.7567423382984089
 20
135.0198200701435951
 30
0.0
 40
0.205420241123126
 50
2.3474280840991839
 51
27.4677616279517487
  0
ARC
  5
ACDC
  8
0
 10
194.7234992219397043
 20
135.0241877886359987
 30
0.0
 40
0.2385252943745709
 50
355.901035928869419
 51
0.9719456984248838
  0
ARC
  5
ACDD
  8
0
 10
194.6635238607910026
 20
134.9589614275809879
 30
0.0
 40
0.3163925763906828
 50
29.4603623448399112
 51
67.4280190410454878
  0
ARC
  5
ACDE
  8
0
 10
194.5705403849678135
 20
134.7880751257183078
 30
0.0
 40
0.5299087818501319
 50
65.996613915281273
 51
91.57342009498457
  0
ARC
  5
ACDF
  8
0
 10
194.7537274498307056
 20
135.0415224277001869
 30
0.0
 40
0.2083619955092159
 50
4.3654702190097847
 51
26.7808891284317596
  0
ARC
  5
ACE0
  8
0
 10
194.6155836167652069
 20
135.0368081254615049
 30
0.0
 40
0.346512679806372
 50
358.5821019066308963
 51
3.403978329228408
  0
ARC
  5
ACE1
  8
0
 10
194.6603424555742095
 20
134.9761902495837091
 30
0.0
 40
0.3215781996866668
 50
29.6768607881543005
 51
66.9788532587212586
  0
ARC
  5
ACE2
  8
0
 10
194.5699095824018059
 20
134.8133341355631956
 30
0.0
 40
0.5329108736277872
 50
66.0660832976599863
 51
91.4967094126377134
  0
ARC
  5
ACE3
  8
0
 10
194.7552078200419032
 20
135.0703433633906911
 30
0.0
 40
0.206789527736238
 50
0.2788015328357805
 51
26.8279365389729598
  0
ARC
  5
ACE4
  8
0
 10
194.6560410761705953
 20
135.0755274893365936
 30
0.0
 40
0.3059823472786071
 50
356.6003315787784231
 51
359.2176575935657752
  0
ARC
  5
ACE5
  8
0
 10
194.6603424555742095
 20
135.0044542196147859
 30
0.0
 40
0.3215781996866668
 50
29.6768607881543005
 51
66.9788532587212586
  0
ARC
  5
ACE6
  8
0
 10
194.5714756882802021
 20
134.8561667059767046
 30
0.0
 40
0.5129565654412788
 50
78.7352320491595066
 51
91.7299478166595037
  0
ARC
  5
ACE7
  8
0
 10
194.567379337471607
 20
134.8327216093061054
 30
0.0
 40
0.5627606425399199
 50
79.3349101110168249
 51
91.1596301491432541
  0
ARC
  5
ACE8
  8
0
 10
194.6014500110289021
 20
135.0503807837490058
 30
0.0
 40
0.3426234598696453
 50
52.5473823999941203
 51
78.1977620493733951
  0
ARC
  5
ACE9
  8
0
 10
194.2574285491184867
 20
133.5300495786846966
 30
0.0
 40
1.875511816596835
 50
72.8713453671153815
 51
77.2396941932062191
  0
ARC
  5
ACEA
  8
0
 10
194.5603595212917014
 20
134.5884103339454896
 30
0.0
 40
0.4467342392071198
 50
57.0294386933638009
 51
90.5603953857572037
  0
ARC
  5
ACEB
  8
0
 10
194.690455943814186
 20
134.7980709835165101
 30
0.0
 40
0.215926482352494
 50
307.7781468883705998
 51
357.2299029464269893
  0
ARC
  5
ACEC
  8
0
 10
194.5859288294909106
 20
134.9232331393569098
 30
0.0
 40
0.3789337291410411
 50
283.8415958508405197
 51
308.6766313297832767
  0
ARC
  5
ACED
  8
0
 10
194.6835845568265881
 20
134.7753027245572071
 30
0.0
 40
0.22288702298261
 50
3.1719293806535269
 51
57.4590796291288726
  0
ARC
  5
ACEE
  8
0
 10
194.7729628723836015
 20
134.8029756163813886
 30
0.0
 40
0.1817464129261708
 50
341.7683248965971075
 51
24.5037305390777504
  0
ARC
  5
ACEF
  8
0
 10
194.6699339732699059
 20
134.8794267883062048
 30
0.0
 40
0.3061959137152619
 50
293.1763281052221828
 51
334.1903601785411979
  0
ARC
  5
ACF0
  8
0
 10
194.5516165965580058
 20
135.0623398258503869
 30
0.0
 40
0.522209681787273
 50
270.4798681666861739
 51
297.2152397106269177
  0
ARC
  5
ACF1
  8
0
 10
194.7004087892059943
 20
134.7604565039594036
 30
0.0
 40
0.265539989759431
 50
26.3591682971461694
 51
65.6440218385180998
  0
ARC
  5
ACF2
  8
0
 10
194.6168464669545131
 20
134.6043635406684018
 30
0.0
 40
0.4423584197218737
 50
64.1216983345139226
 51
86.9036252773479845
  0
ARC
  5
ACF3
  8
0
 10
194.7389000515292139
 20
134.7968885692745005
 30
0.0
 40
0.1877869238569267
 50
326.1030360720249064
 51
17.4965145294452604
  0
ARC
  5
ACF4
  8
0
 10
194.6752519450872114
 20
134.7632909735721967
 30
0.0
 40
0.258913347385446
 50
20.354052654121741
 51
63.8508415742483635
  0
ARC
  5
ACF5
  8
0
 10
194.5519033357527121
 20
134.5395443409634026
 30
0.0
 40
0.5142631276006174
 50
62.5007669793433678
 51
80.0524272879924439
  0
ARC
  5
ACF6
  8
0
 10
194.6481787132852048
 20
134.8603446278056026
 30
0.0
 40
0.2984861635844515
 50
298.4644223813081112
 51
325.7045753223292195
  0
LINE
  5
ACF7
  8
0
 10
194.5559901974608863
 20
109.457635832635205
 30
0.0
 11
203.7991023469710967
 21
115.1601119360326066
 31
0.0
  0
LINE
  5
ACF8
  8
0
 10
194.4504534220608889
 20
100.0681327368351958
 30
0.0
 11
194.6615269728609121
 21
100.0681327368351958
 31
0.0
  0
ARC
  5
ACF9
  8
0
 10
194.5559901974608863
 20
109.4576349672048963
 30
0.0
 40
1.658143166600218
 50
294.6907527481801026
 51
245.3092472518198974
  0
ENDBLK
  5
ACFD
  8
0
 62
     1
  0
ENDSEC
  0
SECTION
  2
ENTITIES
  0
ATTDEF
  5
B4BE
  8
DEFPOINTS
 10
4233.1262645001597775
 20
593.3938302307352615
 30
0.0
 40
0.001
  1
K-4986T-ER
  3

  2
MODELNUMBER
 70
     0
1001
ACDBATTR
1070
     0
1070
     1
  0
ATTDEF
  5
B4BF
  8
DEFPOINTS
 10
4233.1262645001597775
 20
593.39216356406871
 30
0.0
 40
0.001
  1
STEWARD
  3

  2
TRADENAME
 70
     0
1001
ACDBATTR
1070
     0
1070
     1
  0
ATTDEF
  5
B4C0
  8
DEFPOINTS
 10
4233.1262645001597775
 20
593.3904968974020449
 30
0.0
 40
0.001
  1
URINAL
  3

  2
PRODUCT
 70
     0
1001
ACDBATTR
1070
     0
1070
     1
  0
LINE
  5
C598
  8
0
 10
4226.9676672490650162
 20
601.4055436755957089
 30
0.0
 11
4228.9523544570492959
 21
601.4055436755912751
 31
0.0
  0
LINE
  5
C599
  8
0
 10
4226.9676659394481248
 20
631.0204436755911956
 30
0.0
 11
4228.9435930944591746
 21
631.0204436755911956
 31
0.0
  0
ARC
  5
C59A
  8
0
 10
4226.9676659394481248
 20
630.8304436755912548
 30
0.0
 40
0.1900000000000119
 50
90.0
 51
179.9999999999934914
  0
LINE
  5
C59B
  8
0
 10
4226.777665939446706
 20
630.8304436755912548
 30
0.0
 11
4226.7776659394457965
 21
601.595543675591216
 31
0.0
  0
ARC
  5
C59C
  8
0
 10
4226.9676659394463059
 20
601.595543675591216
 30
0.0
 40
0.1899999999999871
 50
180.0
 51
270.0003949246101911
  0
ARC
  5
C59D
  8
0
 10
4228.933239496745955
 20
601.5989886380422149
 30
0.0
 40
0.1943870757149965
 50
275.6432729434974931
 51
330.8189469750608964
  0
ARC
  5
C59E
  8
0
 10
4229.2715236005142287
 20
601.4100831904174811
 30
0.0
 40
0.193067957880067
 50
93.5059112357295135
 51
150.8211149698703935
  0
LINE
  5
C59F
  8
0
 10
4229.2597172019468417
 20
601.6027898205911697
 30
0.0
 11
4233.0693418083410506
 21
601.8024437861598699
 31
0.0
  0
ARC
  5
C5A0
  8
0
 10
4233.0663496284187204
 20
601.86236966820627
 30
0.0
 40
0.060000537328497
 50
272.8584814096635114
 51
359.99968810823799
  0
LINE
  5
C5A1
  8
0
 10
4233.1263501657467714
 20
601.8623693415911475
 30
0.0
 11
4233.1263501657467714
 21
630.7215296497912504
 31
0.0
  0
ARC
  5
C5A2
  8
0
 10
4233.0663620362956863
 20
630.7215326498145487
 30
0.0
 40
0.059988129526229
 50
359.9971346217159862
 51
89.1816967346575353
  0
LINE
  5
C5A3
  8
0
 10
4233.0672187628106258
 20
630.7815146613157822
 30
0.0
 11
4229.2602402853153762
 21
630.8346822866039929
 31
0.0
  0
ARC
  5
C5A4
  8
0
 10
4229.2665577123370895
 20
631.0308702609485181
 30
0.0
 40
0.1962896613721343
 50
211.7591705205300059
 51
268.1556622978466748
  0
ARC
  5
C5A5
  8
0
 10
4228.9337305742747048
 20
630.8263248613960741
 30
0.0
 40
0.1943691933637115
 50
31.3862249183073985
 51
87.09149615778216
  0
ARC
  5
C5A6
  8
0
 10
4227.0229150120740087
 20
630.841134573847512
 30
0.0
 40
0.1798127917445822
 50
356.5914281907641907
 51
85.7104628482770323
  0
LINE
  5
C5A7
  8
0
 10
4227.2024097049479678
 20
630.8304436755912548
 30
0.0
 11
4227.2024097049479678
 21
601.595543675591216
 31
0.0
  0
ARC
  5
C5A8
  8
0
 10
4227.0058178585168207
 20
601.5925881126599961
 30
0.0
 40
0.1966140621509125
 50
298.8599726126967084
 51
0.8613201849356407
  0
ARC
  5
C5A9
  8
0
 10
4227.0429852604711414
 20
601.5251481674157503
 30
0.0
 40
0.1196104129996017
 50
270.5701102803255935
 51
298.8599726126967084
  0
LINE
  5
C5AA
  8
0
 10
4229.0996582013476655
 20
630.9275543597910882
 30
0.0
 11
4227.4132926419842988
 21
630.9394716910270517
 31
0.0
  0
ARC
  5
C5AB
  8
0
 10
4227.412319123929592
 20
630.8017137243152774
 30
0.0
 40
0.1377614065332237
 50
89.5951047430337582
 51
167.9626887548216132
  0
ARC
  5
C5AC
  8
0
 10
4227.9034636132437299
 20
630.6724592636448961
 30
0.0
 40
0.645508203520814
 50
165.8332806340303875
 51
180.167501034542795
  0
LINE
  5
C5AD
  8
0
 10
4227.2579581681484342
 20
630.6705721588912184
 30
0.0
 11
4227.2579581681484342
 21
601.8159465371912802
 31
0.0
  0
ARC
  5
C5AE
  8
0
 10
4227.8752163487297366
 20
601.8133499068976562
 30
0.0
 40
0.6172636422022664
 50
179.7589743028430007
 51
200.6622171745017056
  0
ARC
  5
C5AF
  8
0
 10
4227.4345861786514433
 20
601.6823910689473678
 30
0.0
 40
0.1621483573775989
 50
212.3849692855471005
 51
269.367951828755281
  0
LINE
  5
C5B0
  8
0
 10
4227.4327975042479011
 20
601.5202525773911475
 30
0.0
 11
4229.103242436299297
 21
601.504730845935228
 31
0.0
  0
ARC
  5
C5B1
  8
0
 10
4228.3022474878698631
 20
612.0894368202046962
 30
0.0
 40
0.1910807478710805
 50
87.5669983779204273
 51
179.4330016349547066
  0
LINE
  5
C5B2
  8
0
 10
4228.3103590812470429
 20
612.2803453172912214
 30
0.0
 11
4231.3995436781478929
 21
612.1184480126911467
 31
0.0
  0
ARC
  5
C5B3
  8
0
 10
4231.3896709156188081
 20
611.9287658924639572
 30
0.0
 40
0.1899389946939383
 50
0.2004567988237747
 51
87.066192488480354
  0
LINE
  5
C5B4
  8
0
 10
4231.5796087478465779
 20
611.9294304175912202
 30
0.0
 11
4231.5796087478465779
 21
609.6486569334912247
 31
0.0
  0
ARC
  5
C5B5
  8
0
 10
4231.3896711247252824
 20
609.6493213745684443
 30
0.0
 40
0.1899387852953524
 50
272.9794370619583219
 51
359.7995683343241922
  0
LINE
  5
C5B6
  8
0
 10
4231.3995436781478929
 20
609.4596393383911845
 30
0.0
 11
4228.3103011767161661
 21
609.2988507247411007
 31
0.0
  0
ARC
  5
C5B7
  8
0
 10
4228.3004885269610895
 20
609.487381827682043
 30
0.0
 40
0.1887862941828931
 50
180.0205629268834002
 51
272.9794370619583219
  0
LINE
  5
C5B8
  8
0
 10
4228.1117022449370779
 20
609.4873140740235158
 30
0.0
 11
4228.1111760962467088
 21
612.0913276076477132
 31
0.0
  0
ARC
  5
C5B9
  8
0
 10
4228.0868517571952907
 20
612.325078252117919
 30
0.0
 40
0.3765579230176347
 50
86.4001761746862655
 51
180.0436089162261908
  0
LINE
  5
C5BA
  8
0
 10
4228.1104948692473045
 20
612.7008931967910712
 30
0.0
 11
4231.4601649409478341
 21
612.5099648225912006
 31
0.0
  0
ARC
  5
C5BB
  8
0
 10
4231.4373660640758317
 20
612.1285070799038976
 30
0.0
 40
0.3821382980636297
 50
359.9240778720147205
 51
86.5883581805196769
  0
LINE
  5
C5BC
  8
0
 10
4231.819504026647337
 20
612.1280007119912625
 30
0.0
 11
4231.819504026647337
 21
609.4500866390910687
 31
0.0
  0
ARC
  5
C5BD
  8
0
 10
4231.4373657015448771
 20
609.4495804560433498
 30
0.0
 40
0.3821386603491316
 50
273.4204244519535223
 51
0.07589433834916
  0
LINE
  5
C5BE
  8
0
 10
4231.4601649409478341
 20
609.0681225285910614
 30
0.0
 11
4228.1108878683917283
 21
608.8772165549115698
 31
0.0
  0
ARC
  5
C5BF
  8
0
 10
4228.0870736257893441
 20
609.2532429021438247
 30
0.0
 40
0.3767796862405717
 50
179.9919705021854099
 51
273.6237773486187166
  0
LINE
  5
C5C0
  8
0
 10
4227.7102939432479616
 20
609.2532957044911655
 30
0.0
 11
4227.7102939432479616
 21
612.3247916466912102
 31
0.0
  0
LINE
  5
C5C1
  8
0
 10
4227.8289752543878421
 20
612.5994786506000764
 30
0.0
 11
4228.1707161807307784
 21
612.2280418974894474
 31
0.0
  0
LINE
  5
C5C2
  8
0
 10
4231.5271431832115923
 20
612.0598315147605035
 30
0.0
 11
4231.715676089612316
 21
612.3903719468357849
 31
0.0
  0
LINE
  5
C5C3
  8
0
 10
4231.5271954479439955
 20
609.5183106777444664
 30
0.0
 11
4231.7156959967242074
 21
609.1877366046372799
 31
0.0
  0
LINE
  5
C5C4
  8
0
 10
4228.1705366175201561
 20
609.3504410882959519
 30
0.0
 11
4227.841614006677446
 21
608.9673889055842437
 31
0.0
  0
LINE
  5
C5C5
  8
0
 10
4226.777665939446706
 20
628.6847301846911478
 30
0.0
 11
4216.5804889494465897
 21
617.1345685578912708
 31
0.0
  0
ARC
  5
C5C6
  8
0
 10
4216.7229227901061677
 20
617.0088194013434304
 30
0.0
 40
0.1900006561494747
 50
138.5599999995037876
 51
219.8697274076062911
  0
ARC
  5
C5C7
  8
0
 10
2063520.7746265020687133
 20
1720614.5599996780510992
 30
0.0
 40
2683118.6654745731502771
 50
219.8697274076062911
 51
219.8700672031012004
  0
ENDSEC
  0
EOF
