  0
SECTION
  2
HEADER
  9
$ACADVER
  1
AC1009
  9
$INSBASE
 10
3463.869596667128917
 20
159.8368868033892056
 30
0.0
  9
$EXTMIN
 10
3435.3900904878078109
 20
159.8312934924531135
 30
-0.0000000000112498
  9
$EXTMAX
 10
3463.9333241038689266
 20
187.1633783048839064
 30
0.0000000000002956
  9
$LIMMIN
 10
0.0
 20
0.0
  9
$LIMMAX
 10
11.6929133858000007
 20
8.2677165353999982
  9
$ORTHOMODE
 70
     1
  9
$REGENMODE
 70
     1
  9
$FILLMODE
 70
     1
  9
$QTEXTMODE
 70
     0
  9
$MIRRTEXT
 70
     0
  9
$DRAGMODE
 70
     2
  9
$LTSCALE
 40
0.6431102362
  9
$OSMODE
 70
  2039
  9
$ATTMODE
 70
     1
  9
$TEXTSIZE
 40
0.2
  9
$TRACEWID
 40
0.05
  9
$TEXTSTYLE
  7
STANDARD
  9
$CLAYER
  8
0
  9
$CELTYPE
  6
BYLAYER
  9
$CECOLOR
 62
   256
  9
$DIMSCALE
 40
1.0
  9
$DIMASZ
 40
0.1875
  9
$DIMEXO
 40
0.0625
  9
$DIMDLI
 40
0.4443307087
  9
$DIMRND
 40
0.0
  9
$DIMDLE
 40
0.0
  9
$DIMEXE
 40
0.125
  9
$DIMTP
 40
0.01
  9
$DIMTM
 40
0.01
  9
$DIMTXT
 40
2.0
  9
$DIMCEN
 40
0.1052362205
  9
$DIMTSZ
 40
0.0
  9
$DIMTOL
 70
     1
  9
$DIMLIM
 70
     0
  9
$DIMTIH
 70
     1
  9
$DIMTOH
 70
     1
  9
$DIMSE1
 70
     0
  9
$DIMSE2
 70
     0
  9
$DIMTAD
 70
     0
  9
$DIMZIN
 70
     0
  9
$DIMBLK
  1

  9
$DIMASO
 70
     1
  9
$DIMSHO
 70
     1
  9
$DIMPOST
  1
\X
  9
$DIMAPOST
  1

  9
$DIMALT
 70
     1
  9
$DIMALTD
 70
     2
  9
$DIMALTF
 40
25.3999999999999986
  9
$DIMLFAC
 40
1.0
  9
$DIMTOFL
 70
     0
  9
$DIMTVP
 40
0.0
  9
$DIMTIX
 70
     0
  9
$DIMSOXD
 70
     0
  9
$DIMSAH
 70
     0
  9
$DIMBLK1
  1

  9
$DIMBLK2
  1

  9
$DIMSTYLE
  2
STANDARD
  9
$DIMCLRD
 70
     0
  9
$DIMCLRE
 70
     0
  9
$DIMCLRT
 70
     0
  9
$DIMTFAC
 40
1.0
  9
$DIMGAP
 40
0.09
  9
$LUNITS
 70
     2
  9
$LUPREC
 70
     4
  9
$SKETCHINC
 40
0.1
  9
$FILLETRAD
 40
0.0
  9
$AUNITS
 70
     0
  9
$AUPREC
 70
     0
  9
$MENU
  1
.
  9
$ELEVATION
 40
0.0
  9
$PELEVATION
 40
0.0
  9
$THICKNESS
 40
0.0
  9
$LIMCHECK
 70
     0
  9
$BLIPMODE
 70
     0
  9
$CHAMFERA
 40
0.0
  9
$CHAMFERB
 40
0.0
  9
$SKPOLY
 70
     0
  9
$TDCREATE
 40
2458060.468368056230247
  9
$TDUPDATE
 40
2459146.3843287038616836
  9
$TDINDWG
 40
0.5812686343
  9
$TDUSRTIMER
 40
0.5812686343
  9
$USRTIMER
 70
     1
  9
$ANGBASE
 50
0.0
  9
$ANGDIR
 70
     0
  9
$PDMODE
 70
     0
  9
$PDSIZE
 40
0.3125
  9
$PLINEWID
 40
0.0
  9
$COORDS
 70
     1
  9
$SPLFRAME
 70
     0
  9
$SPLINETYPE
 70
     6
  9
$SPLINESEGS
 70
     8
  9
$ATTDIA
 70
     1
  9
$ATTREQ
 70
     1
  9
$HANDLING
 70
     1
  9
$HANDSEED
  5
1C105
  9
$SURFTAB1
 70
     6
  9
$SURFTAB2
 70
     6
  9
$SURFTYPE
 70
     6
  9
$SURFU
 70
     6
  9
$SURFV
 70
     6
  9
$UCSNAME
  2

  9
$UCSORG
 10
0.0
 20
0.0
 30
0.0
  9
$UCSXDIR
 10
1.0
 20
0.0
 30
0.0
  9
$UCSYDIR
 10
0.0
 20
1.0
 30
0.0
  9
$PUCSNAME
  2

  9
$PUCSORG
 10
0.0
 20
0.0
 30
0.0
  9
$PUCSXDIR
 10
1.0
 20
0.0
 30
0.0
  9
$PUCSYDIR
 10
0.0
 20
1.0
 30
0.0
  9
$USERI1
 70
     0
  9
$USERI2
 70
     0
  9
$USERI3
 70
     0
  9
$USERI4
 70
     0
  9
$USERI5
 70
     0
  9
$USERR1
 40
0.0
  9
$USERR2
 40
0.0
  9
$USERR3
 40
0.0
  9
$USERR4
 40
0.0
  9
$USERR5
 40
0.0
  9
$WORLDVIEW
 70
     1
  9
$SHADEDGE
 70
     3
  9
$SHADEDIF
 70
    70
  9
$TILEMODE
 70
     1
  9
$MAXACTVP
 70
    64
  9
$PLIMCHECK
 70
     0
  9
$PEXTMIN
 10
1.0000000000000000E+20
 20
1.0000000000000000E+20
 30
1.0000000000000000E+20
  9
$PEXTMAX
 10
-1.0000000000000000E+20
 20
-1.0000000000000000E+20
 30
-1.0000000000000000E+20
  9
$PLIMMIN
 10
0.0
 20
0.0
  9
$PLIMMAX
 10
12.0
 20
9.0
  9
$UNITMODE
 70
     0
  9
$VISRETAIN
 70
     1
  9
$PLINEGEN
 70
     0
  9
$PSLTSCALE
 70
     1
  0
ENDSEC
  0
SECTION
  2
TABLES
  0
TABLE
  2
VPORT
 70
     1
  0
VPORT
  2
*ACTIVE
 70
     0
 10
0.0
 20
0.0
 11
1.0
 21
1.0
 12
145.9685920614637951
 22
-21.7641756772192103
 13
0.0
 23
0.0
 14
1.0
 24
1.0
 15
0.0
 25
0.0
 16
0.0
 26
0.0
 36
96.5995694866707311
 17
3303.693115234375
 27
195.2615115758877096
 37
0.0
 40
27.5595362810502209
 41
2.6486111111111108
 42
50.0
 43
0.0
 44
0.0
 50
0.0
 51
0.0
 71
     0
 72
   100
 73
     1
 74
     1
 75
     0
 76
     0
 77
     0
 78
     0
  0
ENDTAB
  0
TABLE
  2
LTYPE
 70
     2
  0
LTYPE
  2
CONTINUOUS
 70
     0
  3
Solid line
 72
    65
 73
     0
 40
0.0
  0
LTYPE
  2
PHANTOM2
 70
     0
  3
___ _ _ ___ _ _ ___ _ _ ___ _ _
 72
    65
 73
     6
 40
1.25
 49
0.625
 49
-0.125
 49
0.125
 49
-0.125
 49
0.125
 49
-0.125
  0
ENDTAB
  0
TABLE
  2
LAYER
 70
     2
  0
LAYER
  2
0
 70
     0
 62
   255
  6
CONTINUOUS
  0
LAYER
  2
DEFPOINTS
 70
     0
 62
     7
  6
CONTINUOUS
  0
ENDTAB
  0
TABLE
  2
STYLE
 70
     1
  0
STYLE
  2
STANDARD
 70
     0
 40
0.0
 41
0.8
 50
0.0
 71
     0
 42
0.2
  3
txt
  4

  0
ENDTAB
  0
TABLE
  2
VIEW
 70
     0
  0
ENDTAB
  0
TABLE
  2
UCS
 70
     0
  0
ENDTAB
  0
TABLE
  2
APPID
 70
     9
  0
APPID
  2
ACAD
 70
     0
  0
APPID
  2
ACAD_MLEADERVER
 70
     0
  0
APPID
  2
ACAD_EXEMPT_FROM_CAD_STANDARDS
 70
     0
  0
APPID
  2
ACAD_NAV_VCDISPLAY
 70
     0
  0
APPID
  2
ACAECLAYERSTANDARD
 70
     0
  0
APPID
  2
ACCMTRANSPARENCY
 70
     0
  0
APPID
  2
ACAD_DSTYLE_DIMJAG
 70
     0
  0
APPID
  2
ACAD_DSTYLE_DIMTALN
 70
     0
  0
APPID
  2
ACDBATTR
 70
     0
  0
ENDTAB
  0
TABLE
  2
DIMSTYLE
 70
     1
  0
DIMSTYLE
  2
STANDARD
 70
     0
  3

  4

  5

  6

  7

 40
1.0
 41
0.1875
 42
0.0625
 43
0.38
 44
0.125
 45
0.0
 46
0.0
 47
0.01
 48
0.01
140
0.15625
141
0.09
142
0.0
143
25.3999999999999986
144
1.0
145
0.0
146
1.0
147
0.09
 71
     1
 72
     0
 73
     1
 74
     1
 75
     0
 76
     0
 77
     0
 78
     4
170
     0
171
     2
172
     0
173
     0
174
     0
175
     0
176
     0
177
     0
178
     0
  0
ENDTAB
  0
ENDSEC
  0
SECTION
  2
BLOCKS
  0
BLOCK
  8
0
  2
$MODEL_SPACE
 70
     0
 10
0.0
 20
0.0
 30
0.0
  3
$MODEL_SPACE
  1

  0
ENDBLK
  5
21
  8
0
  0
BLOCK
 67
     1
  8
0
  2
$PAPER_SPACE
 70
     0
 10
0.0
 20
0.0
 30
0.0
  3
$PAPER_SPACE
  1

  0
ENDBLK
  5
1D
 67
     1
  8
0
  0
BLOCK
  8
0
  2
_FILLED
 70
     0
 10
0.0
 20
0.0
 30
0.0
  3
_FILLED
  1

  0
SOLID
  5
9E2C
  8
0
  6
BYBLOCK
 62
     0
 10
0.0
 20
0.0
 30
0.0
 11
-1.0
 21
0.1666666667
 31
0.0
 12
-1.0
 22
-0.1666666667
 32
0.0
 13
-1.0
 23
-0.1666666667
 33
0.0
  0
ENDBLK
  5
9E2D
  8
0
  6
BYBLOCK
 62
     0
  0
BLOCK
  8
0
  2
A$C6B0F1CD5
 70
     2
 10
0.0
 20
0.0
 30
0.0
  3
A$C6B0F1CD5
  1

  0
ATTDEF
  5
B779
  8
DEFPOINTS
 10
0.0005209962714616
 20
0.000347009907216
 30
0.0
 40
0.001
  1
BATH FAUCET
  3

  2
PRODUCT
 70
     0
1001
ACDBATTR
1070
     0
1070
     1
  0
ATTDEF
  5
B77A
  8
DEFPOINTS
 10
0.0005209962714616
 20
0.0020136765738812
 30
0.0
 40
0.001
  1
SINGULIER
  3

  2
TRADENAME
 70
     0
1001
ACDBATTR
1070
     0
1070
     1
  0
ATTDEF
  5
B77B
  8
DEFPOINTS
 10
0.0005209962714616
 20
0.0036803432405463
 30
0.0
 40
0.001
  1
K-10873W
  3

  2
MODELNUMBER
 70
     0
1001
ACDBATTR
1070
     0
1070
     1
  0
ENDBLK
  5
B77F
  8
0
  0
BLOCK
  8
0
  2
A$C790C4779
 70
     0
 10
0.0
 20
0.0
 30
0.0
  3
A$C790C4779
  1

  0
LINE
  5
135B8
  8
0
 62
     1
 10
0.0000000000000002
 20
-37.3954278042999988
 30
0.0
 11
0.000000000000002
 21
187.1233356006785584
 31
0.0
  0
LINE
  5
135B9
  8
0
 10
-4.232274871249996
 20
-0.0000000000500009
 30
0.0
 11
-1.6732305542500019
 21
0.0000000000500009
 31
0.0
  0
ARC
  5
135BA
  8
0
 10
-1.673230554249227
 20
-0.019685039349227
 30
0.0
 40
0.0196850393992278
 50
359.9999999977458174
 51
90.0000000022289299
  0
LINE
  5
135BB
  8
0
 10
-1.65354551485
 20
-0.0196850393500014
 30
0.0
 11
-1.6535455148548031
 21
-0.1417322834500041
 31
0.0
  0
ARC
  5
135BC
  8
0
 10
-1.8503959085783681
 20
-0.1417322834422592
 30
0.0
 40
0.1968503937235679
 50
308.0000000051189204
 51
359.9999999977458174
  0
ARC
  5
135BD
  8
0
 10
206402.867126322700642
 20
-264186.1327213866170496
 30
0.0
 40
335256.6379051808035001
 50
128.0000000051190909
 51
128.0001315430347972
  0
ARC
  5
135BE
  8
0
 10
-2.3841858483936611
 20
-0.7086672312258245
 30
0.0
 40
0.0787343436991881
 50
269.9974989648274004
 51
308.0001315430346835
  0
LINE
  5
135BF
  8
0
 10
-2.3841892852500002
 20
-0.7874015748500014
 30
0.0
 11
-3.521326940266623
 21
-0.7873519373147886
 31
0.0
  0
ARC
  5
135C0
  8
0
 10
-3.5213234946367509
 20
-0.7084166022533154
 30
0.0
 40
0.0789353351366763
 50
232.1074321309334039
 51
269.9974989648262067
  0
ARC
  5
135C1
  8
0
 10
122.5627830190684051
 20
161.2970992303251876
 30
0.0
 40
205.3665118602133077
 50
231.8926994283673935
 51
232.1074321309334039
  0
ARC
  5
135C2
  8
0
 10
-4.05438302028411
 20
-0.1413806812727074
 30
0.0
 40
0.1975826044299356
 50
180.1019590338792966
 51
231.894492101153304
  0
LINE
  5
135C3
  8
0
 10
-3.4665376408499968
 20
-0.8464569578199387
 30
0.0
 11
-3.4665376408499968
 21
-0.7873543289388536
 31
0.0
  0
LINE
  5
135C4
  8
0
 10
-2.4389785857499979
 20
-0.8464564280499971
 30
0.0
 11
-2.4389785857499979
 21
-0.7873991832258938
 31
0.0
  0
LINE
  5
135C5
  8
0
 10
-4.1763149515081661
 20
-0.2968525105499964
 30
0.0
 11
-1.729202704762441
 21
-0.2968525105499964
 31
0.0
  0
ARC
  5
135C6
  8
0
 10
-4.2322710507446732
 20
-0.0196942628668566
 30
0.0
 40
0.0196942632874289
 50
90.0111148525494258
 51
179.9731663683137128
  0
LINE
  5
135C7
  8
0
 10
-4.2519653118722616
 20
-0.0196850393500014
 30
0.0
 11
-4.2519653118722616
 21
-0.1417322834500041
 31
0.0
  0
LINE
  5
135C8
  8
0
 10
4.2322748712499969
 20
-0.0000000000500009
 30
0.0
 11
1.6732305542500019
 21
0.0000000000500009
 31
0.0
  0
ARC
  5
135C9
  8
0
 10
1.6732305542492281
 20
-0.019685039349227
 30
0.0
 40
0.0196850393992278
 50
89.9999999977710843
 51
180.0000000022540974
  0
LINE
  5
135CA
  8
0
 10
1.65354551485
 20
-0.0196850393500014
 30
0.0
 11
1.6535455148548031
 21
-0.1417322834500041
 31
0.0
  0
ARC
  5
135CB
  8
0
 10
1.8503959085783681
 20
-0.1417322834422592
 30
0.0
 40
0.1968503937235679
 50
180.0000000022540974
 51
231.999999994881108
  0
ARC
  5
135CC
  8
0
 10
-206402.867126322700642
 20
-264186.1327213866170496
 30
0.0
 40
335256.6379051808035001
 50
51.9998684569652525
 51
51.9999999948808806
  0
ARC
  5
135CD
  8
0
 10
2.3841858483936611
 20
-0.7086672312258245
 30
0.0
 40
0.0787343436991881
 50
231.9998684569652028
 51
270.0025010351724859
  0
LINE
  5
135CE
  8
0
 10
2.3841892852500002
 20
-0.7874015748500014
 30
0.0
 11
3.5213269402666239
 21
-0.7873519373147886
 31
0.0
  0
ARC
  5
135CF
  8
0
 10
3.5213234946367522
 20
-0.7084166022533154
 30
0.0
 40
0.0789353351366763
 50
270.0025010351737933
 51
307.8925678690666246
  0
ARC
  5
135D0
  8
0
 10
-122.5627830190684051
 20
161.2970992303251876
 30
0.0
 40
205.3665118602133077
 50
307.8925678690666246
 51
308.1073005716326065
  0
ARC
  5
135D1
  8
0
 10
4.0543830206346447
 20
-0.1413806814436782
 30
0.0
 40
0.1975826040790903
 50
308.1055078494570125
 51
359.8980410155184018
  0
LINE
  5
135D2
  8
0
 10
3.5236243727499978
 20
-0.8464569872500007
 30
0.0
 11
2.3818920892499991
 21
-0.8464563986499982
 31
0.0
  0
LINE
  5
135D3
  8
0
 10
2.3818920892499991
 20
-0.8464563986499982
 30
0.0
 11
2.3228369407499989
 21
-0.9055114862499991
 31
0.0
  0
LINE
  5
135D4
  8
0
 10
2.3228369407499989
 20
-0.9055114862499991
 30
0.0
 11
2.32283669621774
 21
-1.377952431149992
 31
0.0
  0
LINE
  5
135D5
  8
0
 10
2.32283669621774
 20
-1.377952431149992
 30
0.0
 11
2.3818917848499961
 21
-1.4370075797500019
 31
0.0
  0
LINE
  5
135D6
  8
0
 10
2.3818917848499961
 20
-1.4370075797500019
 30
0.0
 11
3.5236240682500002
 21
-1.4370092896499991
 31
0.0
  0
LINE
  5
135D7
  8
0
 10
3.5236240682500002
 20
-1.4370092896499991
 30
0.0
 11
3.5826792168500021
 21
-1.377954201950004
 31
0.0
  0
LINE
  5
135D8
  8
0
 10
3.5826792168500021
 20
-1.377954201950004
 30
0.0
 11
3.582679460450001
 21
-0.905512135849996
 31
0.0
  0
LINE
  5
135D9
  8
0
 10
3.582679460450001
 20
-0.905512135849996
 30
0.0
 11
3.5236243727499978
 21
-0.8464569872500007
 31
0.0
  0
LINE
  5
135DA
  8
0
 10
3.4665376408499982
 20
-0.8464569578199387
 30
0.0
 11
3.4665376408499982
 21
-0.7873543289388536
 31
0.0
  0
LINE
  5
135DB
  8
0
 10
2.4389785857499979
 20
-0.8464564280499971
 30
0.0
 11
2.4389785857499979
 21
-0.7873991832258938
 31
0.0
  0
LINE
  5
135DC
  8
0
 10
4.176314951508167
 20
-0.2968525105499964
 30
0.0
 11
1.729202704762441
 21
-0.2968525105499964
 31
0.0
  0
ARC
  5
135DD
  8
0
 10
4.2322710507446706
 20
-0.0196942628668637
 30
0.0
 40
0.01969426328744
 50
0.0268336317070377
 51
89.9888851474415361
  0
LINE
  5
135DE
  8
0
 10
4.2519653118722616
 20
-0.0196850393500014
 30
0.0
 11
4.2519653118722616
 21
-0.1417322834500041
 31
0.0
  0
LINE
  5
135DF
  8
0
 10
3.5433038938999988
 20
-0.9055123383000065
 30
0.0
 11
3.543303893900001
 21
-1.3779528689999969
 31
0.0
  0
LINE
  5
135E0
  8
0
 10
3.5826792168507078
 20
-1.377952833859438
 30
0.0
 11
3.4378639481999991
 21
-1.3779529631
 31
0.0
  0
ARC
  5
135E1
  8
0
 10
3.248028303433538
 20
-0.9399295068502055
 30
0.0
 40
0.4773909512347318
 50
246.5685011794114985
 51
293.4314988205883878
  0
LINE
  5
135E2
  8
0
 10
3.0581926583999999
 20
-1.3779529631
 30
0.0
 11
2.8473127671000542
 21
-1.3779527748999949
 31
0.0
  0
ARC
  5
135E3
  8
0
 10
2.6574772525882229
 20
-0.9398586328204601
 30
0.0
 40
0.4774560333709902
 50
246.5718688740558946
 51
293.4280970205315953
  0
LINE
  5
135E4
  8
0
 10
2.4676414772999991
 20
-1.3779529631
 30
0.0
 11
2.322837098936501
 21
-1.3779528338691589
 31
0.0
  0
LINE
  5
135E5
  8
0
 10
2.3622015316999998
 20
-1.3779528689999969
 30
0.0
 11
2.3622015316999989
 21
-0.9055123382999994
 31
0.0
  0
LINE
  5
135E6
  8
0
 10
3.582679460449878
 20
-0.9055123734407715
 30
0.0
 11
3.4378639481999991
 21
-0.9055122441999969
 31
0.0
  0
ARC
  5
135E7
  8
0
 10
3.248028303433538
 20
-1.343535700449791
 30
0.0
 40
0.4773909512347318
 50
66.5685011794114843
 51
113.4314988205885015
  0
LINE
  5
135E8
  8
0
 10
3.0581926583999999
 20
-0.9055122441999969
 30
0.0
 11
2.8473127671000542
 21
-0.9055124324000018
 31
0.0
  0
ARC
  5
135E9
  8
0
 10
2.6574772525882229
 20
-1.3436065744795369
 30
0.0
 40
0.4774560333709902
 50
66.5719029794683621
 51
113.4281311259440059
  0
LINE
  5
135EA
  8
0
 10
2.4676414772999991
 20
-0.9055122441999969
 30
0.0
 11
2.3228369407495402
 21
-0.9055123734309802
 31
0.0
  0
LINE
  5
135EB
  8
0
 10
3.4378639481999982
 20
-0.9055122441999969
 30
0.0
 11
3.4378639481999982
 21
-1.3779529631
 31
0.0
  0
LINE
  5
135EC
  8
0
 10
3.0581926583999999
 20
-0.9055122442336838
 30
0.0
 11
3.058192658399999
 21
-1.377952963066313
 31
0.0
  0
LINE
  5
135ED
  8
0
 10
2.8473127671
 20
-0.9055124324000018
 30
0.0
 11
2.8473127671
 21
-1.3779527748999949
 31
0.0
  0
LINE
  5
135EE
  8
0
 10
2.4676414772999991
 20
-0.9055122441999969
 30
0.0
 11
2.4676414772999999
 21
-1.3779529631
 31
0.0
  0
LINE
  5
135EF
  8
0
 10
-3.6169677232999988
 20
-1.523622219399996
 30
0.0
 11
3.6169677232999988
 21
-1.523622219399996
 31
0.0
  0
LINE
  5
135F0
  8
0
 10
-3.6169677232999988
 20
-1.523622219399996
 30
0.0
 11
-3.6169655664706148
 21
-1.79921328830644
 31
0.0
  0
LINE
  5
135F1
  8
0
 10
3.6169677233000002
 20
-1.523622219399996
 30
0.0
 11
3.6169655664706148
 21
-1.79921328830644
 31
0.0
  0
ARC
  5
135F2
  8
0
 10
2.6574690738000011
 20
-1.7992057790999989
 30
0.0
 40
0.9594964926999981
 50
270.0002677998999729
 51
359.9995515920693947
  0
LINE
  5
135F3
  8
0
 10
2.6574735584770042
 20
-2.7587022717895162
 30
0.0
 11
2.2392906997799491
 21
-2.7587042263720098
 31
0.0
  0
ARC
  5
135F4
  8
0
 10
1.907109920768588
 20
-4.075208196272551
 30
0.0
 40
1.3083373122455031
 50
92.8163441161551788
 51
111.9714302184384991
  0
ARC
  5
135F5
  8
0
 10
1.6844007503543561
 20
-3.5169014528423679
 30
0.0
 40
0.7072586572166115
 50
112.1620754251559049
 51
163.3646549416143046
  0
ARC
  5
135F6
  8
0
 10
2.7186311955143219
 20
-3.8197152938323948
 30
0.0
 40
1.784901853957199
 50
163.5553001483318099
 51
178.3862015974247868
  0
ARC
  5
135F7
  8
0
 10
17.0322942082439717
 20
-4.2229819411431349
 30
0.0
 40
16.1042444656422106
 50
178.3862015974247868
 51
179.0624040412432976
  0
LINE
  5
135F8
  8
0
 10
0.9302059317510785
 20
-3.9594616474315032
 30
0.0
 11
0.9302059317510789
 21
-6.2430797267999969
 31
0.0
  0
ARC
  5
135F9
  8
0
 10
-11.7908390203851798
 20
-5.718937694217189
 30
0.0
 40
12.7318384196702503
 50
355.5078398175591019
 51
357.6405908905456954
  0
ARC
  5
135FA
  8
0
 10
0.2226689771053312
 20
-6.6400791684104936
 30
0.0
 40
0.6834632913349376
 50
333.5756682723919084
 51
353.6113554237957146
  0
ARC
  5
135FB
  8
0
 10
-0.000004227200002
 20
-6.543456277899991
 30
0.0
 40
0.9259561775000049
 50
270.0002615682309965
 51
334.3531834573997799
  0
ARC
  5
135FC
  8
0
 10
-0.0039294877421534
 20
-2.5412034252165361
 30
0.0
 40
0.8186418030565732
 50
2.3872099443528429
 51
89.7249787062001758
  0
ARC
  5
135FD
  8
0
 10
-1.2042913979932119
 20
-4.5679724788304936
 30
0.0
 40
2.0296260080375919
 50
339.3436971396209856
 51
353.942414238114111
  0
ARC
  5
135FE
  8
0
 10
0.004017697323935
 20
-4.9538129150649262
 30
0.0
 40
0.7656678747152985
 50
269.6993498564817742
 51
334.446170457167284
  0
ARC
  5
135FF
  8
0
 10
2.1686245118476162
 20
-7.9508769724150801
 30
0.0
 40
5.192656081247792
 50
89.2201525049801347
 51
93.5971406112717261
  0
LINE
  5
13600
  8
0
 10
10.3808581070999999
 20
0.0000014401000001
 30
0.0
 11
12.3030732488000005
 21
0.0000014401000001
 31
0.0
  0
LINE
  5
13601
  8
0
 10
12.3030732488000005
 20
0.0000014401000001
 30
0.0
 11
12.29657102
 21
-1.033483819499998
 31
0.0
  0
ARC
  5
13602
  8
0
 10
8.1992593507892622
 20
-1.007705359971282
 30
0.0
 40
4.0973927616993393
 50
345.2166835011761918
 51
359.6395252388066979
  0
ARC
  5
13603
  8
0
 10
7.665804588572442
 20
-0.8630059943421527
 30
0.0
 40
4.6501126065208096
 50
341.9974842144903278
 51
345.1699741906389818
  0
ARC
  5
13604
  8
0
 10
12.0028788648755391
 20
-2.2764817731436571
 30
0.0
 40
0.0886059968295827
 50
318.0992830752639975
 51
344.4977818221523762
  0
ARC
  5
13605
  8
0
 10
12.0222500335543199
 20
-2.2924277543286129
 30
0.0
 40
0.0635475594357337
 50
280.4396121136027205
 51
317.1360971380005935
  0
LINE
  5
13606
  8
0
 10
12.0337647944999997
 20
-2.3549233748999958
 30
0.0
 11
11.9798079277565606
 21
-2.3627665272333331
 31
0.0
  0
ARC
  5
13607
  8
0
 10
11.9770126687480296
 20
-2.3433200881157599
 30
0.0
 40
0.0196466119684799
 50
190.154941106188403
 51
277.939795250628606
  0
LINE
  5
13608
  8
0
 10
11.95767382945
 20
-2.3467839957999952
 30
0.0
 11
11.9571443876300005
 21
-2.308943896012607
 31
0.0
  0
LINE
  5
13609
  8
0
 10
10.7521216164000002
 20
-1.210324162899993
 30
0.0
 11
11.9318097393000002
 21
-1.210324196599998
 31
0.0
  0
ARC
  5
1360A
  8
0
 10
11.9318097387331292
 20
-1.230167867049893
 30
0.0
 40
0.0198436704498946
 50
359.8147381281693242
 51
89.9999983632289542
  0
LINE
  5
1360B
  8
0
 10
11.9516533054496605
 20
-1.2302320300503231
 30
0.0
 11
11.9566201102960505
 21
-2.208815112944535
 31
0.0
  0
ARC
  5
1360C
  8
0
 10
11.8551802160073105
 20
-2.2804312542049838
 30
0.0
 40
0.1058756961608776
 50
344.3772049374097719
 51
2.5461677608355711
  0
ARC
  5
1360D
  8
0
 10
10.6067466818612992
 20
-2.3297893135268088
 30
0.0
 40
1.3552833762090479
 50
2.2861042438788921
 51
5.1211050264768181
  0
LINE
  5
1360E
  8
0
 10
11.9443278825999997
 20
-1.214818001299995
 30
0.0
 11
11.9443278825999997
 21
-2.0771530284999988
 31
0.0
  0
ARC
  5
1360F
  8
0
 10
7.7738742757910222
 20
-2.5360116965846942
 30
0.0
 40
4.1956208794196908
 50
4.4909549061469374
 51
6.2787749749526132
  0
ARC
  5
13610
  8
0
 10
8.9328028997891487
 20
-2.4084993214452619
 30
0.0
 40
3.0296985143644992
 50
6.2787749749526123
 51
11.4328692858054399
  0
ARC
  5
13611
  8
0
 10
6.2269925402716213
 20
-2.9813099462674368
 30
0.0
 40
5.7954158466209558
 50
11.6810173414004108
 51
12.6660501549976203
  0
ARC
  5
13612
  8
0
 10
11.3410135079070997
 20
-1.8142682605241871
 30
0.0
 40
0.5503239048216554
 50
10.86426564846942
 51
89.8999399818415554
  0
ARC
  5
13613
  8
0
 10
11.9403624301628604
 20
-1.271832645922472
 30
0.0
 40
0.011990444703853
 50
16.7031499675962891
 51
70.6476770153719542
  0
ARC
  5
13614
  8
0
 10
11.9403908746999896
 20
-1.8779516345999949
 30
0.0
 40
0.011811023600004
 50
289.5118474172356855
 51
0.0
  0
LINE
  5
13615
  8
0
 10
11.9522018983000002
 20
-1.8779516345999949
 30
0.0
 11
11.9528880707079601
 21
-1.4735112468700251
 31
0.0
  0
ARC
  5
13616
  8
0
 10
11.8716683941174104
 20
-2.2845554211270871
 30
0.0
 40
0.0888872497842505
 50
331.9619538346584022
 51
344.0752043370417255
  0
ARC
  5
13617
  8
0
 10
13.6448174646469802
 20
-2.6082002513809708
 30
0.0
 40
1.7179739166623069
 50
170.5569657723497983
 51
176.416341704627996
  0
ARC
  5
13618
  8
0
 10
40.6176326128047194
 20
-4.5165655329799712
 30
0.0
 40
28.7581617563696206
 50
175.9806653773430867
 51
177.8243949032508056
  0
ARC
  5
13619
  8
0
 10
11.3109454596221699
 20
-3.9843821651330771
 30
0.0
 40
2.3739108471967758
 50
270.7487131088689125
 51
304.0721119084967086
  0
ARC
  5
1361A
  8
0
 10
11.9392484018913105
 20
-4.9930688185020671
 30
0.0
 40
1.1872246568299929
 50
306.2278427815676878
 51
341.1817607006785806
  0
ARC
  5
1361B
  8
0
 10
12.2872573453760499
 20
-5.1116643625316414
 30
0.0
 40
0.8195629538895935
 50
341.1817607006785806
 51
357.4079159961017922
  0
ARC
  5
1361C
  8
0
 10
11.8011570714692908
 20
-5.0896579760327496
 30
0.0
 40
1.3061611015833281
 50
357.4079159961017922
 51
1.859337335707236
  0
LINE
  5
1361D
  8
0
 10
13.1066304719000009
 20
-5.0472784519999934
 30
0.0
 11
13.0868023329999996
 21
-4.6459973220999942
 31
0.0
  0
ARC
  5
1361E
  8
0
 10
12.1079914253851406
 20
-4.7028268321022209
 30
0.0
 40
0.9804592730312299
 50
3.322847899046351
 51
30.3415943727762816
  0
ARC
  5
1361F
  8
0
 10
11.7444886779769906
 20
-4.9405605757694451
 30
0.0
 40
1.4144290415860841
 50
31.2144213116060705
 51
59.0490585062247391
  0
ARC
  5
13620
  8
0
 10
10.8464265443629309
 20
-6.5341546809798103
 30
0.0
 40
3.2433612945695489
 50
59.9218854450547767
 51
66.9248125443956212
  0
ARC
  5
13621
  8
0
 10
12.6684623023076401
 20
-2.2204077592796159
 30
0.0
 40
1.4394475239673199
 50
236.7965187613311002
 51
247.5006852366697103
  0
ARC
  5
13622
  8
0
 10
12.0955923033801795
 20
-3.08839684311718
 30
0.0
 40
0.3994826227261367
 50
222.6214766235947025
 51
237.3723914536045925
  0
ARC
  5
13623
  8
0
 10
11.8438483531682408
 20
-3.3152100033849901
 30
0.0
 40
0.0609266116601539
 50
200.1534310629050992
 51
225.9817505718258133
  0
ARC
  5
13624
  8
0
 10
11.9762488603168809
 20
-3.3085488660547631
 30
0.0
 40
0.1916027213839594
 50
177.8119439527129089
 51
188.2980249856892101
  0
LINE
  5
13625
  8
0
 10
11.7847858370215999
 20
-3.3012335704231068
 30
0.0
 11
11.8417615188000003
 21
-1.918661399399987
 31
0.0
  0
ARC
  5
13626
  8
0
 10
12.9657332026160592
 20
-1.9649801770574551
 30
0.0
 40
1.124925675404381
 50
165.616448583165095
 51
177.6401810463889888
  0
ARC
  5
13627
  8
0
 10
11.3471134242308
 20
-3.5432079149980491
 30
0.0
 40
2.3829989295199301
 50
269.8762315409881012
 51
287.8607440399625261
  0
ARC
  5
13628
  8
0
 10
11.51442690145727
 20
-4.062436459526416
 30
0.0
 40
1.837478919699338
 50
287.8607440399622988
 51
310.9111810268066733
  0
ARC
  5
13629
  8
0
 10
11.9834054086248099
 20
-4.6036266166918827
 30
0.0
 40
1.1213590788920349
 50
310.9111810268066733
 51
334.6055649638310001
  0
ARC
  5
1362A
  8
0
 10
12.1240198547220093
 20
-4.6703785286917103
 30
0.0
 40
0.9657048460332601
 50
334.6055649638310001
 51
351.8644030939661889
  0
ARC
  5
1362B
  8
0
 10
12.2224814324441091
 20
-4.6844541034681866
 30
0.0
 40
0.866242269690127
 50
351.8644030939661889
 51
359.9718430927334225
  0
LINE
  5
1362C
  8
0
 10
10.3808581069999999
 20
0.0000014401000001
 30
0.0
 11
10.3873603358000004
 21
-1.033483819499998
 31
0.0
  0
ARC
  5
1362D
  8
0
 10
14.48467200501074
 20
-1.007705359971282
 30
0.0
 40
4.0973927616993393
 50
180.3604747611933021
 51
194.7833164988236945
  0
ARC
  5
1362E
  8
0
 10
15.0181267672275602
 20
-0.8630059943421527
 30
0.0
 40
4.6501126065208096
 50
194.8300258093609898
 51
198.0025157855097007
  0
ARC
  5
1362F
  8
0
 10
10.6810524909244595
 20
-2.2764817731436571
 30
0.0
 40
0.0886059968295827
 50
195.5022181778475101
 51
221.9007169247360025
  0
ARC
  5
13630
  8
0
 10
10.6616813222456894
 20
-2.2924277543286129
 30
0.0
 40
0.0635475594357337
 50
222.8639028619994065
 51
259.5603878863972227
  0
LINE
  5
13631
  8
0
 10
10.6501665613000007
 20
-2.3549233748999958
 30
0.0
 11
10.7041234280434399
 21
-2.3627665272333331
 31
0.0
  0
ARC
  5
13632
  8
0
 10
10.7069186870519708
 20
-2.3433200881157599
 30
0.0
 40
0.0196466119684799
 50
262.0602047493715077
 51
349.845058893811597
  0
LINE
  5
13633
  8
0
 10
10.7262575263500004
 20
-2.3467839957999952
 30
0.0
 11
10.7267869681699999
 21
-2.308943896012607
 31
0.0
  0
ARC
  5
13634
  8
0
 10
10.7521216170668694
 20
-1.230167867049893
 30
0.0
 40
0.0198436704498946
 50
90.0000016367710316
 51
180.1852618718305905
  0
LINE
  5
13635
  8
0
 10
10.7322780503503399
 20
-1.2302320300503231
 30
0.0
 11
10.7273112455039605
 21
-2.208815112944535
 31
0.0
  0
ARC
  5
13636
  8
0
 10
10.8287511397926899
 20
-2.2804312542049838
 30
0.0
 40
0.1058756961608776
 50
177.4538322391643987
 51
195.6227950625901997
  0
ARC
  5
13637
  8
0
 10
12.0771846739387101
 20
-2.3297893135268088
 30
0.0
 40
1.3552833762090479
 50
174.8788949735231881
 51
177.7138957561211043
  0
LINE
  5
13638
  8
0
 10
10.7396034732000007
 20
-1.214818001299995
 30
0.0
 11
10.7396034732000007
 21
-2.0771530284999988
 31
0.0
  0
ARC
  5
13639
  8
0
 10
14.9100570800089791
 20
-2.5360116965846942
 30
0.0
 40
4.1956208794196908
 50
173.7212250250474028
 51
175.5090450938533877
  0
ARC
  5
1363A
  8
0
 10
13.75112845601085
 20
-2.4084993214452619
 30
0.0
 40
3.0296985143644992
 50
168.5671307141944908
 51
173.7212250250474028
  0
ARC
  5
1363B
  8
0
 10
16.4569388155283782
 20
-2.9813099462674368
 30
0.0
 40
5.7954158466209558
 50
167.3339498450023086
 51
168.3189826585995093
  0
ARC
  5
1363C
  8
0
 10
11.3429178478929007
 20
-1.8142682605241871
 30
0.0
 40
0.5503239048216554
 50
90.1000600181584446
 51
169.1357343515306013
  0
ARC
  5
1363D
  8
0
 10
10.7435689256371294
 20
-1.271832645922472
 30
0.0
 40
0.011990444703853
 50
109.3523229846280032
 51
163.2968500324037109
  0
ARC
  5
1363E
  8
0
 10
10.7435404811000108
 20
-1.8779516345999949
 30
0.0
 40
0.011811023600004
 50
180.0
 51
250.4881525827642861
  0
LINE
  5
1363F
  8
0
 10
10.7317294575000002
 20
-1.8779516345999949
 30
0.0
 11
10.7310432850920296
 21
-1.4735112468700251
 31
0.0
  0
ARC
  5
13640
  8
0
 10
10.81226296168259
 20
-2.2845554211270871
 30
0.0
 40
0.0888872497842505
 50
195.9247956629581893
 51
208.0380461653415125
  0
ARC
  5
13641
  8
0
 10
9.0391138911530184
 20
-2.6082002513809708
 30
0.0
 40
1.7179739166623069
 50
3.583658295372016
 51
9.4430342276501467
  0
ARC
  5
13642
  8
0
 10
-17.9337012570047207
 20
-4.5165655329799712
 30
0.0
 40
28.7581617563696206
 50
2.1756050967491292
 51
4.0193346226568458
  0
ARC
  5
13643
  8
0
 10
11.4255435852618508
 20
-3.8167771224841109
 30
0.0
 40
2.5426871789811072
 50
237.0628215887417127
 51
268.1163533938930073
  0
ARC
  5
13644
  8
0
 10
10.7446829539086792
 20
-4.9930688185020671
 30
0.0
 40
1.1872246568299929
 50
198.8182392993213909
 51
233.7721572184323975
  0
ARC
  5
13645
  8
0
 10
10.3966740104239399
 20
-5.1116643625316414
 30
0.0
 40
0.8195629538895935
 50
182.5920840038982078
 51
198.8182392993213909
  0
ARC
  5
13646
  8
0
 10
10.8827742843307096
 20
-5.0896579760327496
 30
0.0
 40
1.3061611015833281
 50
178.1406626642927051
 51
182.5920840038982078
  0
LINE
  5
13647
  8
0
 10
9.5773008839000013
 20
-5.0472784519999934
 30
0.0
 11
9.5971290228000043
 21
-4.6459973220999942
 31
0.0
  0
ARC
  5
13648
  8
0
 10
10.5759399304148705
 20
-4.7028268321022209
 30
0.0
 40
0.9804592730312299
 50
149.6584056272236865
 51
176.6771521009536059
  0
ARC
  5
13649
  8
0
 10
10.9394426778230098
 20
-4.9405605757694451
 30
0.0
 40
1.4144290415860841
 50
120.9509414937752041
 51
148.7855786883939118
  0
ARC
  5
1364A
  8
0
 10
11.8375048114370696
 20
-6.5341546809798103
 30
0.0
 40
3.2433612945695489
 50
113.075187455604393
 51
120.0781145549451026
  0
ARC
  5
1364B
  8
0
 10
10.0154690534923603
 20
-2.2204077592796159
 30
0.0
 40
1.4394475239673199
 50
292.4993147633302897
 51
303.2034812386688145
  0
ARC
  5
1364C
  8
0
 10
10.5883390524198209
 20
-3.08839684311718
 30
0.0
 40
0.3994826227261367
 50
302.6276085463953223
 51
317.378523376405326
  0
ARC
  5
1364D
  8
0
 10
10.8400830026317703
 20
-3.3152100033849901
 30
0.0
 40
0.0609266116601539
 50
314.0182494281742152
 51
339.8465689370949008
  0
ARC
  5
1364E
  8
0
 10
10.7076824954831196
 20
-3.3085488660547631
 30
0.0
 40
0.1916027213839594
 50
351.7019750143107899
 51
2.1880560472870609
  0
LINE
  5
1364F
  8
0
 10
10.8991455187783899
 20
-3.3012335704231068
 30
0.0
 11
10.8421698370000001
 21
-1.918661399399987
 31
0.0
  0
ARC
  5
13650
  8
0
 10
9.7181981531839376
 20
-1.9649801770574551
 30
0.0
 40
1.124925675404381
 50
2.3598189536110099
 51
14.3835514168352994
  0
ARC
  5
13651
  8
0
 10
11.3368179315692004
 20
-3.5432079149980491
 30
0.0
 40
2.3829989295199301
 50
252.1392559600373886
 51
270.1237684590118988
  0
ARC
  5
13652
  8
0
 10
11.1695044543427304
 20
-4.062436459526416
 30
0.0
 40
1.837478919699338
 50
229.088818973193213
 51
252.1392559600375876
  0
ARC
  5
13653
  8
0
 10
10.7005259471751906
 20
-4.6036266166918827
 30
0.0
 40
1.1213590788920349
 50
205.3944350361689999
 51
229.088818973193213
  0
ARC
  5
13654
  8
0
 10
10.559911501078
 20
-4.6703785286917103
 30
0.0
 40
0.9657048460332601
 50
188.1355969060338111
 51
205.3944350361689999
  0
ARC
  5
13655
  8
0
 10
10.4614499233558895
 20
-4.6844541034681866
 30
0.0
 40
0.866242269690127
 50
180.0281569072666059
 51
188.1355969060338111
  0
LINE
  5
13656
  8
0
 10
10.4604561302098205
 20
-1.7786230187561849
 30
0.0
 11
0.9302059317510789
 21
-4.5311086975323072
 31
0.0
  0
LINE
  5
13657
  8
0
 10
0.9302059317510792
 20
-5.1048187572632591
 30
0.0
 11
10.5999036389994501
 21
-2.312061071976216
 31
0.0
  0
LINE
  5
13658
  8
0
 10
11.2336978269000003
 20
-0.1102346034999968
 30
0.0
 11
11.4502333625000006
 21
-0.1102346034999968
 31
0.0
  0
ARC
  5
13659
  8
0
 10
11.4502333625000006
 20
-0.1200771551352986
 30
0.0
 40
0.0098425516353018
 50
0.0048522026362922
 51
90.0000000000394493
  0
LINE
  5
1365A
  8
0
 10
11.4600759141000008
 20
-0.1200763215999956
 30
0.0
 11
11.4600909177550001
 21
-0.2972424812523968
 31
0.0
  0
ARC
  5
1365B
  8
0
 10
11.4502492180850197
 20
-0.2972433147155584
 30
0.0
 40
0.0098416997052721
 50
269.9078786402786818
 51
0.0048522026338495
  0
LINE
  5
1365C
  8
0
 10
11.4502333943999997
 20
-0.3070850016999955
 30
0.0
 11
11.2336979033999995
 21
-0.3070850016000008
 31
0.0
  0
ARC
  5
1365D
  8
0
 10
11.23369796110393
 20
-0.2972424820962374
 30
0.0
 40
0.0098425195039326
 50
179.9999994397452099
 51
269.999664090888075
  0
LINE
  5
1365E
  8
0
 10
11.2238554415999996
 20
-0.2972424819999944
 30
0.0
 11
11.2238554433323703
 21
-0.1200771232158502
 31
0.0
  0
ARC
  5
1365F
  8
0
 10
11.2336979631454099
 20
-0.1200771233120932
 30
0.0
 40
0.0098425198130396
 50
90.0007931187747943
 51
179.9999994397468015
  0
LINE
  5
13660
  8
0
 10
11.2435404810000001
 20
-0.285157346899993
 30
0.0
 11
11.4403908747000003
 21
-0.285157346899993
 31
0.0
  0
LINE
  5
13661
  8
0
 10
11.4403908747000003
 20
-0.285157346899993
 30
0.0
 11
11.4403908747000003
 21
-0.1259827065999985
 31
0.0
  0
LINE
  5
13662
  8
0
 10
11.4403908747000003
 20
-0.1259827065999985
 30
0.0
 11
11.2435404810000001
 21
-0.1259827065999985
 31
0.0
  0
LINE
  5
13663
  8
0
 10
11.2435404810000001
 20
-0.1259827065999985
 30
0.0
 11
11.2435404810000001
 21
-0.285157346899993
 31
0.0
  0
LINE
  5
13664
  8
0
 10
11.2435404810000001
 20
-0.1329247435999932
 30
0.0
 11
11.4403908747000003
 21
-0.1329247435999932
 31
0.0
  0
LINE
  5
13665
  8
0
 10
11.4403908747000003
 20
-0.1758951483000004
 30
0.0
 11
11.2435404810000001
 21
-0.1758951483000004
 31
0.0
  0
LINE
  5
13666
  8
0
 62
     1
 10
2.9527527127499957
 20
0.0
 30
0.0
 11
3465.1453154132996133
 21
0.0
 31
0.0
  0
LINE
  5
13667
  8
0
 10
-3.3740125552999989
 20
-1.437007873999995
 30
0.0
 11
-3.3740125552999989
 21
-1.5236220473000011
 31
0.0
  0
LINE
  5
13668
  8
0
 10
-2.5314928702999988
 20
-1.523622219399996
 30
0.0
 11
-2.5314928702999988
 21
-1.4370080725999941
 31
0.0
  0
LINE
  5
13669
  8
0
 10
2.5315011772
 20
-1.5236210477475041
 30
0.0
 11
2.5315013069151591
 21
-1.4370078038106859
 31
0.0
  0
LINE
  5
1366A
  8
0
 10
3.3740208622000001
 20
-1.5236209259999991
 30
0.0
 11
3.3740208622000001
 21
-1.437009065598772
 31
0.0
  0
ARC
  5
1366B
  8
0
 10
2.271510834839332
 20
-1.5234519131982931
 30
0.0
 40
0.0207238646051601
 50
359.5319609112299872
 51
56.0224196324593322
  0
ARC
  5
1366C
  8
0
 10
2.2754550412557482
 20
-1.5175994482230091
 30
0.0
 40
0.0136663784704072
 50
56.0224196324582806
 51
91.2475798736429198
  0
LINE
  5
1366D
  8
0
 10
2.2751574879000001
 20
-1.503936309399996
 30
0.0
 11
-2.2752329068285522
 21
-1.5039382334107709
 31
0.0
  0
ARC
  5
1366E
  8
0
 10
-2.2740689617853578
 20
-1.521347485033139
 30
0.0
 40
0.0174094494500777
 50
89.727221817396412
 51
153.1828808872606089
  0
ARC
  5
1366F
  8
0
 10
-2.270154145968919
 20
-1.5238287508724959
 30
0.0
 40
0.022027201329863
 50
152.016809705136609
 51
179.4627927975514012
  0
LINE
  5
13670
  8
0
 10
-1.7716502950999991
 20
-1.503936318799993
 30
0.0
 11
-1.7716502967500001
 21
-1.4842512795
 31
0.0
  0
LINE
  5
13671
  8
0
 10
-1.7716502967500001
 20
-1.4842512795
 30
0.0
 11
-1.5354298242999991
 21
-1.484251260299998
 31
0.0
  0
LINE
  5
13672
  8
0
 10
-1.5354298242999991
 20
-1.484251260299998
 30
0.0
 11
-1.5354298226999989
 21
-1.5039362989999949
 31
0.0
  0
LINE
  5
13673
  8
0
 10
-2.3818893597500002
 20
-0.8464569872500007
 30
0.0
 11
-3.5236216432499989
 21
-0.8464563986499982
 31
0.0
  0
LINE
  5
13674
  8
0
 10
-3.5236216432499989
 20
-0.8464563986499982
 30
0.0
 11
-3.5826767917499991
 21
-0.9055114862499991
 31
0.0
  0
LINE
  5
13675
  8
0
 10
-3.5826767917499991
 20
-0.9055114862499991
 30
0.0
 11
-3.5826770362822589
 21
-1.377952431149992
 31
0.0
  0
LINE
  5
13676
  8
0
 10
-3.5826770362822589
 20
-1.377952431149992
 30
0.0
 11
-3.5236219476500028
 21
-1.4370075797500019
 31
0.0
  0
LINE
  5
13677
  8
0
 10
-3.5236219476500028
 20
-1.4370075797500019
 30
0.0
 11
-2.3818896642499992
 21
-1.4370092896499991
 31
0.0
  0
LINE
  5
13678
  8
0
 10
-2.3818896642499992
 20
-1.4370092896499991
 30
0.0
 11
-2.3228345156499959
 21
-1.377954201950004
 31
0.0
  0
LINE
  5
13679
  8
0
 10
-2.3228345156499959
 20
-1.377954201950004
 30
0.0
 11
-2.322834272049997
 21
-0.905512135849996
 31
0.0
  0
LINE
  5
1367A
  8
0
 10
-2.322834272049997
 20
-0.905512135849996
 30
0.0
 11
-2.3818893597500002
 21
-0.8464569872500007
 31
0.0
  0
LINE
  5
1367B
  8
0
 10
-2.3622098386000001
 20
-0.9055123383000065
 30
0.0
 11
-2.3622098385999979
 21
-1.3779528689999969
 31
0.0
  0
LINE
  5
1367C
  8
0
 10
-2.3228345156492902
 20
-1.377952833859438
 30
0.0
 11
-2.4676497842999989
 21
-1.3779529631
 31
0.0
  0
ARC
  5
1367D
  8
0
 10
-2.65748542906646
 20
-0.9399295068502055
 30
0.0
 40
0.4773909512347318
 50
246.5685011794114985
 51
293.4314988205883878
  0
LINE
  5
1367E
  8
0
 10
-2.847321074099999
 20
-1.3779529631
 30
0.0
 11
-3.0582009653999451
 21
-1.3779527748999949
 31
0.0
  0
ARC
  5
1367F
  8
0
 10
-3.248036479911776
 20
-0.9398586328204601
 30
0.0
 40
0.4774560333709902
 50
246.5718688740558946
 51
293.4280970205315953
  0
LINE
  5
13680
  8
0
 10
-3.4378722551999989
 20
-1.3779529631
 30
0.0
 11
-3.582676633563497
 21
-1.3779528338691589
 31
0.0
  0
LINE
  5
13681
  8
0
 10
-3.5433122007999991
 20
-1.3779528689999969
 30
0.0
 11
-3.5433122007999991
 21
-0.9055123382999994
 31
0.0
  0
LINE
  5
13682
  8
0
 10
-2.3228342720501201
 20
-0.9055123734407715
 30
0.0
 11
-2.4676497842999989
 21
-0.9055122441999969
 31
0.0
  0
ARC
  5
13683
  8
0
 10
-2.65748542906646
 20
-1.343535700449791
 30
0.0
 40
0.4773909512347318
 50
66.5685011794115127
 51
113.4314988205885015
  0
LINE
  5
13684
  8
0
 10
-2.847321074099999
 20
-0.9055122441999969
 30
0.0
 11
-3.0582009653999451
 21
-0.9055124324000018
 31
0.0
  0
ARC
  5
13685
  8
0
 10
-3.248036479911776
 20
-1.3436065744795369
 30
0.0
 40
0.4774560333709902
 50
66.5719029794683905
 51
113.4281311259440059
  0
LINE
  5
13686
  8
0
 10
-3.4378722551999989
 20
-0.9055122441999969
 30
0.0
 11
-3.5826767917504578
 21
-0.9055123734309802
 31
0.0
  0
LINE
  5
13687
  8
0
 10
-2.4676497842999998
 20
-0.9055122441999969
 30
0.0
 11
-2.4676497842999998
 21
-1.3779529631
 31
0.0
  0
LINE
  5
13688
  8
0
 10
-2.847321074099999
 20
-0.9055122442336838
 30
0.0
 11
-2.847321074099999
 21
-1.377952963066313
 31
0.0
  0
LINE
  5
13689
  8
0
 10
-3.058200965399998
 20
-0.9055124324000018
 30
0.0
 11
-3.0582009653999989
 21
-1.3779527748999949
 31
0.0
  0
LINE
  5
1368A
  8
0
 10
-3.4378722551999989
 20
-0.9055122441999969
 30
0.0
 11
-3.4378722551999981
 21
-1.3779529631
 31
0.0
  0
LINE
  5
1368B
  8
0
 10
0.8140018595208253
 20
-2.5071048493476691
 30
0.0
 11
0.8140018595208253
 21
-4.7821547824318884
 31
0.0
  0
ARC
  5
1368C
  8
0
 10
-2.6574690738000011
 20
-1.7992057790999989
 30
0.0
 40
0.9594964926999981
 50
180.0004484079302074
 51
269.9997322001000271
  0
LINE
  5
1368D
  8
0
 10
-2.6574735584770042
 20
-2.7587022717895162
 30
0.0
 11
-2.2392906997799491
 21
-2.7587042263720098
 31
0.0
  0
ARC
  5
1368E
  8
0
 10
-1.907109920768588
 20
-4.075208196272551
 30
0.0
 40
1.3083373122455031
 50
68.0285697815615009
 51
87.1836558838448354
  0
ARC
  5
1368F
  8
0
 10
-1.6844007503543561
 20
-3.5169014528423679
 30
0.0
 40
0.7072586572166115
 50
16.635345058385699
 51
67.8379245748440667
  0
ARC
  5
13690
  8
0
 10
-2.718631195514321
 20
-3.8197152938323948
 30
0.0
 40
1.784901853957199
 50
1.6137984025751699
 51
16.4446998516682008
  0
ARC
  5
13691
  8
0
 10
-17.0322942082439717
 20
-4.2229819411431349
 30
0.0
 40
16.1042444656422106
 50
0.9375959587566665
 51
1.6137984025751699
  0
LINE
  5
13692
  8
0
 10
-0.930205931751078
 20
-3.9594616474315032
 30
0.0
 11
-0.9302059317510785
 21
-6.2430797267999969
 31
0.0
  0
ARC
  5
13693
  8
0
 10
11.7908390203851798
 20
-5.718937694217189
 30
0.0
 40
12.7318384196702503
 50
182.3594091094543046
 51
184.4921601824408981
  0
ARC
  5
13694
  8
0
 10
-0.2226689771053307
 20
-6.6400791684104936
 30
0.0
 40
0.6834632913349376
 50
186.3886445762043138
 51
206.4243317276082053
  0
ARC
  5
13695
  8
0
 10
0.0000042272000025
 20
-6.543456277899991
 30
0.0
 40
0.9259561775000049
 50
205.6468165426001065
 51
269.9997384317690035
  0
ARC
  5
13696
  8
0
 10
0.000001751300015
 20
-2.531514959500007
 30
0.0
 40
0.8089439065000162
 50
90.0001240408620333
 51
178.2708212361322921
  0
ARC
  5
13697
  8
0
 10
0.9295205756342417
 20
-4.6520449919252647
 30
0.0
 40
1.742957414251957
 50
184.2810471217289034
 51
201.2565944974953993
  0
ARC
  5
13698
  8
0
 10
-0.0040176973239345
 20
-4.9538129150649262
 30
0.0
 40
0.7656678747152985
 50
205.5538295428326876
 51
270.3006501435182258
  0
ARC
  5
13699
  8
0
 10
-2.1686245118476162
 20
-7.9508769724150801
 30
0.0
 40
5.192656081247792
 50
86.4028593887282739
 51
90.7798474950198369
  0
LINE
  5
1369A
  8
0
 10
-0.8085737803517024
 20
-2.5071048493476691
 30
0.0
 11
-0.8085737803517024
 21
-4.7821547824318884
 31
0.0
  0
ENDBLK
  5
1369E
  8
0
  0
ENDSEC
  0
SECTION
  2
ENTITIES
  0
ATTDEF
  5
1A7B6
  8
DEFPOINTS
 10
3463.8697850729417951
 20
159.8406364568820095
 30
0.0
 40
0.001
  1
K-4983T-CM
  3

  2
MODELNUMBER
 70
     0
1001
ACDBATTR
1070
     0
1070
     1
  0
ATTDEF
  5
1A7B7
  8
DEFPOINTS
 10
3463.8697850729417951
 20
159.8389697902152875
 30
0.0
 40
0.001
  1
ADAIR
  3

  2
TRADENAME
 70
     0
1001
ACDBATTR
1070
     0
1070
     1
  0
ATTDEF
  5
1A7B8
  8
DEFPOINTS
 10
3463.8697850729417951
 20
159.8373031235485939
 30
0.0
 40
0.001
  1
TOILET
  3

  2
PRODUCT
 70
     0
1001
ACDBATTR
1070
     0
1070
     1
  0
LINE
  5
1BC06
  8
0
 10
3437.5813423187091757
 20
159.8368868033892056
 30
0.0
 11
3462.9813411678292141
 21
159.8368868033892056
 31
0.0
  0
LINE
  5
1BC07
  8
0
 10
3462.9813411678292141
 20
159.8368868033892056
 30
0.0
 11
3462.5789596071290362
 21
166.6814917946892081
 31
0.0
  0
ARC
  5
1BC08
  8
0
 10
3462.2794755362510841
 20
166.6638856847127954
 30
0.0
 40
0.3000011396954502
 50
3.364439699320199
 51
90.003680823766274
  0
LINE
  5
1BC09
  8
0
 10
3462.2794562634298927
 20
166.9638868237892098
 30
0.0
 11
3459.7950593704558742
 21
166.9637272199371978
 31
0.0
  0
ARC
  5
1BC0A
  8
0
 10
3459.7950461180671482
 20
167.1700141776956059
 30
0.0
 40
0.2062869581840454
 50
195.3422402524562926
 51
270.003680823766274
  0
ARC
  5
1BC0B
  8
0
 10
3449.2840047624758881
 20
164.2861879593673109
 30
0.0
 40
10.6931829388554007
 50
15.3422402524563406
 51
32.4548290032929216
  0
ARC
  5
1BC0C
  8
0
 10
3458.477565806173061
 20
170.1329476803726095
 30
0.0
 40
0.2020528961023119
 50
106.2387449772085972
 51
212.4548290032929003
  0
ARC
  5
1BC0D
  8
0
 10
-7749.2554579932320848
 20
42186.2241535276989453
 30
0.0
 40
43485.0276727752716397
 50
284.9357931909647164
 51
284.9407198127041738
  0
ARC
  5
1BC0E
  8
0
 10
3461.9391360598920073
 20
171.6794069376128107
 30
0.0
 40
0.3999729724560148
 50
283.6891773622265873
 51
316.6908213290957974
  0
ARC
  5
1BC0F
  8
0
 10
3461.9388650074711222
 20
171.6796624464874981
 30
0.0
 40
0.4003454697043396
 50
316.69082132909341
 51
359.9714085734852915
  0
LINE
  5
1BC10
  8
0
 10
3462.3392104273289078
 20
171.6794626682890907
 30
0.0
 11
3462.3392104256299717
 21
172.836786799491108
 31
0.0
  0
ARC
  5
1BC11
  8
0
 10
3463.642374174275119
 20
186.9539897513946869
 30
0.0
 40
0.2069271542039454
 50
2.6902602740955261
 51
88.0454837314526628
  0
ARC
  5
1BC12
  8
0
 10
3597.8301861037398339
 20
191.3847377716577967
 30
0.0
 40
134.054034449569798
 50
181.8899290862310067
 51
182.1394442847503967
  0
ARC
  5
1BC13
  8
0
 10
3463.7704375718831216
 20
186.3765724046477033
 30
0.0
 40
0.0992282642683752
 50
327.0886505132521052
 51
2.13944428474875
  0
ARC
  5
1BC14
  8
0
 10
3464.4639455007218203
 20
186.2448501652148138
 30
0.0
 40
0.6151452182848108
 50
172.7334007229790984
 51
182.256102734133691
  0
ARC
  5
1BC15
  8
0
 10
3463.5540431948738842
 20
186.216335353012596
 30
0.0
 40
0.2952652138614362
 50
352.9077846100772717
 51
0.8342157704781508
  0
ARC
  5
1BC16
  8
0
 10
3463.7784755400939503
 20
186.1889580303580942
 30
0.0
 40
0.0691720004851069
 50
269.7266989876850971
 51
352.4587879630150269
  0
LINE
  5
1BC17
  8
0
 10
3463.7781455907302188
 20
186.1197868168042078
 30
0.0
 11
3456.659745997229038
 21
186.1197868167892011
 31
0.0
  0
ARC
  5
1BC18
  8
0
 10
3456.6597460720809067
 20
186.1897869954404996
 30
0.0
 40
0.0700001786513634
 50
180.0001462277245139
 51
269.9999387336637824
  0
LINE
  5
1BC19
  8
0
 10
3456.589745893430063
 20
186.189786816789109
 30
0.0
 11
3456.5897439318350735
 21
186.9583899832059899
 31
0.0
  0
ARC
  5
1BC1A
  8
0
 10
3456.7937841609000316
 20
186.9567985238462029
 30
0.0
 40
0.204046435450136
 50
91.2484920709636356
 51
179.5531172652356986
  0
LINE
  5
1BC1B
  8
0
 10
3456.7893382802540145
 20
187.1607965188491107
 30
0.0
 11
3463.6494316583871296
 21
187.1607965188491107
 31
0.0
  0
LINE
  5
1BC1C
  8
0
 10
3463.7532104973779497
 20
186.1197868168040941
 30
0.0
 11
3463.7532104783299474
 21
173.1867964204795101
 31
0.0
  0
ARC
  5
1BC1D
  8
0
 10
3463.6032008741140089
 20
173.1867964207010004
 30
0.0
 40
0.1500096042154908
 50
270.0036453501850815
 51
359.999999915382773
  0
LINE
  5
1BC1E
  8
0
 10
3463.6032104182299918
 20
173.0367868167892027
 30
0.0
 11
3435.4882041400801427
 21
173.0367868167892027
 31
0.0
  0
ARC
  5
1BC1F
  8
0
 10
3435.5478187402009098
 20
173.1744354968741106
 30
0.0
 40
0.1500035322141331
 50
172.6311368201151026
 51
253.5027441514766906
  0
ARC
  5
1BC20
  8
0
 10
3435.4626081258647901
 20
172.8867186820939992
 30
0.0
 40
0.1500661501977942
 50
15.0203639234323401
 51
73.5027441514766906
  0
ARC
  5
1BC21
  8
0
 10
4196.1256571701305802
 20
376.9955594344442034
 30
0.0
 40
787.4213230295943049
 50
195.0203639234323134
 51
195.0270557869158949
  0
ARC
  5
1BC22
  8
0
 10
3441.6009543487061819
 20
174.439349341972104
 30
0.0
 40
6.180934023249109
 50
195.0270557869158949
 51
234.013333795112402
  0
ARC
  5
1BC23
  8
0
 10
3439.3118335222079622
 20
171.2871024062220044
 30
0.0
 40
2.2852011137372452
 50
234.013333795112402
 51
248.0790269529007048
  0
ARC
  5
1BC24
  8
0
 10
3438.3240350169671729
 20
168.8324731453189997
 30
0.0
 40
0.3607298557771922
 50
351.2643096332810728
 51
68.079026952900719
  0
LINE
  5
1BC25
  8
0
 10
3438.6805802161288739
 20
168.7776867436892019
 30
0.0
 11
3437.5813423188092202
 21
159.8368868033892056
 31
0.0
  0
ARC
  5
1BC26
  8
0
 10
3455.2390696446032052
 20
170.6280410709244109
 30
0.0
 40
20.0052166527794704
 50
167.3751743679316064
 51
172.6316247678215063
  0
ARC
  5
1BC27
  8
0
 10
3435.9126971265691282
 20
174.9567902987294872
 30
0.0
 40
0.1999965181019654
 50
89.9988212159770882
 51
167.3751743679316064
  0
LINE
  5
1BC28
  8
0
 10
3435.9127012412300246
 20
175.1567868167892073
 30
0.0
 11
3456.1486531192499569
 21
175.1567868167892073
 31
0.0
  0
ARC
  5
1BC29
  8
0
 10
3456.1480352676830989
 20
175.6591224128268038
 30
0.0
 40
0.5023359760032126
 50
270.0704713533060044
 51
282.400518054897816
  0
ARC
  5
1BC2A
  8
0
 10
3456.1486759969338891
 20
175.6562083347012049
 30
0.0
 40
0.4993522894754837
 50
282.400518054897816
 51
330.6137407539642936
  0
ARC
  5
1BC2B
  8
0
 10
3456.1461269495798661
 20
175.6576438437687955
 30
0.0
 40
0.5022777516091012
 50
330.6137407539642936
 51
358.2100768510363764
  0
ARC
  5
1BC2C
  8
0
 10
125.2234312492145989
 20
279.7497078581537266
 30
0.0
 40
3333.0510264607050885
 50
358.2100768510363764
 51
358.3902721333142267
  0
ARC
  5
1BC2D
  8
0
 10
3437.5807876274629962
 20
177.3160483597411883
 30
0.0
 40
0.0901733491737629
 50
101.016701335006303
 51
114.7391990667502029
  0
ARC
  5
1BC2E
  8
0
 10
3437.5857123156370108
 20
177.3042702873956955
 30
0.0
 40
0.102707943589838
 50
89.1986345308667268
 51
102.4578960923738009
  0
ARC
  5
1BC2F
  8
0
 10
3437.7873711313909553
 20
159.4780948610022904
 30
0.0
 40
17.9299912900684788
 50
90.0110314713896145
 51
90.6398292882345373
  0
ARC
  5
1BC30
  8
0
 10
3437.7920600931620356
 20
135.1243430213611987
 30
0.0
 40
42.2837435811054405
 50
88.3652688494518799
 51
90.0110314713896145
  0
ARC
  5
1BC31
  8
0
 10
3442.2064272493321369
 20
245.7753550964065141
 30
0.0
 40
68.4596873581966321
 50
267.3140576520873992
 51
269.2561148891566063
  0
ARC
  5
1BC32
  8
0
 10
3441.9909871363861384
 20
288.6651860299920145
 30
0.0
 40
111.3457845344287023
 50
269.6535015894203866
 51
273.1573123363612012
  0
ARC
  5
1BC33
  8
0
 10
3446.6475150968030903
 20
203.5033790204682873
 30
0.0
 40
26.0568085452014095
 50
273.2475745491984185
 51
280.744901159211679
  0
ARC
  5
1BC34
  8
0
 10
3461.1467236384028183
 20
130.1948827448898953
 30
0.0
 40
48.6729799427236287
 50
99.8702919960436759
 51
101.4248512718646964
  0
ARC
  5
1BC35
  8
0
 10
3453.0369111164668539
 20
176.309356272922912
 30
0.0
 40
1.8528535237567461
 50
91.3269854657981739
 51
97.2437199322319969
  0
ARC
  5
1BC36
  8
0
 10
3452.994002373182866
 20
177.8035462054940865
 30
0.0
 40
0.3581666800300622
 50
63.077264942256221
 51
90.0
  0
ARC
  5
1BC37
  8
0
 10
3453.1032661095991898
 20
177.9771682656511871
 30
0.0
 40
0.1550337797253638
 50
27.0180008667466893
 51
70.0450815241118789
  0
ARC
  5
1BC38
  8
0
 10
3452.7396020403771217
 20
177.8290380298236926
 30
0.0
 40
0.5473103311810004
 50
0.5945686791370344
 51
23.5363070484681103
  0
ARC
  5
1BC39
  8
0
 10
3455.5057060023332269
 20
178.7642546009107889
 30
0.0
 40
2.4056631581840802
 50
202.7303946279546949
 51
217.8079163989850997
  0
ARC
  5
1BC3A
  8
0
 10
3452.82109493138978
 20
176.6913339668558933
 30
0.0
 40
0.9861344501149901
 50
28.0491691467919715
 51
37.3455949634906617
  0
ARC
  5
1BC3B
  8
0
 10
3453.3220370983540306
 20
176.9602507034325924
 30
0.0
 40
0.4175820434101026
 50
9.8021841417883682
 51
27.8058471158642
  0
ARC
  5
1BC3C
  8
0
 10
3216.0182204011489375
 20
146.9758199029990067
 30
0.0
 40
239.6078036352218987
 50
6.8795455233039213
 51
7.2059538312136393
  0
LINE
  5
1BC3D
  8
0
 10
3453.9005308404662173
 20
175.6795817287126908
 30
0.0
 11
3453.194636988459024
 21
175.5573940136617921
 31
0.0
  0
ARC
  5
1BC3E
  8
0
 10
3453.1535224207950705
 20
175.8196942011583133
 30
0.0
 40
0.2655029115375373
 50
244.0397993019745115
 51
278.9084117949739152
  0
ARC
  5
1BC3F
  8
0
 10
3453.1513672661139935
 20
175.8038083362451118
 30
0.0
 40
0.2503268106294709
 50
214.9126325889338034
 51
242.891574563213311
  0
ARC
  5
1BC40
  8
0
 10
-403.8433571100894142
 20
-2515.6855350514470047
 30
0.0
 40
4702.995700077894071
 50
34.9081181874706274
 51
34.9178628306629903
  0
ARC
  5
1BC41
  8
0
 10
3452.0918769199051894
 20
176.0555662097243896
 30
0.0
 40
0.4745666338797859
 50
33.3483051916662419
 51
85.7556621721557093
  0
ARC
  5
1BC42
  8
0
 10
3379.817256238302889
 20
5782.8484955354751946
 30
0.0
 40
5606.7651846321750781
 50
270.6194786612038001
 51
270.7223008743293917
  0
ARC
  5
1BC43
  8
0
 10
3443.327107286178034
 20
-107.4062008060381004
 30
0.0
 40
283.8319423851012857
 50
90.5836043841891012
 51
91.2094853076607279
  0
ARC
  5
1BC44
  8
0
 10
3435.9854733446509272
 20
249.5220686590074024
 30
0.0
 40
73.1720283927250676
 50
270.3797105071863029
 51
271.0575621069361887
  0
ARC
  5
1BC45
  8
0
 10
3436.4744385136618803
 20
176.4797135885982016
 30
0.0
 40
0.1281302861241263
 50
229.9139832387853914
 51
268.1917285285074968
  0
ARC
  5
1BC46
  8
0
 10
3436.4712518022770382
 20
176.4715616966607001
 30
0.0
 40
0.1198743751090801
 50
203.1265024000246058
 51
228.5701948921555129
  0
ARC
  5
1BC47
  8
0
 10
3437.156644590137148
 20
176.6434703199045089
 30
0.0
 40
0.8252214882309482
 50
187.9853003434074026
 51
195.3890662385705923
  0
LINE
  5
1BC48
  8
0
 10
3436.3394246623288382
 20
176.5288313464585883
 30
0.0
 11
3436.0889186377930855
 21
176.5288313464585883
 31
0.0
  0
ARC
  5
1BC49
  8
0
 10
3436.0930336109609016
 20
176.5858006505303877
 30
0.0
 40
0.0571177258878959
 50
179.0108153426141939
 51
265.8686200689065231
  0
LINE
  5
1BC4A
  8
0
 10
3436.0359243972297918
 20
176.5867867121891095
 30
0.0
 11
3436.0358226045109404
 21
176.6015533848311065
 31
0.0
  0
LINE
  5
1BC4B
  8
0
 10
3436.0358226045109404
 20
176.6015533848311065
 30
0.0
 11
3436.0572445978168616
 21
176.6813477646666115
 31
0.0
  0
ARC
  5
1BC4C
  8
0
 10
3436.1542202892919704
 20
176.6553131915802908
 30
0.0
 40
0.1004095798852228
 50
114.4297411072291055
 51
164.9724329417263959
  0
ARC
  5
1BC4D
  8
0
 10
3056.596231138598796
 20
1012.2330781591269897
 30
0.0
 40
917.6438186429237476
 50
294.4297411072291197
 51
294.5278700644695959
  0
ARC
  5
1BC4E
  8
0
 10
3437.5377760575888715
 20
173.2798824390764878
 30
0.0
 40
3.308362922699926
 50
110.2902695141685996
 51
115.0316950892008947
  0
ARC
  5
1BC4F
  8
0
 10
3436.3543049772570157
 20
175.8141832271070086
 30
0.0
 40
0.5113494650644346
 50
115.0316950892008947
 51
164.4228533552866054
  0
ARC
  5
1BC50
  8
0
 10
3455.2162943669100059
 20
170.5559301633250016
 30
0.0
 40
20.0925616088052514
 50
164.4228533552866054
 51
165.602826969133389
  0
LINE
  5
1BC51
  8
0
 10
3435.7547310098298112
 20
175.5517868167891891
 30
0.0
 11
3435.7547310098298112
 21
175.5367868221892138
 31
0.0
  0
ARC
  5
1BC52
  8
0
 10
3435.8099125998160162
 20
175.5347657976132041
 30
0.0
 40
0.0552185875752545
 50
177.902480804889791
 51
263.8027577724516846
  0
LINE
  5
1BC53
  8
0
 10
3435.8039516701901448
 20
175.4798698985698024
 30
0.0
 11
3452.6214916314688708
 21
175.4798698985698024
 31
0.0
  0
LINE
  5
1BC54
  8
0
 10
3453.1165412038008071
 20
175.5567794133951907
 30
0.0
 11
3452.6031217448289681
 21
175.4770160044392071
 31
0.0
  0
ARC
  5
1BC55
  8
0
 10
3452.2340188160078469
 20
172.5793877567550112
 30
0.0
 40
2.8324513112968042
 50
107.5381805141972933
 51
114.5010699408499022
  0
ARC
  5
1BC56
  8
0
 10
3457.8306122326171135
 20
145.3732687706518902
 30
0.0
 40
30.5945628211601317
 50
101.0633550354727959
 51
102.1707596178374047
  0
ARC
  5
1BC57
  8
0
 10
3450.4039662522800427
 20
190.9719500574267101
 30
0.0
 40
15.6502161706106904
 50
275.704958500217117
 51
278.0778898736631959
  0
LINE
  5
1BC58
  8
0
 10
3451.7661334065292067
 20
175.3607556741229985
 30
0.0
 11
3451.7661334065292067
 21
175.3466393686248068
 31
0.0
  0
LINE
  5
1BC59
  8
0
 10
3451.7661334065292067
 20
175.3466393686248068
 30
0.0
 11
3451.5989798782288744
 21
175.3102009984891936
 31
0.0
  0
LINE
  5
1BC5A
  8
0
 10
3451.5989798782288744
 20
175.3102009984891936
 30
0.0
 11
3451.5988416497611979
 21
175.3264373780056076
 31
0.0
  0
LINE
  5
1BC5B
  8
0
 10
3453.881951111401122
 20
175.8331443717680997
 30
0.0
 11
3453.9276891573299508
 21
175.8264046321891101
 31
0.0
  0
ARC
  5
1BC5C
  8
0
 10
3453.9776575139080705
 20
175.7867239359947007
 30
0.0
 40
0.0638074784775776
 50
135.6891906498348987
 51
141.5463312585931135
  0
ARC
  5
1BC5D
  8
0
 10
3453.9460285916011344
 20
175.8167396949237116
 30
0.0
 40
0.0202169348204066
 50
96.7845607432269048
 51
133.9423304548274984
  0
ARC
  5
1BC5E
  8
0
 10
3453.9628109864888756
 20
175.6790514224790059
 30
0.0
 40
0.1589241404989967
 50
89.7941801646894646
 51
96.92836557284636
  0
ARC
  5
1BC5F
  8
0
 10
3453.9639602618808567
 20
175.7415880011778029
 30
0.0
 40
0.0963882717417748
 50
80.161269820192345
 51
90.3438090301368533
  0
ARC
  5
1BC60
  8
0
 10
3452.8734943696131268
 20
166.3916116440564963
 30
0.0
 40
9.5095915775022526
 50
75.1434773783330598
 51
83.3154981959744276
  0
ARC
  5
1BC61
  8
0
 10
3455.2862638332298957
 20
175.5160320879608946
 30
0.0
 40
0.0719393292849326
 50
0.1913492787349902
 51
69.2527675814961867
  0
ARC
  5
1BC62
  8
0
 10
3455.2749705150249611
 20
175.519761208498295
 30
0.0
 40
0.0833053360708243
 50
302.0961402969629148
 51
357.5997235434502954
  0
ARC
  5
1BC63
  8
0
 10
3455.431603764756801
 20
175.2662917114687957
 30
0.0
 40
0.2146582376213915
 50
121.5660904677548046
 51
172.5892709840499037
  0
ARC
  5
1BC64
  8
0
 10
3530.2622410139829299
 20
171.0289004691659045
 30
0.0
 40
75.1646070425313724
 50
176.7471085960789878
 51
176.8518492655043985
  0
LINE
  5
1BC65
  8
0
 10
3453.1920116730439076
 20
176.3142671316716985
 30
0.0
 11
3453.5440586619151873
 21
176.3142590245722943
 31
0.0
  0
ARC
  5
1BC66
  8
0
 10
3453.3679407460299444
 20
176.1567827631891987
 30
0.0
 40
0.2362547210000065
 50
318.1984324067072976
 51
41.8015675935966584
  0
LINE
  5
1BC67
  8
0
 10
3453.5440586619151873
 20
175.999306501806899
 30
0.0
 11
3453.1920120260288058
 21
175.9993065017891922
 31
0.0
  0
ARC
  5
1BC68
  8
0
 10
3453.3681389378521089
 20
176.1567873001314126
 30
0.0
 40
0.2362640699520574
 50
138.199298193989307
 51
221.8010163161328023
  0
CIRCLE
  5
1BC69
  8
0
 10
3453.3671618941289125
 20
176.1567868385891131
 30
0.0
 40
0.0590548954844588
  0
LINE
  5
1BC6A
  8
0
 10
3452.3924235519980357
 20
176.4216102239946053
 30
0.0
 11
3452.1555433845301195
 21
176.3869719353891128
 31
0.0
  0
ARC
  5
1BC6B
  8
0
 10
3452.042622782133094
 20
175.7711533705929128
 30
0.0
 40
0.6261398576053571
 50
79.5939272817414434
 51
90.8968632425162042
  0
ARC
  5
1BC6C
  8
0
 10
3452.1060286727019957
 20
176.116418792107396
 30
0.0
 40
0.2751006600043926
 50
41.9418166590571673
 51
79.5939272817414434
  0
ARC
  5
1BC6D
  8
0
 10
3451.1766363728238503
 20
175.2812975913516027
 30
0.0
 40
1.524579538186511
 50
36.8020099623670305
 51
41.9418166590571673
  0
ARC
  5
1BC6E
  8
0
 10
2765.5123951065988877
 20
-303.3442638709511243
 30
0.0
 40
837.7162455807732613
 50
34.8638567405892772
 51
34.9202646140621127
  0
ARC
  5
1BC6F
  8
0
 10
3457.7847931826358945
 20
-360.6171986051750196
 30
0.0
 40
537.0452189752777485
 50
90.6136726622218447
 51
90.6435068291671939
  0
ARC
  5
1BC70
  8
0
 10
3472.7020235296258761
 20
-1688.7435900257330559
 30
0.0
 40
1865.2553813174499737
 50
90.6435068291671939
 51
90.7941957839281741
  0
ARC
  5
1BC71
  8
0
 10
3440.7915207499481767
 20
613.2329126807750299
 30
0.0
 40
436.9422859562660051
 50
269.9376148924164909
 51
270.7941957839282168
  0
ARC
  5
1BC72
  8
0
 10
3438.503316209651075
 20
60.8776557547034187
 30
0.0
 40
115.423672757561107
 50
89.6095141389208862
 51
91.1747021263333011
  0
ARC
  5
1BC73
  8
0
 10
3439.1843252695671254
 20
176.1991735235422141
 30
0.0
 40
0.1971177585277947
 50
83.400126218225779
 51
85.6518111155260868
  0
ARC
  5
1BC74
  8
0
 10
3439.2026462946400898
 20
176.357520571658398
 30
0.0
 40
0.0377143469993985
 50
54.4549376016590188
 51
83.400126218225779
  0
ARC
  5
1BC75
  8
0
 10
3439.1947055392370203
 20
176.3464065429596133
 30
0.0
 40
0.0513736745920141
 50
20.8930915486537216
 51
54.4549376016590188
  0
ARC
  5
1BC76
  8
0
 10
3439.1934122442298758
 20
176.349100470842501
 30
0.0
 40
0.0517070384583443
 50
2.7235912677819232
 51
17.5913691936681502
  0
ARC
  5
1BC77
  8
0
 10
3439.3048325557738281
 20
176.3567868165721961
 30
0.0
 40
0.0599999997439237
 50
184.9999998471155891
 51
250.7919561603150953
  0
ARC
  5
1BC78
  8
0
 10
3439.3065926309400311
 20
176.3620521553997946
 30
0.0
 40
0.0655513191205075
 50
250.8533154227691
 51
255.294988361238012
  0
ARC
  5
1BC79
  8
0
 10
3439.3043904034739171
 20
176.3536607540310968
 30
0.0
 40
0.0568757544276075
 50
255.2949883612384099
 51
270.4580098856499148
  0
LINE
  5
1BC7A
  8
0
 10
3439.3048450509299983
 20
176.2967868167891083
 30
0.0
 11
3440.3657706435751606
 21
176.2967868167891083
 31
0.0
  0
ARC
  5
1BC7B
  8
0
 10
3440.3658170362291457
 20
176.3567868167891106
 30
0.0
 40
0.0599999999999978
 50
270.0
 51
312.4999983770567837
  0
ARC
  5
1BC7C
  8
0
 10
3440.3658170362291457
 20
176.3567868167891106
 30
0.0
 40
0.0600000000000021
 50
312.4999983770567837
 51
354.9999967071511833
  0
ARC
  5
1BC7D
  8
0
 10
5326.6582384705916411
 20
11.3274746093958001
 30
0.0
 40
1893.4377615641269585
 50
174.9994234835938869
 51
174.9999967071512117
  0
ARC
  5
1BC7E
  8
0
 10
3440.495091740927819
 20
176.3644915741820114
 30
0.0
 40
0.0681111657192631
 50
136.7870180273860967
 51
174.9994234835955069
  0
ARC
  5
1BC7F
  8
0
 10
3440.2483422311979666
 20
199.7915274439374969
 30
0.0
 40
23.5007384354191906
 50
268.7054989641389966
 51
270.1643844436056838
  0
ARC
  5
1BC80
  8
0
 10
3436.7188180866560288
 20
174.4656429513061084
 30
0.0
 40
1.6522519160127731
 50
26.7773436907926907
 51
37.8680600401877925
  0
ARC
  5
1BC81
  8
0
 10
3438.2479085661611862
 20
175.2372833569866941
 30
0.0
 40
0.0605080234394652
 50
206.7773436907926907
 51
268.7687371010979973
  0
LINE
  5
1BC82
  8
0
 10
3438.2466083735298525
 20
175.1767893043891888
 30
0.0
 11
3439.0351958051742258
 21
175.1627823537708935
 31
0.0
  0
ARC
  5
1BC83
  8
0
 10
3438.9032734689581048
 20
175.4383105126451028
 30
0.0
 40
0.0415811243350596
 50
31.4031310998308584
 51
88.147226524875876
  0
ARC
  5
1BC84
  8
0
 10
3438.8926225081709163
 20
175.4318083394653058
 30
0.0
 40
0.0540599552798005
 50
359.5466066377147172
 51
31.4031310998294693
  0
ARC
  5
1BC85
  8
0
 10
3454.8867357908261511
 20
176.6943560588389914
 30
0.0
 40
15.9900112932756997
 50
184.530241931657514
 51
185.1566106571295052
  0
ARC
  5
1BC86
  8
0
 10
3439.071021521196144
 20
175.2667868170611882
 30
0.0
 40
0.1100000005344994
 50
185.0000015284493031
 51
218.6474129073033055
  0
ARC
  5
1BC87
  8
0
 10
3439.0710378332050823
 20
175.2668041476676137
 30
0.0
 40
0.1100235637441289
 50
218.6491564073990901
 51
250.9879601367273096
  0
ARC
  5
1BC88
  8
0
 10
3439.0738910149761978
 20
175.2774905823210077
 30
0.0
 40
0.1210590639271784
 50
251.3588996249347076
 51
265.6092180223470791
  0
LINE
  5
1BC89
  8
0
 10
3440.045394103837225
 20
175.4798698985698024
 30
0.0
 11
3440.0259843257299508
 21
175.2571996825890892
 31
0.0
  0
ARC
  5
1BC8A
  8
0
 10
3439.9164029149301314
 20
175.2667868137679932
 30
0.0
 40
0.1099999939869437
 50
309.3325192312292984
 51
354.9999999996483098
  0
ARC
  5
1BC8B
  8
0
 10
3439.9141223516221544
 20
175.2695698934041104
 30
0.0
 40
0.1135981186730657
 50
276.867553906666501
 51
309.3325192312292984
  0
ARC
  5
1BC8C
  8
0
 10
3448.4147533488599038
 20
175.5068099194307081
 30
0.0
 40
0.1467419971128986
 50
190.578801422905201
 51
222.3997442894277867
  0
ARC
  5
1BC8D
  8
0
 10
3448.4968520988550154
 20
175.6985286383506093
 30
0.0
 40
0.34750936828933
 50
236.7648700621342073
 51
269.8577225845987186
  0
ARC
  5
1BC8E
  8
0
 10
3448.4614610689291112
 20
175.2968143943242012
 30
0.0
 40
0.0642687627541325
 50
2.2654815345813022
 51
57.5036876972192204
  0
ARC
  5
1BC8F
  8
0
 10
3448.6242465632199128
 20
175.3169037841811928
 30
0.0
 40
0.1001169761430128
 50
190.0951587423056992
 51
269.9760440880630199
  0
LINE
  5
1BC90
  8
0
 10
3448.6242542254299224
 20
175.2167868167892095
 30
0.0
 11
3449.1116665410791029
 21
175.2169483183643877
 31
0.0
  0
ARC
  5
1BC91
  8
0
 10
3449.1180272673577747
 20
175.3169946517037943
 30
0.0
 40
0.1002483299286033
 50
266.3621563808570158
 51
318.3750922314167155
  0
ARC
  5
1BC92
  8
0
 10
3449.1181748128169602
 20
175.3167868169232122
 30
0.0
 40
0.1000000002484825
 50
318.4079520495071165
 51
356.9999998871372213
  0
ARC
  5
1BC93
  8
0
 10
3449.3236621961600576
 20
175.3178038796835096
 30
0.0
 40
0.1058092191994285
 50
150.3972273214322115
 51
183.386708579031108
  0
ARC
  5
1BC94
  8
0
 10
3449.4297949628739843
 20
175.2472148343692879
 30
0.0
 40
0.2331301950206183
 50
93.6586322231126331
 51
148.1977463658992065
  0
ARC
  5
1BC95
  8
0
 10
3451.7161148776258415
 20
171.3205003467772087
 30
0.0
 40
4.1593853860569823
 50
89.841903544316267
 51
112.7086628271605946
  0
CIRCLE
  5
1BC96
  8
0
 10
3456.9559653904138941
 20
161.2062482739488019
 30
0.0
 40
0.5528710081485579
  0
LINE
  5
1BC97
  8
0
 10
3435.6313866322589092
 20
172.8367868069933024
 30
0.0
 11
3462.3461604603298838
 21
172.8367867994890901
 31
0.0
  0
ARC
  5
1BC98
  8
0
 10
3436.9080981913948563
 20
174.9519818211551012
 30
0.0
 40
15.9563046259317005
 50
345.9434445571487799
 51
352.382351098532979
  0
ARC
  5
1BC99
  8
0
 10
3463.8478080900408713
 20
141.1398294921299055
 30
0.0
 40
32.0556471412813409
 50
110.949229096378204
 51
112.5410785920370955
  0
ARC
  5
1BC9A
  8
0
 10
3452.9285039384549236
 20
168.3375798170436042
 30
0.0
 40
2.7708675153395101
 50
119.6105444953163044
 51
134.1291592870377087
  0
ARC
  5
1BC9B
  8
0
 10
3469.1645922815600898
 20
147.2011258365141089
 30
0.0
 40
29.4068168577275486
 50
128.1503327803266075
 51
129.2950551754431103
  0
ARC
  5
1BC9C
  8
0
 10
3448.2295615141501912
 20
172.388148467443699
 30
0.0
 40
3.3530895617499881
 50
299.073216512432225
 51
313.5746010555375847
  0
ARC
  5
1BC9D
  8
0
 10
3448.2983957504698083
 20
171.7874220672057106
 30
0.0
 40
2.8041992079256892
 50
282.3046520877467742
 51
303.813730162628417
  0
ARC
  5
1BC9E
  8
0
 10
3445.1957300795661467
 20
196.051435517472413
 30
0.0
 40
27.2561359253539699
 50
266.5804329337228751
 51
277.8025157265350913
  0
ARC
  5
1BC9F
  8
0
 10
3445.5322394757349684
 20
247.2398032185664078
 30
0.0
 40
78.4205285544740462
 50
265.3273713196587096
 51
268.5661768942761114
  0
ARC
  5
1BCA0
  8
0
 10
3440.5122434237041489
 20
182.5736614859999918
 30
0.0
 40
13.5629495196145893
 50
261.2922925372639043
 51
264.209741222857815
  0
ARC
  5
1BCA1
  8
0
 10
3460.4742608821870817
 20
145.3730625163883872
 30
0.0
 40
26.5167244622029195
 50
107.2710892642955969
 51
112.0001933315905944
  0
ARC
  5
1BCA2
  8
0
 10
3464.0322060802818669
 20
144.8420580760243013
 30
0.0
 40
28.2664047882799991
 50
107.4638477158139978
 51
113.8527422765212975
  0
ARC
  5
1BCA3
  8
0
 10
3461.9256634350890636
 20
148.4281745332459934
 30
0.0
 40
24.2313810004564587
 50
94.9082794129305825
 51
105.2566369146534981
  0
ARC
  5
1BCA4
  8
0
 10
3424.3726303110911431
 20
431.4789216777646743
 30
0.0
 40
261.3279220645233067
 50
277.8029888110264096
 51
278.2215401078565833
  0
LINE
  5
1BCA5
  8
0
 10
3462.3461604603298838
 20
172.8367867994890901
 30
0.0
 11
3462.356637859708826
 21
173.0367075056506962
 31
0.0
  0
ARC
  5
1BCA6
  8
0
 10
3458.5174534746720383
 20
174.2402050773511064
 30
0.0
 40
1.2907647710363259
 50
248.8443263773031049
 51
270.5168225046373891
  0
LINE
  5
1BCA7
  8
0
 10
3458.5290963433299112
 20
172.9494928174891868
 30
0.0
 11
3460.1398022116391076
 21
172.950090470795601
 31
0.0
  0
ARC
  5
1BCA8
  8
0
 10
3460.1515246418430252
 20
174.2993043525256951
 30
0.0
 40
1.349264261017399
 50
269.5047633962003033
 51
290.6343440094340735
  0
LINE
  5
1BCAA
  8
0
 10
3450.4972288687167747
 20
176.528831346458702
 30
0.0
 11
3452.126999567070925
 21
176.5288313464585883
 31
0.0
  0
ENDSEC
  0
EOF
