  0
SECTION
  2
HEADER
  9
$ACADVER
  1
AC1009
  9
$INSBASE
 10
3415.9531787426790288
 20
218.9241733251375877
 30
0.0
  9
$EXTMIN
 10
3407.7989158337500157
 20
190.4477884292394094
 30
-0.0000000349181948
  9
$EXTMAX
 10
3424.2571651626972198
 20
218.9441330900449998
 30
0.0000000814935746
  9
$LIMMIN
 10
0.0
 20
0.0
  9
$LIMMAX
 10
11.6929133858000007
 20
8.2677165353999982
  9
$ORTHOMODE
 70
     1
  9
$REGENMODE
 70
     1
  9
$FILLMODE
 70
     1
  9
$QTEXTMODE
 70
     0
  9
$MIRRTEXT
 70
     0
  9
$DRAGMODE
 70
     2
  9
$LTSCALE
 40
0.6431102362
  9
$OSMODE
 70
  2039
  9
$ATTMODE
 70
     1
  9
$TEXTSIZE
 40
0.2
  9
$TRACEWID
 40
0.05
  9
$TEXTSTYLE
  7
STANDARD
  9
$CLAYER
  8
0
  9
$CELTYPE
  6
BYLAYER
  9
$CECOLOR
 62
   256
  9
$DIMSCALE
 40
1.0
  9
$DIMASZ
 40
0.1875
  9
$DIMEXO
 40
0.0625
  9
$DIMDLI
 40
0.4443307087
  9
$DIMRND
 40
0.0
  9
$DIMDLE
 40
0.0
  9
$DIMEXE
 40
0.125
  9
$DIMTP
 40
0.01
  9
$DIMTM
 40
0.01
  9
$DIMTXT
 40
2.0
  9
$DIMCEN
 40
0.1052362205
  9
$DIMTSZ
 40
0.0
  9
$DIMTOL
 70
     1
  9
$DIMLIM
 70
     0
  9
$DIMTIH
 70
     1
  9
$DIMTOH
 70
     1
  9
$DIMSE1
 70
     0
  9
$DIMSE2
 70
     0
  9
$DIMTAD
 70
     0
  9
$DIMZIN
 70
     0
  9
$DIMBLK
  1

  9
$DIMASO
 70
     1
  9
$DIMSHO
 70
     1
  9
$DIMPOST
  1
\X
  9
$DIMAPOST
  1

  9
$DIMALT
 70
     1
  9
$DIMALTD
 70
     2
  9
$DIMALTF
 40
25.3999999999999986
  9
$DIMLFAC
 40
1.0
  9
$DIMTOFL
 70
     0
  9
$DIMTVP
 40
0.0
  9
$DIMTIX
 70
     0
  9
$DIMSOXD
 70
     0
  9
$DIMSAH
 70
     0
  9
$DIMBLK1
  1

  9
$DIMBLK2
  1

  9
$DIMSTYLE
  2
STANDARD
  9
$DIMCLRD
 70
     0
  9
$DIMCLRE
 70
     0
  9
$DIMCLRT
 70
     0
  9
$DIMTFAC
 40
1.0
  9
$DIMGAP
 40
0.09
  9
$LUNITS
 70
     2
  9
$LUPREC
 70
     4
  9
$SKETCHINC
 40
0.1
  9
$FILLETRAD
 40
0.0
  9
$AUNITS
 70
     0
  9
$AUPREC
 70
     0
  9
$MENU
  1
.
  9
$ELEVATION
 40
0.0
  9
$PELEVATION
 40
0.0
  9
$THICKNESS
 40
0.0
  9
$LIMCHECK
 70
     0
  9
$BLIPMODE
 70
     0
  9
$CHAMFERA
 40
0.0
  9
$CHAMFERB
 40
0.0
  9
$SKPOLY
 70
     0
  9
$TDCREATE
 40
2458060.468368056230247
  9
$TDUPDATE
 40
2459146.3845486110076308
  9
$TDINDWG
 40
0.5821251157
  9
$TDUSRTIMER
 40
0.5821251157
  9
$USRTIMER
 70
     1
  9
$ANGBASE
 50
0.0
  9
$ANGDIR
 70
     0
  9
$PDMODE
 70
     0
  9
$PDSIZE
 40
0.3125
  9
$PLINEWID
 40
0.0
  9
$COORDS
 70
     1
  9
$SPLFRAME
 70
     0
  9
$SPLINETYPE
 70
     6
  9
$SPLINESEGS
 70
     8
  9
$ATTDIA
 70
     1
  9
$ATTREQ
 70
     1
  9
$HANDLING
 70
     1
  9
$HANDSEED
  5
1C102
  9
$SURFTAB1
 70
     6
  9
$SURFTAB2
 70
     6
  9
$SURFTYPE
 70
     6
  9
$SURFU
 70
     6
  9
$SURFV
 70
     6
  9
$UCSNAME
  2

  9
$UCSORG
 10
0.0
 20
0.0
 30
0.0
  9
$UCSXDIR
 10
1.0
 20
0.0
 30
0.0
  9
$UCSYDIR
 10
0.0
 20
1.0
 30
0.0
  9
$PUCSNAME
  2

  9
$PUCSORG
 10
0.0
 20
0.0
 30
0.0
  9
$PUCSXDIR
 10
1.0
 20
0.0
 30
0.0
  9
$PUCSYDIR
 10
0.0
 20
1.0
 30
0.0
  9
$USERI1
 70
     0
  9
$USERI2
 70
     0
  9
$USERI3
 70
     0
  9
$USERI4
 70
     0
  9
$USERI5
 70
     0
  9
$USERR1
 40
0.0
  9
$USERR2
 40
0.0
  9
$USERR3
 40
0.0
  9
$USERR4
 40
0.0
  9
$USERR5
 40
0.0
  9
$WORLDVIEW
 70
     1
  9
$SHADEDGE
 70
     3
  9
$SHADEDIF
 70
    70
  9
$TILEMODE
 70
     1
  9
$MAXACTVP
 70
    64
  9
$PLIMCHECK
 70
     0
  9
$PEXTMIN
 10
1.0000000000000000E+20
 20
1.0000000000000000E+20
 30
1.0000000000000000E+20
  9
$PEXTMAX
 10
-1.0000000000000000E+20
 20
-1.0000000000000000E+20
 30
-1.0000000000000000E+20
  9
$PLIMMIN
 10
0.0
 20
0.0
  9
$PLIMMAX
 10
12.0
 20
9.0
  9
$UNITMODE
 70
     0
  9
$VISRETAIN
 70
     1
  9
$PLINEGEN
 70
     0
  9
$PSLTSCALE
 70
     1
  0
ENDSEC
  0
SECTION
  2
TABLES
  0
TABLE
  2
VPORT
 70
     1
  0
VPORT
  2
*ACTIVE
 70
     0
 10
0.0
 20
0.0
 11
1.0
 21
1.0
 12
112.3349252638482056
 22
9.4344491837543956
 13
0.0
 23
0.0
 14
1.0
 24
1.0
 15
0.0
 25
0.0
 16
0.0
 26
0.0
 36
96.5995694866707311
 17
3303.693115234375
 27
195.2615115758877096
 37
0.0
 40
28.733484838287989
 41
2.6486111111111108
 42
50.0
 43
0.0
 44
0.0
 50
0.0
 51
0.0
 71
     0
 72
   100
 73
     1
 74
     1
 75
     0
 76
     0
 77
     0
 78
     0
  0
ENDTAB
  0
TABLE
  2
LTYPE
 70
     2
  0
LTYPE
  2
CONTINUOUS
 70
     0
  3
Solid line
 72
    65
 73
     0
 40
0.0
  0
LTYPE
  2
PHANTOM2
 70
     0
  3
___ _ _ ___ _ _ ___ _ _ ___ _ _
 72
    65
 73
     6
 40
1.25
 49
0.625
 49
-0.125
 49
0.125
 49
-0.125
 49
0.125
 49
-0.125
  0
ENDTAB
  0
TABLE
  2
LAYER
 70
     2
  0
LAYER
  2
0
 70
     0
 62
   255
  6
CONTINUOUS
  0
LAYER
  2
DEFPOINTS
 70
     0
 62
     7
  6
CONTINUOUS
  0
ENDTAB
  0
TABLE
  2
STYLE
 70
     1
  0
STYLE
  2
STANDARD
 70
     0
 40
0.0
 41
0.8
 50
0.0
 71
     0
 42
0.2
  3
txt
  4

  0
ENDTAB
  0
TABLE
  2
VIEW
 70
     0
  0
ENDTAB
  0
TABLE
  2
UCS
 70
     0
  0
ENDTAB
  0
TABLE
  2
APPID
 70
     9
  0
APPID
  2
ACAD
 70
     0
  0
APPID
  2
ACAD_MLEADERVER
 70
     0
  0
APPID
  2
ACAD_EXEMPT_FROM_CAD_STANDARDS
 70
     0
  0
APPID
  2
ACAD_NAV_VCDISPLAY
 70
     0
  0
APPID
  2
ACAECLAYERSTANDARD
 70
     0
  0
APPID
  2
ACCMTRANSPARENCY
 70
     0
  0
APPID
  2
ACAD_DSTYLE_DIMJAG
 70
     0
  0
APPID
  2
ACAD_DSTYLE_DIMTALN
 70
     0
  0
APPID
  2
ACDBATTR
 70
     0
  0
ENDTAB
  0
TABLE
  2
DIMSTYLE
 70
     1
  0
DIMSTYLE
  2
STANDARD
 70
     0
  3

  4

  5

  6

  7

 40
1.0
 41
0.1875
 42
0.0625
 43
0.38
 44
0.125
 45
0.0
 46
0.0
 47
0.01
 48
0.01
140
0.15625
141
0.09
142
0.0
143
25.3999999999999986
144
1.0
145
0.0
146
1.0
147
0.09
 71
     1
 72
     0
 73
     1
 74
     1
 75
     0
 76
     0
 77
     0
 78
     4
170
     0
171
     2
172
     0
173
     0
174
     0
175
     0
176
     0
177
     0
178
     0
  0
ENDTAB
  0
ENDSEC
  0
SECTION
  2
BLOCKS
  0
BLOCK
  8
0
  2
$MODEL_SPACE
 70
     0
 10
0.0
 20
0.0
 30
0.0
  3
$MODEL_SPACE
  1

  0
ENDBLK
  5
21
  8
0
  0
BLOCK
 67
     1
  8
0
  2
$PAPER_SPACE
 70
     0
 10
0.0
 20
0.0
 30
0.0
  3
$PAPER_SPACE
  1

  0
ENDBLK
  5
1D
 67
     1
  8
0
  0
BLOCK
  8
0
  2
_FILLED
 70
     0
 10
0.0
 20
0.0
 30
0.0
  3
_FILLED
  1

  0
SOLID
  5
9E2C
  8
0
  6
BYBLOCK
 62
     0
 10
0.0
 20
0.0
 30
0.0
 11
-1.0
 21
0.1666666667
 31
0.0
 12
-1.0
 22
-0.1666666667
 32
0.0
 13
-1.0
 23
-0.1666666667
 33
0.0
  0
ENDBLK
  5
9E2D
  8
0
  6
BYBLOCK
 62
     0
  0
BLOCK
  8
0
  2
A$C6B0F1CD5
 70
     2
 10
0.0
 20
0.0
 30
0.0
  3
A$C6B0F1CD5
  1

  0
ATTDEF
  5
B779
  8
DEFPOINTS
 10
0.0005209962714616
 20
0.000347009907216
 30
0.0
 40
0.001
  1
BATH FAUCET
  3

  2
PRODUCT
 70
     0
1001
ACDBATTR
1070
     0
1070
     1
  0
ATTDEF
  5
B77A
  8
DEFPOINTS
 10
0.0005209962714616
 20
0.0020136765738812
 30
0.0
 40
0.001
  1
SINGULIER
  3

  2
TRADENAME
 70
     0
1001
ACDBATTR
1070
     0
1070
     1
  0
ATTDEF
  5
B77B
  8
DEFPOINTS
 10
0.0005209962714616
 20
0.0036803432405463
 30
0.0
 40
0.001
  1
K-10873W
  3

  2
MODELNUMBER
 70
     0
1001
ACDBATTR
1070
     0
1070
     1
  0
ENDBLK
  5
B77F
  8
0
  0
BLOCK
  8
0
  2
A$C790C4779
 70
     0
 10
0.0
 20
0.0
 30
0.0
  3
A$C790C4779
  1

  0
LINE
  5
135B8
  8
0
 62
     1
 10
0.0000000000000002
 20
-37.3954278042999988
 30
0.0
 11
0.0000000000000018
 21
218.9623481080336944
 31
0.0
  0
LINE
  5
135B9
  8
0
 10
-4.232274871249996
 20
-0.0000000000500009
 30
0.0
 11
-1.6732305542500019
 21
0.0000000000500009
 31
0.0
  0
ARC
  5
135BA
  8
0
 10
-1.673230554249227
 20
-0.019685039349227
 30
0.0
 40
0.0196850393992278
 50
359.9999999977458174
 51
90.0000000022289299
  0
LINE
  5
135BB
  8
0
 10
-1.65354551485
 20
-0.0196850393500014
 30
0.0
 11
-1.6535455148548031
 21
-0.1417322834500041
 31
0.0
  0
ARC
  5
135BC
  8
0
 10
-1.8503959085783681
 20
-0.1417322834422592
 30
0.0
 40
0.1968503937235679
 50
308.0000000051189204
 51
359.9999999977458174
  0
ARC
  5
135BD
  8
0
 10
206402.867126322700642
 20
-264186.1327213866170496
 30
0.0
 40
335256.6379051808035001
 50
128.0000000051190909
 51
128.0001315430347972
  0
ARC
  5
135BE
  8
0
 10
-2.3841858483936611
 20
-0.7086672312258245
 30
0.0
 40
0.0787343436991881
 50
269.9974989648274004
 51
308.0001315430346835
  0
LINE
  5
135BF
  8
0
 10
-2.3841892852500002
 20
-0.7874015748500014
 30
0.0
 11
-3.521326940266623
 21
-0.7873519373147886
 31
0.0
  0
ARC
  5
135C0
  8
0
 10
-3.5213234946367509
 20
-0.7084166022533154
 30
0.0
 40
0.0789353351366763
 50
232.1074321309334039
 51
269.9974989648262067
  0
ARC
  5
135C1
  8
0
 10
122.5627830190684051
 20
161.2970992303251876
 30
0.0
 40
205.3665118602133077
 50
231.8926994283673935
 51
232.1074321309334039
  0
ARC
  5
135C2
  8
0
 10
-4.05438302028411
 20
-0.1413806812727074
 30
0.0
 40
0.1975826044299356
 50
180.1019590338792966
 51
231.894492101153304
  0
LINE
  5
135C3
  8
0
 10
-3.4665376408499968
 20
-0.8464569578199387
 30
0.0
 11
-3.4665376408499968
 21
-0.7873543289388536
 31
0.0
  0
LINE
  5
135C4
  8
0
 10
-2.4389785857499979
 20
-0.8464564280499971
 30
0.0
 11
-2.4389785857499979
 21
-0.7873991832258938
 31
0.0
  0
LINE
  5
135C5
  8
0
 10
-4.1763149515081661
 20
-0.2968525105499964
 30
0.0
 11
-1.729202704762441
 21
-0.2968525105499964
 31
0.0
  0
ARC
  5
135C6
  8
0
 10
-4.2322710507446732
 20
-0.0196942628668566
 30
0.0
 40
0.0196942632874289
 50
90.0111148525494258
 51
179.9731663683137128
  0
LINE
  5
135C7
  8
0
 10
-4.2519653118722616
 20
-0.0196850393500014
 30
0.0
 11
-4.2519653118722616
 21
-0.1417322834500041
 31
0.0
  0
LINE
  5
135C8
  8
0
 10
4.2322748712499969
 20
-0.0000000000500009
 30
0.0
 11
1.6732305542500019
 21
0.0000000000500009
 31
0.0
  0
ARC
  5
135C9
  8
0
 10
1.6732305542492281
 20
-0.019685039349227
 30
0.0
 40
0.0196850393992278
 50
89.9999999977710843
 51
180.0000000022540974
  0
LINE
  5
135CA
  8
0
 10
1.65354551485
 20
-0.0196850393500014
 30
0.0
 11
1.6535455148548031
 21
-0.1417322834500041
 31
0.0
  0
ARC
  5
135CB
  8
0
 10
1.8503959085783681
 20
-0.1417322834422592
 30
0.0
 40
0.1968503937235679
 50
180.0000000022540974
 51
231.999999994881108
  0
ARC
  5
135CC
  8
0
 10
-206402.867126322700642
 20
-264186.1327213866170496
 30
0.0
 40
335256.6379051808035001
 50
51.9998684569652525
 51
51.9999999948808806
  0
ARC
  5
135CD
  8
0
 10
2.3841858483936611
 20
-0.7086672312258245
 30
0.0
 40
0.0787343436991881
 50
231.9998684569652028
 51
270.0025010351724859
  0
LINE
  5
135CE
  8
0
 10
2.3841892852500002
 20
-0.7874015748500014
 30
0.0
 11
3.5213269402666239
 21
-0.7873519373147886
 31
0.0
  0
ARC
  5
135CF
  8
0
 10
3.5213234946367522
 20
-0.7084166022533154
 30
0.0
 40
0.0789353351366763
 50
270.0025010351737933
 51
307.8925678690666246
  0
ARC
  5
135D0
  8
0
 10
-122.5627830190684051
 20
161.2970992303251876
 30
0.0
 40
205.3665118602133077
 50
307.8925678690666246
 51
308.1073005716326065
  0
ARC
  5
135D1
  8
0
 10
4.0543830206346447
 20
-0.1413806814436782
 30
0.0
 40
0.1975826040790903
 50
308.1055078494570125
 51
359.8980410155184018
  0
LINE
  5
135D2
  8
0
 10
3.5236243727499978
 20
-0.8464569872500007
 30
0.0
 11
2.3818920892499991
 21
-0.8464563986499982
 31
0.0
  0
LINE
  5
135D3
  8
0
 10
2.3818920892499991
 20
-0.8464563986499982
 30
0.0
 11
2.3228369407499989
 21
-0.9055114862499991
 31
0.0
  0
LINE
  5
135D4
  8
0
 10
2.3228369407499989
 20
-0.9055114862499991
 30
0.0
 11
2.32283669621774
 21
-1.377952431149992
 31
0.0
  0
LINE
  5
135D5
  8
0
 10
2.32283669621774
 20
-1.377952431149992
 30
0.0
 11
2.3818917848499961
 21
-1.4370075797500019
 31
0.0
  0
LINE
  5
135D6
  8
0
 10
2.3818917848499961
 20
-1.4370075797500019
 30
0.0
 11
3.5236240682500002
 21
-1.4370092896499991
 31
0.0
  0
LINE
  5
135D7
  8
0
 10
3.5236240682500002
 20
-1.4370092896499991
 30
0.0
 11
3.5826792168500021
 21
-1.377954201950004
 31
0.0
  0
LINE
  5
135D8
  8
0
 10
3.5826792168500021
 20
-1.377954201950004
 30
0.0
 11
3.582679460450001
 21
-0.905512135849996
 31
0.0
  0
LINE
  5
135D9
  8
0
 10
3.582679460450001
 20
-0.905512135849996
 30
0.0
 11
3.5236243727499978
 21
-0.8464569872500007
 31
0.0
  0
LINE
  5
135DA
  8
0
 10
3.4665376408499982
 20
-0.8464569578199387
 30
0.0
 11
3.4665376408499982
 21
-0.7873543289388536
 31
0.0
  0
LINE
  5
135DB
  8
0
 10
2.4389785857499979
 20
-0.8464564280499971
 30
0.0
 11
2.4389785857499979
 21
-0.7873991832258938
 31
0.0
  0
LINE
  5
135DC
  8
0
 10
4.176314951508167
 20
-0.2968525105499964
 30
0.0
 11
1.729202704762441
 21
-0.2968525105499964
 31
0.0
  0
ARC
  5
135DD
  8
0
 10
4.2322710507446706
 20
-0.0196942628668637
 30
0.0
 40
0.01969426328744
 50
0.0268336317070377
 51
89.9888851474415361
  0
LINE
  5
135DE
  8
0
 10
4.2519653118722616
 20
-0.0196850393500014
 30
0.0
 11
4.2519653118722616
 21
-0.1417322834500041
 31
0.0
  0
LINE
  5
135DF
  8
0
 10
3.5433038938999988
 20
-0.9055123383000065
 30
0.0
 11
3.543303893900001
 21
-1.3779528689999969
 31
0.0
  0
LINE
  5
135E0
  8
0
 10
3.5826792168507078
 20
-1.377952833859438
 30
0.0
 11
3.4378639481999991
 21
-1.3779529631
 31
0.0
  0
ARC
  5
135E1
  8
0
 10
3.248028303433538
 20
-0.9399295068502055
 30
0.0
 40
0.4773909512347318
 50
246.5685011794114985
 51
293.4314988205883878
  0
LINE
  5
135E2
  8
0
 10
3.0581926583999999
 20
-1.3779529631
 30
0.0
 11
2.8473127671000542
 21
-1.3779527748999949
 31
0.0
  0
ARC
  5
135E3
  8
0
 10
2.6574772525882229
 20
-0.9398586328204601
 30
0.0
 40
0.4774560333709902
 50
246.5718688740558946
 51
293.4280970205315953
  0
LINE
  5
135E4
  8
0
 10
2.4676414772999991
 20
-1.3779529631
 30
0.0
 11
2.322837098936501
 21
-1.3779528338691589
 31
0.0
  0
LINE
  5
135E5
  8
0
 10
2.3622015316999998
 20
-1.3779528689999969
 30
0.0
 11
2.3622015316999989
 21
-0.9055123382999994
 31
0.0
  0
LINE
  5
135E6
  8
0
 10
3.582679460449878
 20
-0.9055123734407715
 30
0.0
 11
3.4378639481999991
 21
-0.9055122441999969
 31
0.0
  0
ARC
  5
135E7
  8
0
 10
3.248028303433538
 20
-1.343535700449791
 30
0.0
 40
0.4773909512347318
 50
66.5685011794114843
 51
113.4314988205885015
  0
LINE
  5
135E8
  8
0
 10
3.0581926583999999
 20
-0.9055122441999969
 30
0.0
 11
2.8473127671000542
 21
-0.9055124324000018
 31
0.0
  0
ARC
  5
135E9
  8
0
 10
2.6574772525882229
 20
-1.3436065744795369
 30
0.0
 40
0.4774560333709902
 50
66.5719029794683621
 51
113.4281311259440059
  0
LINE
  5
135EA
  8
0
 10
2.4676414772999991
 20
-0.9055122441999969
 30
0.0
 11
2.3228369407495402
 21
-0.9055123734309802
 31
0.0
  0
LINE
  5
135EB
  8
0
 10
3.4378639481999982
 20
-0.9055122441999969
 30
0.0
 11
3.4378639481999982
 21
-1.3779529631
 31
0.0
  0
LINE
  5
135EC
  8
0
 10
3.0581926583999999
 20
-0.9055122442336838
 30
0.0
 11
3.058192658399999
 21
-1.377952963066313
 31
0.0
  0
LINE
  5
135ED
  8
0
 10
2.8473127671
 20
-0.9055124324000018
 30
0.0
 11
2.8473127671
 21
-1.3779527748999949
 31
0.0
  0
LINE
  5
135EE
  8
0
 10
2.4676414772999991
 20
-0.9055122441999969
 30
0.0
 11
2.4676414772999999
 21
-1.3779529631
 31
0.0
  0
LINE
  5
135EF
  8
0
 10
-3.6169677232999988
 20
-1.523622219399996
 30
0.0
 11
3.6169677232999988
 21
-1.523622219399996
 31
0.0
  0
LINE
  5
135F0
  8
0
 10
-3.6169677232999988
 20
-1.523622219399996
 30
0.0
 11
-3.6169655664706148
 21
-1.79921328830644
 31
0.0
  0
LINE
  5
135F1
  8
0
 10
3.6169677233000002
 20
-1.523622219399996
 30
0.0
 11
3.6169655664706148
 21
-1.79921328830644
 31
0.0
  0
ARC
  5
135F2
  8
0
 10
2.6574690738000011
 20
-1.7992057790999989
 30
0.0
 40
0.9594964926999981
 50
270.0002677998999729
 51
359.9995515920693947
  0
LINE
  5
135F3
  8
0
 10
2.6574735584770042
 20
-2.7587022717895162
 30
0.0
 11
2.2392906997799491
 21
-2.7587042263720098
 31
0.0
  0
ARC
  5
135F4
  8
0
 10
1.907109920768588
 20
-4.075208196272551
 30
0.0
 40
1.3083373122455031
 50
92.8163441161551788
 51
111.9714302184384991
  0
ARC
  5
135F5
  8
0
 10
1.6844007503543561
 20
-3.5169014528423679
 30
0.0
 40
0.7072586572166115
 50
112.1620754251559049
 51
163.3646549416143046
  0
ARC
  5
135F6
  8
0
 10
2.7186311955143219
 20
-3.8197152938323948
 30
0.0
 40
1.784901853957199
 50
163.5553001483318099
 51
178.3862015974247868
  0
ARC
  5
135F7
  8
0
 10
17.0322942082439717
 20
-4.2229819411431349
 30
0.0
 40
16.1042444656422106
 50
178.3862015974247868
 51
179.0624040412432976
  0
LINE
  5
135F8
  8
0
 10
0.9302059317510785
 20
-3.9594616474315032
 30
0.0
 11
0.9302059317510789
 21
-6.2430797267999969
 31
0.0
  0
ARC
  5
135F9
  8
0
 10
-11.7908390203851798
 20
-5.718937694217189
 30
0.0
 40
12.7318384196702503
 50
355.5078398175591019
 51
357.6405908905456954
  0
ARC
  5
135FA
  8
0
 10
0.2226689771053312
 20
-6.6400791684104936
 30
0.0
 40
0.6834632913349376
 50
333.5756682723919084
 51
353.6113554237957146
  0
ARC
  5
135FB
  8
0
 10
-0.000004227200002
 20
-6.543456277899991
 30
0.0
 40
0.9259561775000049
 50
270.0002615682309965
 51
334.3531834573997799
  0
ARC
  5
135FC
  8
0
 10
-0.0039294877421534
 20
-2.5412034252165361
 30
0.0
 40
0.8186418030565732
 50
2.3872099443528429
 51
89.7249787062001758
  0
ARC
  5
135FD
  8
0
 10
-1.2042913979932119
 20
-4.5679724788304936
 30
0.0
 40
2.0296260080375919
 50
339.3436971396209856
 51
353.942414238114111
  0
ARC
  5
135FE
  8
0
 10
0.004017697323935
 20
-4.9538129150649262
 30
0.0
 40
0.7656678747152985
 50
269.6993498564817742
 51
334.446170457167284
  0
ARC
  5
135FF
  8
0
 10
2.1686245118476162
 20
-7.9508769724150801
 30
0.0
 40
5.192656081247792
 50
89.2201525049801347
 51
93.5971406112717261
  0
LINE
  5
13600
  8
0
 10
10.3808581070999999
 20
0.0000014401000001
 30
0.0
 11
12.3030732488000005
 21
0.0000014401000001
 31
0.0
  0
LINE
  5
13601
  8
0
 10
12.3030732488000005
 20
0.0000014401000001
 30
0.0
 11
12.29657102
 21
-1.033483819499998
 31
0.0
  0
ARC
  5
13602
  8
0
 10
8.1992593507892622
 20
-1.007705359971282
 30
0.0
 40
4.0973927616993393
 50
345.2166835011761918
 51
359.6395252388066979
  0
ARC
  5
13603
  8
0
 10
7.665804588572442
 20
-0.8630059943421527
 30
0.0
 40
4.6501126065208096
 50
341.9974842144903278
 51
345.1699741906389818
  0
ARC
  5
13604
  8
0
 10
12.0028788648755391
 20
-2.2764817731436571
 30
0.0
 40
0.0886059968295827
 50
318.0992830752639975
 51
344.4977818221523762
  0
ARC
  5
13605
  8
0
 10
12.0222500335543199
 20
-2.2924277543286129
 30
0.0
 40
0.0635475594357337
 50
280.4396121136027205
 51
317.1360971380005935
  0
LINE
  5
13606
  8
0
 10
12.0337647944999997
 20
-2.3549233748999958
 30
0.0
 11
11.9798079277565606
 21
-2.3627665272333331
 31
0.0
  0
ARC
  5
13607
  8
0
 10
11.9770126687480296
 20
-2.3433200881157599
 30
0.0
 40
0.0196466119684799
 50
190.154941106188403
 51
277.939795250628606
  0
LINE
  5
13608
  8
0
 10
11.95767382945
 20
-2.3467839957999952
 30
0.0
 11
11.9571443876300005
 21
-2.308943896012607
 31
0.0
  0
LINE
  5
13609
  8
0
 10
10.7521216164000002
 20
-1.210324162899993
 30
0.0
 11
11.9318097393000002
 21
-1.210324196599998
 31
0.0
  0
ARC
  5
1360A
  8
0
 10
11.9318097387331292
 20
-1.230167867049893
 30
0.0
 40
0.0198436704498946
 50
359.8147381281693242
 51
89.9999983632289542
  0
LINE
  5
1360B
  8
0
 10
11.9516533054496605
 20
-1.2302320300503231
 30
0.0
 11
11.9566201102960505
 21
-2.208815112944535
 31
0.0
  0
ARC
  5
1360C
  8
0
 10
11.8551802160073105
 20
-2.2804312542049838
 30
0.0
 40
0.1058756961608776
 50
344.3772049374097719
 51
2.5461677608355711
  0
ARC
  5
1360D
  8
0
 10
10.6067466818612992
 20
-2.3297893135268088
 30
0.0
 40
1.3552833762090479
 50
2.2861042438788921
 51
5.1211050264768181
  0
LINE
  5
1360E
  8
0
 10
11.9443278825999997
 20
-1.214818001299995
 30
0.0
 11
11.9443278825999997
 21
-2.0771530284999988
 31
0.0
  0
ARC
  5
1360F
  8
0
 10
7.7738742757910222
 20
-2.5360116965846942
 30
0.0
 40
4.1956208794196908
 50
4.4909549061469374
 51
6.2787749749526132
  0
ARC
  5
13610
  8
0
 10
8.9328028997891487
 20
-2.4084993214452619
 30
0.0
 40
3.0296985143644992
 50
6.2787749749526123
 51
11.4328692858054399
  0
ARC
  5
13611
  8
0
 10
6.2269925402716213
 20
-2.9813099462674368
 30
0.0
 40
5.7954158466209558
 50
11.6810173414004108
 51
12.6660501549976203
  0
ARC
  5
13612
  8
0
 10
11.3410135079070997
 20
-1.8142682605241871
 30
0.0
 40
0.5503239048216554
 50
10.86426564846942
 51
89.8999399818415554
  0
ARC
  5
13613
  8
0
 10
11.9403624301628604
 20
-1.271832645922472
 30
0.0
 40
0.011990444703853
 50
16.7031499675962891
 51
70.6476770153719542
  0
ARC
  5
13614
  8
0
 10
11.9403908746999896
 20
-1.8779516345999949
 30
0.0
 40
0.011811023600004
 50
289.5118474172356855
 51
0.0
  0
LINE
  5
13615
  8
0
 10
11.9522018983000002
 20
-1.8779516345999949
 30
0.0
 11
11.9528880707079601
 21
-1.4735112468700251
 31
0.0
  0
ARC
  5
13616
  8
0
 10
11.8716683941174104
 20
-2.2845554211270871
 30
0.0
 40
0.0888872497842505
 50
331.9619538346584022
 51
344.0752043370417255
  0
ARC
  5
13617
  8
0
 10
13.6448174646469802
 20
-2.6082002513809708
 30
0.0
 40
1.7179739166623069
 50
170.5569657723497983
 51
176.416341704627996
  0
ARC
  5
13618
  8
0
 10
40.6176326128047194
 20
-4.5165655329799712
 30
0.0
 40
28.7581617563696206
 50
175.9806653773430867
 51
177.8243949032508056
  0
ARC
  5
13619
  8
0
 10
11.3109454596221699
 20
-3.9843821651330771
 30
0.0
 40
2.3739108471967758
 50
270.7487131088689125
 51
304.0721119084967086
  0
ARC
  5
1361A
  8
0
 10
11.9392484018913105
 20
-4.9930688185020671
 30
0.0
 40
1.1872246568299929
 50
306.2278427815676878
 51
341.1817607006785806
  0
ARC
  5
1361B
  8
0
 10
12.2872573453760499
 20
-5.1116643625316414
 30
0.0
 40
0.8195629538895935
 50
341.1817607006785806
 51
357.4079159961017922
  0
ARC
  5
1361C
  8
0
 10
11.8011570714692908
 20
-5.0896579760327496
 30
0.0
 40
1.3061611015833281
 50
357.4079159961017922
 51
1.859337335707236
  0
LINE
  5
1361D
  8
0
 10
13.1066304719000009
 20
-5.0472784519999934
 30
0.0
 11
13.0868023329999996
 21
-4.6459973220999942
 31
0.0
  0
ARC
  5
1361E
  8
0
 10
12.1079914253851406
 20
-4.7028268321022209
 30
0.0
 40
0.9804592730312299
 50
3.322847899046351
 51
30.3415943727762816
  0
ARC
  5
1361F
  8
0
 10
11.7444886779769906
 20
-4.9405605757694451
 30
0.0
 40
1.4144290415860841
 50
31.2144213116060705
 51
59.0490585062247391
  0
ARC
  5
13620
  8
0
 10
10.8464265443629309
 20
-6.5341546809798103
 30
0.0
 40
3.2433612945695489
 50
59.9218854450547767
 51
66.9248125443956212
  0
ARC
  5
13621
  8
0
 10
12.6684623023076401
 20
-2.2204077592796159
 30
0.0
 40
1.4394475239673199
 50
236.7965187613311002
 51
247.5006852366697103
  0
ARC
  5
13622
  8
0
 10
12.0955923033801795
 20
-3.08839684311718
 30
0.0
 40
0.3994826227261367
 50
222.6214766235947025
 51
237.3723914536045925
  0
ARC
  5
13623
  8
0
 10
11.8438483531682408
 20
-3.3152100033849901
 30
0.0
 40
0.0609266116601539
 50
200.1534310629050992
 51
225.9817505718258133
  0
ARC
  5
13624
  8
0
 10
11.9762488603168809
 20
-3.3085488660547631
 30
0.0
 40
0.1916027213839594
 50
177.8119439527129089
 51
188.2980249856892101
  0
LINE
  5
13625
  8
0
 10
11.7847858370215999
 20
-3.3012335704231068
 30
0.0
 11
11.8417615188000003
 21
-1.918661399399987
 31
0.0
  0
ARC
  5
13626
  8
0
 10
12.9657332026160592
 20
-1.9649801770574551
 30
0.0
 40
1.124925675404381
 50
165.616448583165095
 51
177.6401810463889888
  0
ARC
  5
13627
  8
0
 10
11.3471134242308
 20
-3.5432079149980491
 30
0.0
 40
2.3829989295199301
 50
269.8762315409881012
 51
287.8607440399625261
  0
ARC
  5
13628
  8
0
 10
11.51442690145727
 20
-4.062436459526416
 30
0.0
 40
1.837478919699338
 50
287.8607440399622988
 51
310.9111810268066733
  0
ARC
  5
13629
  8
0
 10
11.9834054086248099
 20
-4.6036266166918827
 30
0.0
 40
1.1213590788920349
 50
310.9111810268066733
 51
334.6055649638310001
  0
ARC
  5
1362A
  8
0
 10
12.1240198547220093
 20
-4.6703785286917103
 30
0.0
 40
0.9657048460332601
 50
334.6055649638310001
 51
351.8644030939661889
  0
ARC
  5
1362B
  8
0
 10
12.2224814324441091
 20
-4.6844541034681866
 30
0.0
 40
0.866242269690127
 50
351.8644030939661889
 51
359.9718430927334225
  0
LINE
  5
1362C
  8
0
 10
10.3808581069999999
 20
0.0000014401000001
 30
0.0
 11
10.3873603358000004
 21
-1.033483819499998
 31
0.0
  0
ARC
  5
1362D
  8
0
 10
14.48467200501074
 20
-1.007705359971282
 30
0.0
 40
4.0973927616993393
 50
180.3604747611933021
 51
194.7833164988236945
  0
ARC
  5
1362E
  8
0
 10
15.0181267672275602
 20
-0.8630059943421527
 30
0.0
 40
4.6501126065208096
 50
194.8300258093609898
 51
198.0025157855097007
  0
ARC
  5
1362F
  8
0
 10
10.6810524909244595
 20
-2.2764817731436571
 30
0.0
 40
0.0886059968295827
 50
195.5022181778475101
 51
221.9007169247360025
  0
ARC
  5
13630
  8
0
 10
10.6616813222456894
 20
-2.2924277543286129
 30
0.0
 40
0.0635475594357337
 50
222.8639028619994065
 51
259.5603878863972227
  0
LINE
  5
13631
  8
0
 10
10.6501665613000007
 20
-2.3549233748999958
 30
0.0
 11
10.7041234280434399
 21
-2.3627665272333331
 31
0.0
  0
ARC
  5
13632
  8
0
 10
10.7069186870519708
 20
-2.3433200881157599
 30
0.0
 40
0.0196466119684799
 50
262.0602047493715077
 51
349.845058893811597
  0
LINE
  5
13633
  8
0
 10
10.7262575263500004
 20
-2.3467839957999952
 30
0.0
 11
10.7267869681699999
 21
-2.308943896012607
 31
0.0
  0
ARC
  5
13634
  8
0
 10
10.7521216170668694
 20
-1.230167867049893
 30
0.0
 40
0.0198436704498946
 50
90.0000016367710316
 51
180.1852618718305905
  0
LINE
  5
13635
  8
0
 10
10.7322780503503399
 20
-1.2302320300503231
 30
0.0
 11
10.7273112455039605
 21
-2.208815112944535
 31
0.0
  0
ARC
  5
13636
  8
0
 10
10.8287511397926899
 20
-2.2804312542049838
 30
0.0
 40
0.1058756961608776
 50
177.4538322391643987
 51
195.6227950625901997
  0
ARC
  5
13637
  8
0
 10
12.0771846739387101
 20
-2.3297893135268088
 30
0.0
 40
1.3552833762090479
 50
174.8788949735231881
 51
177.7138957561211043
  0
LINE
  5
13638
  8
0
 10
10.7396034732000007
 20
-1.214818001299995
 30
0.0
 11
10.7396034732000007
 21
-2.0771530284999988
 31
0.0
  0
ARC
  5
13639
  8
0
 10
14.9100570800089791
 20
-2.5360116965846942
 30
0.0
 40
4.1956208794196908
 50
173.7212250250474028
 51
175.5090450938533877
  0
ARC
  5
1363A
  8
0
 10
13.75112845601085
 20
-2.4084993214452619
 30
0.0
 40
3.0296985143644992
 50
168.5671307141944908
 51
173.7212250250474028
  0
ARC
  5
1363B
  8
0
 10
16.4569388155283782
 20
-2.9813099462674368
 30
0.0
 40
5.7954158466209558
 50
167.3339498450023086
 51
168.3189826585995093
  0
ARC
  5
1363C
  8
0
 10
11.3429178478929007
 20
-1.8142682605241871
 30
0.0
 40
0.5503239048216554
 50
90.1000600181584446
 51
169.1357343515306013
  0
ARC
  5
1363D
  8
0
 10
10.7435689256371294
 20
-1.271832645922472
 30
0.0
 40
0.011990444703853
 50
109.3523229846280032
 51
163.2968500324037109
  0
ARC
  5
1363E
  8
0
 10
10.7435404811000108
 20
-1.8779516345999949
 30
0.0
 40
0.011811023600004
 50
180.0
 51
250.4881525827642861
  0
LINE
  5
1363F
  8
0
 10
10.7317294575000002
 20
-1.8779516345999949
 30
0.0
 11
10.7310432850920296
 21
-1.4735112468700251
 31
0.0
  0
ARC
  5
13640
  8
0
 10
10.81226296168259
 20
-2.2845554211270871
 30
0.0
 40
0.0888872497842505
 50
195.9247956629581893
 51
208.0380461653415125
  0
ARC
  5
13641
  8
0
 10
9.0391138911530184
 20
-2.6082002513809708
 30
0.0
 40
1.7179739166623069
 50
3.583658295372016
 51
9.4430342276501467
  0
ARC
  5
13642
  8
0
 10
-17.9337012570047207
 20
-4.5165655329799712
 30
0.0
 40
28.7581617563696206
 50
2.1756050967491292
 51
4.0193346226568458
  0
ARC
  5
13643
  8
0
 10
11.4255435852618508
 20
-3.8167771224841109
 30
0.0
 40
2.5426871789811072
 50
237.0628215887417127
 51
268.1163533938930073
  0
ARC
  5
13644
  8
0
 10
10.7446829539086792
 20
-4.9930688185020671
 30
0.0
 40
1.1872246568299929
 50
198.8182392993213909
 51
233.7721572184323975
  0
ARC
  5
13645
  8
0
 10
10.3966740104239399
 20
-5.1116643625316414
 30
0.0
 40
0.8195629538895935
 50
182.5920840038982078
 51
198.8182392993213909
  0
ARC
  5
13646
  8
0
 10
10.8827742843307096
 20
-5.0896579760327496
 30
0.0
 40
1.3061611015833281
 50
178.1406626642927051
 51
182.5920840038982078
  0
LINE
  5
13647
  8
0
 10
9.5773008839000013
 20
-5.0472784519999934
 30
0.0
 11
9.5971290228000043
 21
-4.6459973220999942
 31
0.0
  0
ARC
  5
13648
  8
0
 10
10.5759399304148705
 20
-4.7028268321022209
 30
0.0
 40
0.9804592730312299
 50
149.6584056272236865
 51
176.6771521009536059
  0
ARC
  5
13649
  8
0
 10
10.9394426778230098
 20
-4.9405605757694451
 30
0.0
 40
1.4144290415860841
 50
120.9509414937752041
 51
148.7855786883939118
  0
ARC
  5
1364A
  8
0
 10
11.8375048114370696
 20
-6.5341546809798103
 30
0.0
 40
3.2433612945695489
 50
113.075187455604393
 51
120.0781145549451026
  0
ARC
  5
1364B
  8
0
 10
10.0154690534923603
 20
-2.2204077592796159
 30
0.0
 40
1.4394475239673199
 50
292.4993147633302897
 51
303.2034812386688145
  0
ARC
  5
1364C
  8
0
 10
10.5883390524198209
 20
-3.08839684311718
 30
0.0
 40
0.3994826227261367
 50
302.6276085463953223
 51
317.378523376405326
  0
ARC
  5
1364D
  8
0
 10
10.8400830026317703
 20
-3.3152100033849901
 30
0.0
 40
0.0609266116601539
 50
314.0182494281742152
 51
339.8465689370949008
  0
ARC
  5
1364E
  8
0
 10
10.7076824954831196
 20
-3.3085488660547631
 30
0.0
 40
0.1916027213839594
 50
351.7019750143107899
 51
2.1880560472870609
  0
LINE
  5
1364F
  8
0
 10
10.8991455187783899
 20
-3.3012335704231068
 30
0.0
 11
10.8421698370000001
 21
-1.918661399399987
 31
0.0
  0
ARC
  5
13650
  8
0
 10
9.7181981531839376
 20
-1.9649801770574551
 30
0.0
 40
1.124925675404381
 50
2.3598189536110099
 51
14.3835514168352994
  0
ARC
  5
13651
  8
0
 10
11.3368179315692004
 20
-3.5432079149980491
 30
0.0
 40
2.3829989295199301
 50
252.1392559600373886
 51
270.1237684590118988
  0
ARC
  5
13652
  8
0
 10
11.1695044543427304
 20
-4.062436459526416
 30
0.0
 40
1.837478919699338
 50
229.088818973193213
 51
252.1392559600375876
  0
ARC
  5
13653
  8
0
 10
10.7005259471751906
 20
-4.6036266166918827
 30
0.0
 40
1.1213590788920349
 50
205.3944350361689999
 51
229.088818973193213
  0
ARC
  5
13654
  8
0
 10
10.559911501078
 20
-4.6703785286917103
 30
0.0
 40
0.9657048460332601
 50
188.1355969060338111
 51
205.3944350361689999
  0
ARC
  5
13655
  8
0
 10
10.4614499233558895
 20
-4.6844541034681866
 30
0.0
 40
0.866242269690127
 50
180.0281569072666059
 51
188.1355969060338111
  0
LINE
  5
13656
  8
0
 10
10.4604561302098205
 20
-1.7786230187561849
 30
0.0
 11
0.9302059317510789
 21
-4.5311086975323072
 31
0.0
  0
LINE
  5
13657
  8
0
 10
0.9302059317510792
 20
-5.1048187572632591
 30
0.0
 11
10.5999036389994501
 21
-2.312061071976216
 31
0.0
  0
LINE
  5
13658
  8
0
 10
11.2336978269000003
 20
-0.1102346034999968
 30
0.0
 11
11.4502333625000006
 21
-0.1102346034999968
 31
0.0
  0
ARC
  5
13659
  8
0
 10
11.4502333625000006
 20
-0.1200771551352986
 30
0.0
 40
0.0098425516353018
 50
0.0048522026362922
 51
90.0000000000394493
  0
LINE
  5
1365A
  8
0
 10
11.4600759141000008
 20
-0.1200763215999956
 30
0.0
 11
11.4600909177550001
 21
-0.2972424812523968
 31
0.0
  0
ARC
  5
1365B
  8
0
 10
11.4502492180850197
 20
-0.2972433147155584
 30
0.0
 40
0.0098416997052721
 50
269.9078786402786818
 51
0.0048522026338495
  0
LINE
  5
1365C
  8
0
 10
11.4502333943999997
 20
-0.3070850016999955
 30
0.0
 11
11.2336979033999995
 21
-0.3070850016000008
 31
0.0
  0
ARC
  5
1365D
  8
0
 10
11.23369796110393
 20
-0.2972424820962374
 30
0.0
 40
0.0098425195039326
 50
179.9999994397452099
 51
269.999664090888075
  0
LINE
  5
1365E
  8
0
 10
11.2238554415999996
 20
-0.2972424819999944
 30
0.0
 11
11.2238554433323703
 21
-0.1200771232158502
 31
0.0
  0
ARC
  5
1365F
  8
0
 10
11.2336979631454099
 20
-0.1200771233120932
 30
0.0
 40
0.0098425198130396
 50
90.0007931187747943
 51
179.9999994397468015
  0
LINE
  5
13660
  8
0
 10
11.2435404810000001
 20
-0.285157346899993
 30
0.0
 11
11.4403908747000003
 21
-0.285157346899993
 31
0.0
  0
LINE
  5
13661
  8
0
 10
11.4403908747000003
 20
-0.285157346899993
 30
0.0
 11
11.4403908747000003
 21
-0.1259827065999985
 31
0.0
  0
LINE
  5
13662
  8
0
 10
11.4403908747000003
 20
-0.1259827065999985
 30
0.0
 11
11.2435404810000001
 21
-0.1259827065999985
 31
0.0
  0
LINE
  5
13663
  8
0
 10
11.2435404810000001
 20
-0.1259827065999985
 30
0.0
 11
11.2435404810000001
 21
-0.285157346899993
 31
0.0
  0
LINE
  5
13664
  8
0
 10
11.2435404810000001
 20
-0.1329247435999932
 30
0.0
 11
11.4403908747000003
 21
-0.1329247435999932
 31
0.0
  0
LINE
  5
13665
  8
0
 10
11.4403908747000003
 20
-0.1758951483000004
 30
0.0
 11
11.2435404810000001
 21
-0.1758951483000004
 31
0.0
  0
LINE
  5
13666
  8
0
 62
     1
 10
2.9527527127499957
 20
0.0
 30
0.0
 11
3425.624364378980772
 21
0.0
 31
0.0
  0
LINE
  5
13667
  8
0
 10
-3.3740125552999989
 20
-1.437007873999995
 30
0.0
 11
-3.3740125552999989
 21
-1.5236220473000011
 31
0.0
  0
LINE
  5
13668
  8
0
 10
-2.5314928702999988
 20
-1.523622219399996
 30
0.0
 11
-2.5314928702999988
 21
-1.4370080725999941
 31
0.0
  0
LINE
  5
13669
  8
0
 10
2.5315011772
 20
-1.5236210477475041
 30
0.0
 11
2.5315013069151591
 21
-1.4370078038106859
 31
0.0
  0
LINE
  5
1366A
  8
0
 10
3.3740208622000001
 20
-1.5236209259999991
 30
0.0
 11
3.3740208622000001
 21
-1.437009065598772
 31
0.0
  0
ARC
  5
1366B
  8
0
 10
2.271510834839332
 20
-1.5234519131982931
 30
0.0
 40
0.0207238646051601
 50
359.5319609112299872
 51
56.0224196324593322
  0
ARC
  5
1366C
  8
0
 10
2.2754550412557482
 20
-1.5175994482230091
 30
0.0
 40
0.0136663784704072
 50
56.0224196324582806
 51
91.2475798736429198
  0
LINE
  5
1366D
  8
0
 10
2.2751574879000001
 20
-1.503936309399996
 30
0.0
 11
-2.2752329068285522
 21
-1.5039382334107709
 31
0.0
  0
ARC
  5
1366E
  8
0
 10
-2.2740689617853578
 20
-1.521347485033139
 30
0.0
 40
0.0174094494500777
 50
89.727221817396412
 51
153.1828808872606089
  0
ARC
  5
1366F
  8
0
 10
-2.270154145968919
 20
-1.5238287508724959
 30
0.0
 40
0.022027201329863
 50
152.016809705136609
 51
179.4627927975514012
  0
LINE
  5
13670
  8
0
 10
-1.7716502950999991
 20
-1.503936318799993
 30
0.0
 11
-1.7716502967500001
 21
-1.4842512795
 31
0.0
  0
LINE
  5
13671
  8
0
 10
-1.7716502967500001
 20
-1.4842512795
 30
0.0
 11
-1.5354298242999991
 21
-1.484251260299998
 31
0.0
  0
LINE
  5
13672
  8
0
 10
-1.5354298242999991
 20
-1.484251260299998
 30
0.0
 11
-1.5354298226999989
 21
-1.5039362989999949
 31
0.0
  0
LINE
  5
13673
  8
0
 10
-2.3818893597500002
 20
-0.8464569872500007
 30
0.0
 11
-3.5236216432499989
 21
-0.8464563986499982
 31
0.0
  0
LINE
  5
13674
  8
0
 10
-3.5236216432499989
 20
-0.8464563986499982
 30
0.0
 11
-3.5826767917499991
 21
-0.9055114862499991
 31
0.0
  0
LINE
  5
13675
  8
0
 10
-3.5826767917499991
 20
-0.9055114862499991
 30
0.0
 11
-3.5826770362822589
 21
-1.377952431149992
 31
0.0
  0
LINE
  5
13676
  8
0
 10
-3.5826770362822589
 20
-1.377952431149992
 30
0.0
 11
-3.5236219476500028
 21
-1.4370075797500019
 31
0.0
  0
LINE
  5
13677
  8
0
 10
-3.5236219476500028
 20
-1.4370075797500019
 30
0.0
 11
-2.3818896642499992
 21
-1.4370092896499991
 31
0.0
  0
LINE
  5
13678
  8
0
 10
-2.3818896642499992
 20
-1.4370092896499991
 30
0.0
 11
-2.3228345156499959
 21
-1.377954201950004
 31
0.0
  0
LINE
  5
13679
  8
0
 10
-2.3228345156499959
 20
-1.377954201950004
 30
0.0
 11
-2.322834272049997
 21
-0.905512135849996
 31
0.0
  0
LINE
  5
1367A
  8
0
 10
-2.322834272049997
 20
-0.905512135849996
 30
0.0
 11
-2.3818893597500002
 21
-0.8464569872500007
 31
0.0
  0
LINE
  5
1367B
  8
0
 10
-2.3622098386000001
 20
-0.9055123383000065
 30
0.0
 11
-2.3622098385999979
 21
-1.3779528689999969
 31
0.0
  0
LINE
  5
1367C
  8
0
 10
-2.3228345156492902
 20
-1.377952833859438
 30
0.0
 11
-2.4676497842999989
 21
-1.3779529631
 31
0.0
  0
ARC
  5
1367D
  8
0
 10
-2.65748542906646
 20
-0.9399295068502055
 30
0.0
 40
0.4773909512347318
 50
246.5685011794114985
 51
293.4314988205883878
  0
LINE
  5
1367E
  8
0
 10
-2.847321074099999
 20
-1.3779529631
 30
0.0
 11
-3.0582009653999451
 21
-1.3779527748999949
 31
0.0
  0
ARC
  5
1367F
  8
0
 10
-3.248036479911776
 20
-0.9398586328204601
 30
0.0
 40
0.4774560333709902
 50
246.5718688740558946
 51
293.4280970205315953
  0
LINE
  5
13680
  8
0
 10
-3.4378722551999989
 20
-1.3779529631
 30
0.0
 11
-3.582676633563497
 21
-1.3779528338691589
 31
0.0
  0
LINE
  5
13681
  8
0
 10
-3.5433122007999991
 20
-1.3779528689999969
 30
0.0
 11
-3.5433122007999991
 21
-0.9055123382999994
 31
0.0
  0
LINE
  5
13682
  8
0
 10
-2.3228342720501201
 20
-0.9055123734407715
 30
0.0
 11
-2.4676497842999989
 21
-0.9055122441999969
 31
0.0
  0
ARC
  5
13683
  8
0
 10
-2.65748542906646
 20
-1.343535700449791
 30
0.0
 40
0.4773909512347318
 50
66.5685011794115127
 51
113.4314988205885015
  0
LINE
  5
13684
  8
0
 10
-2.847321074099999
 20
-0.9055122441999969
 30
0.0
 11
-3.0582009653999451
 21
-0.9055124324000018
 31
0.0
  0
ARC
  5
13685
  8
0
 10
-3.248036479911776
 20
-1.3436065744795369
 30
0.0
 40
0.4774560333709902
 50
66.5719029794683905
 51
113.4281311259440059
  0
LINE
  5
13686
  8
0
 10
-3.4378722551999989
 20
-0.9055122441999969
 30
0.0
 11
-3.5826767917504578
 21
-0.9055123734309802
 31
0.0
  0
LINE
  5
13687
  8
0
 10
-2.4676497842999998
 20
-0.9055122441999969
 30
0.0
 11
-2.4676497842999998
 21
-1.3779529631
 31
0.0
  0
LINE
  5
13688
  8
0
 10
-2.847321074099999
 20
-0.9055122442336838
 30
0.0
 11
-2.847321074099999
 21
-1.377952963066313
 31
0.0
  0
LINE
  5
13689
  8
0
 10
-3.058200965399998
 20
-0.9055124324000018
 30
0.0
 11
-3.0582009653999989
 21
-1.3779527748999949
 31
0.0
  0
LINE
  5
1368A
  8
0
 10
-3.4378722551999989
 20
-0.9055122441999969
 30
0.0
 11
-3.4378722551999981
 21
-1.3779529631
 31
0.0
  0
LINE
  5
1368B
  8
0
 10
0.8140018595208253
 20
-2.5071048493476691
 30
0.0
 11
0.8140018595208253
 21
-4.7821547824318884
 31
0.0
  0
ARC
  5
1368C
  8
0
 10
-2.6574690738000011
 20
-1.7992057790999989
 30
0.0
 40
0.9594964926999981
 50
180.0004484079302074
 51
269.9997322001000271
  0
LINE
  5
1368D
  8
0
 10
-2.6574735584770042
 20
-2.7587022717895162
 30
0.0
 11
-2.2392906997799491
 21
-2.7587042263720098
 31
0.0
  0
ARC
  5
1368E
  8
0
 10
-1.907109920768588
 20
-4.075208196272551
 30
0.0
 40
1.3083373122455031
 50
68.0285697815615009
 51
87.1836558838448354
  0
ARC
  5
1368F
  8
0
 10
-1.6844007503543561
 20
-3.5169014528423679
 30
0.0
 40
0.7072586572166115
 50
16.635345058385699
 51
67.8379245748440667
  0
ARC
  5
13690
  8
0
 10
-2.718631195514321
 20
-3.8197152938323948
 30
0.0
 40
1.784901853957199
 50
1.6137984025751699
 51
16.4446998516682008
  0
ARC
  5
13691
  8
0
 10
-17.0322942082439717
 20
-4.2229819411431349
 30
0.0
 40
16.1042444656422106
 50
0.9375959587566665
 51
1.6137984025751699
  0
LINE
  5
13692
  8
0
 10
-0.930205931751078
 20
-3.9594616474315032
 30
0.0
 11
-0.9302059317510785
 21
-6.2430797267999969
 31
0.0
  0
ARC
  5
13693
  8
0
 10
11.7908390203851798
 20
-5.718937694217189
 30
0.0
 40
12.7318384196702503
 50
182.3594091094543046
 51
184.4921601824408981
  0
ARC
  5
13694
  8
0
 10
-0.2226689771053307
 20
-6.6400791684104936
 30
0.0
 40
0.6834632913349376
 50
186.3886445762043138
 51
206.4243317276082053
  0
ARC
  5
13695
  8
0
 10
0.0000042272000025
 20
-6.543456277899991
 30
0.0
 40
0.9259561775000049
 50
205.6468165426001065
 51
269.9997384317690035
  0
ARC
  5
13696
  8
0
 10
0.000001751300015
 20
-2.531514959500007
 30
0.0
 40
0.8089439065000162
 50
90.0001240408620333
 51
178.2708212361322921
  0
ARC
  5
13697
  8
0
 10
0.9295205756342417
 20
-4.6520449919252647
 30
0.0
 40
1.742957414251957
 50
184.2810471217289034
 51
201.2565944974953993
  0
ARC
  5
13698
  8
0
 10
-0.0040176973239345
 20
-4.9538129150649262
 30
0.0
 40
0.7656678747152985
 50
205.5538295428326876
 51
270.3006501435182258
  0
ARC
  5
13699
  8
0
 10
-2.1686245118476162
 20
-7.9508769724150801
 30
0.0
 40
5.192656081247792
 50
86.4028593887282739
 51
90.7798474950198369
  0
LINE
  5
1369A
  8
0
 10
-0.8085737803517024
 20
-2.5071048493476691
 30
0.0
 11
-0.8085737803517024
 21
-4.7821547824318884
 31
0.0
  0
ENDBLK
  5
1369E
  8
0
  0
ENDSEC
  0
SECTION
  2
ENTITIES
  0
ATTDEF
  5
1B61F
  8
DEFPOINTS
 10
3415.9533837911458249
 20
218.9282368830768064
 30
0.0
 40
0.001
  1
K-4983T-CM
  3

  2
MODELNUMBER
 70
     0
1001
ACDBATTR
1070
     0
1070
     1
  0
ATTDEF
  5
1B620
  8
DEFPOINTS
 10
3415.9533837911458249
 20
218.9265702164101981
 30
0.0
 40
0.001
  1
ADAIR
  3

  2
TRADENAME
 70
     0
1001
ACDBATTR
1070
     0
1070
     1
  0
ATTDEF
  5
1B621
  8
DEFPOINTS
 10
3415.9533837911458249
 20
218.9249035497435045
 30
0.0
 40
0.001
  1
TOILET
  3

  2
PRODUCT
 70
     0
1001
ACDBATTR
1070
     0
1070
     1
  0
LINE
  5
1BC88
  8
0
 10
3408.7952360434578623
 20
218.9241733251375877
 30
0.0
 11
3423.1111214419001954
 21
218.9241733251375877
 31
0.0
  0
ARC
  5
1BC89
  8
0
 10
3408.8069070002848093
 20
218.426285058257605
 30
0.0
 40
0.4979348172010724
 50
90.78345869889597
 51
106.076746947497
  0
ARC
  5
1BC8A
  8
0
 10
3408.8015912396149361
 20
218.5179925675159041
 30
0.0
 40
0.4088454672312426
 50
108.921112904197301
 51
144.6758422331728013
  0
ARC
  5
1BC8B
  8
0
 10
3409.3264791178189625
 20
218.0503724432215904
 30
0.0
 40
1.1102230245150231
 50
140.645210435924696
 51
154.8316286491057099
  0
ARC
  5
1BC8C
  8
0
 10
3411.3968192352699589
 20
216.7688755581168891
 30
0.0
 40
3.5400437516004799
 50
150.305461475426597
 51
209.6443360904887072
  0
ARC
  5
1BC8D
  8
0
 10
3413.9982776834681317
 20
218.5650816397993026
 30
0.0
 40
6.6950583208686281
 50
211.9931666707487921
 51
223.1699986997975884
  0
ARC
  5
1BC8E
  8
0
 10
3415.9531489361079366
 20
223.2679420422713861
 30
0.0
 40
11.6236193358465396
 50
262.295327459904172
 51
270.0001315017772185
  0
ARC
  5
1BC8F
  8
0
 10
3415.9527830791957967
 20
223.2652377671560089
 30
0.0
 40
11.6208904248586808
 50
246.5856342527200979
 51
262.295327459904172
  0
ARC
  5
1BC90
  8
0
 10
3413.7739124600448122
 20
218.2336264793754879
 30
0.0
 40
6.1377718481433616
 50
222.8662072983746043
 51
246.5856342527200979
  0
ARC
  5
1BC91
  8
0
 10
3412.633839429624004
 20
217.32716643224839
 30
0.0
 40
4.6868265563053226
 50
187.1289880117755047
 51
224.2256669020412971
  0
ARC
  5
1BC92
  8
0
 10
3410.7785535560060453
 20
217.162700186948598
 30
0.0
 40
2.826268063962079
 50
162.2661337311579928
 51
188.488447615442908
  0
LINE
  5
1BC93
  8
0
 10
3409.2752678370097783
 20
214.058169640237594
 30
0.0
 11
3409.1883812601099635
 21
214.1112873593376094
 31
0.0
  0
LINE
  5
1BC94
  8
0
 10
3409.1883812601099635
 20
214.1112873593376094
 30
0.0
 11
3408.9797516770099719
 21
213.749045224150592
 31
0.0
  0
ARC
  5
1BC95
  8
0
 10
3408.9970827620118143
 20
213.7390635663379896
 30
0.0
 40
0.0200000000011979
 50
150.0606569435252879
 51
238.560656804555606
  0
LINE
  5
1BC96
  8
0
 10
3408.9866508497061659
 20
213.7219997096314898
 30
0.0
 11
3411.172185660375817
 21
212.3823104063484095
 31
0.0
  0
LINE
  5
1BC97
  8
0
 10
3411.3348011347188731
 20
212.6011213033584966
 30
0.0
 11
3411.1976584630938305
 21
212.3894498536122057
 31
0.0
  0
ARC
  5
1BC98
  8
0
 10
3411.1808735293529935
 20
212.4003248708100955
 30
0.0
 40
0.0199999999936617
 50
244.2535712964462107
 51
327.0606569495519125
  0
ARC
  5
1BC99
  8
0
 10
3413.7785205018808483
 20
217.7866623974298932
 30
0.0
 40
6.000000145859798
 50
232.7314944421642053
 51
244.2535712964462107
  0
LINE
  5
1BC9A
  8
0
 10
3410.2628527795209266
 20
213.1992741695287918
 30
0.0
 11
3410.1492845133298033
 21
213.009328433388589
 31
0.0
  0
ARC
  5
1BC9B
  8
0
 10
3407.468541003187056
 20
211.6785395154986986
 30
0.0
 40
2.8059236811358321
 50
8.9464409904774556
 51
33.1347475501725413
  0
ARC
  5
1BC9C
  8
0
 10
3399.0076567599858208
 20
210.9504891712041967
 30
0.0
 40
11.2928624178049493
 50
350.9151409375976982
 51
5.9182642666299712
  0
ARC
  5
1BC9D
  8
0
 10
3386.5450458935852112
 20
212.9494043061955892
 30
0.0
 40
23.9147606172641503
 50
342.4664651679182157
 51
350.9006954808381238
  0
ARC
  5
1BC9E
  8
0
 10
3430.8343756397330253
 20
199.1468777625877919
 30
0.0
 40
22.4758582904585786
 50
162.929169161240992
 51
174.7825503031372989
  0
ARC
  5
1BC9F
  8
0
 10
3422.3534412614089888
 20
201.4280815915296046
 30
0.0
 40
13.9038267009378895
 50
180.9781013677392139
 51
215.7037872417838003
  0
ARC
  5
1BCA0
  8
0
 10
3417.3599273939580598
 20
197.5852339531180064
 30
0.0
 40
7.6090019658356072
 50
214.1495865589085099
 51
235.5039101736101088
  0
ARC
  5
1BCA1
  8
0
 10
3415.9124604515241117
 20
195.6559988417212139
 30
0.0
 40
5.2001892560035898
 50
236.6094062938182105
 51
258.7094190004576717
  0
ARC
  5
1BCA2
  8
0
 10
3415.9788492203501846
 20
196.1041975409482063
 30
0.0
 40
5.6527571874301854
 50
258.9389634418935202
 51
267.2430115452253858
  0
ARC
  5
1BCA3
  8
0
 10
293.2648352659512057
 20
-137323.709967269707704
 30
0.0
 40
137549.6129834601015318
 50
88.6991440319039839
 51
88.6992466219923159
  0
LINE
  5
1BCA4
  8
0
 10
3415.953175746611123
 20
208.9220002945017995
 30
0.0
 11
3413.986981349341022
 21
208.8776122356383098
 31
0.0
  0
LINE
  5
1BCA5
  8
0
 10
3412.4524127813101586
 20
208.2945042278375922
 30
0.0
 11
3412.4460656599098911
 21
208.6979327379376059
 31
0.0
  0
LINE
  5
1BCA6
  8
0
 10
3412.4460656599098911
 20
208.6979327379376059
 30
0.0
 11
3412.4495767035100471
 21
208.770443022437604
 31
0.0
  0
LINE
  5
1BCA7
  8
0
 10
3412.4495767035100471
 20
208.770443022437604
 30
0.0
 11
3412.4486383363969253
 21
208.8183937768417024
 31
0.0
  0
LINE
  5
1BCA8
  8
0
 10
3413.9633020515111639
 20
208.8517128706376127
 30
0.0
 11
3412.4671790697098004
 21
208.8179369664375997
 31
0.0
  0
ARC
  5
1BCA9
  8
0
 10
3412.4617121120581942
 20
208.9725357436931859
 30
0.0
 40
0.1546954089651122
 50
265.1519779888366202
 51
272.0252626753343179
  0
ARC
  5
1BCAA
  8
0
 10
3412.4488864306199503
 20
208.8218413463604861
 30
0.0
 40
0.003456484678231
 50
191.2962883705475008
 51
265.8839725857620238
  0
ARC
  5
1BCAB
  8
0
 10
3418.0804672926810781
 20
209.6538237483825071
 30
0.0
 40
5.6961577430416002
 50
187.0772804087498002
 51
188.4055668108611883
  0
LINE
  5
1BCAC
  8
0
 10
3412.427709305909957
 20
208.9520116819375914
 30
0.0
 11
3412.4190465801448227
 21
209.7663517093274947
 31
0.0
  0
ARC
  5
1BCAD
  8
0
 10
3412.9121291115820895
 20
209.7776458563457993
 30
0.0
 40
0.4932118617450358
 50
166.0206413260368095
 51
181.3121410393171971
  0
ARC
  5
1BCAE
  8
0
 10
3412.9367329265978697
 20
209.7619386856428889
 30
0.0
 40
0.5209643857794721
 50
127.5308175749295003
 51
164.997950450006897
  0
ARC
  5
1BCAF
  8
0
 10
3412.98180928858892
 20
209.6433357574908882
 30
0.0
 40
0.6435157871433339
 50
104.9737025741253973
 51
124.2788497254967979
  0
ARC
  5
1BCB0
  8
0
 10
3412.9167183876679701
 20
209.8143224516352063
 30
0.0
 40
0.4618958931454249
 50
91.9091772174369623
 51
102.6531944161279029
  0
ARC
  5
1BCB1
  8
0
 10
3414.1550058029060892
 20
160.9985877074599045
 30
0.0
 40
49.29331916242635
 50
91.1303865981284247
 51
91.4573590878313638
  0
ARC
  5
1BCB2
  8
0
 10
3413.0271441866689202
 20
223.4046469232596053
 30
0.0
 40
13.1232533556516593
 50
270.6785684685004867
 51
271.9067588523242875
  0
ARC
  5
1BCB3
  8
0
 10
3413.4687672113318513
 20
209.8195357137115025
 30
0.0
 40
0.4691505743699515
 50
80.0516444973082457
 51
90.6072247760007627
  0
ARC
  5
1BCB4
  8
0
 10
3413.465861130671783
 20
209.8423379854673101
 30
0.0
 40
0.4472449395477182
 50
71.2848396388657761
 51
79.1802549227029715
  0
ARC
  5
1BCB5
  8
0
 10
3413.4176411622138403
 20
209.6686649984854114
 30
0.0
 40
0.6272876642158315
 50
58.0813855371540768
 51
72.2032903828716854
  0
ARC
  5
1BCB6
  8
0
 10
3413.4677497478360237
 20
209.7866335034636052
 30
0.0
 40
0.501055813165515
 50
1.8183257169521581
 51
55.8121494403613667
  0
ARC
  5
1BCB7
  8
0
 10
3452.1267623300368541
 20
210.7112821379789125
 30
0.0
 40
38.1690286198085005
 50
181.3642593680351069
 51
182.5885629802189953
  0
ARC
  5
1BCB8
  8
0
 10
3407.973242970309002
 20
209.462457269945304
 30
0.0
 40
6.0421400927206852
 50
354.2462618511892742
 51
355.4908282076801243
  0
ARC
  5
1BCB9
  8
0
 10
3413.9798109210291841
 20
208.8578803843500964
 30
0.0
 40
0.0052624362579154
 50
292.0354098752458185
 51
347.2027234479400022
  0
ARC
  5
1BCBA
  8
0
 10
3413.9745830414130978
 20
208.8929343669331047
 30
0.0
 40
0.0405763181663975
 50
275.5808858205069214
 51
280.2240917472610136
  0
ARC
  5
1BCBB
  8
0
 10
3413.9596041795471137
 20
209.0577874590630927
 30
0.0
 40
0.2061077636863682
 50
271.0280244729764263
 51
275.268355232713418
  0
LINE
  5
1BCBC
  8
0
 10
3413.7116296552130734
 20
208.8460312090637956
 30
0.0
 11
3413.7119502182099495
 21
208.8348186990376121
 31
0.0
  0
LINE
  5
1BCBD
  8
0
 10
3413.7119502182099495
 20
208.8348186990376121
 30
0.0
 11
3413.7667704217101345
 21
208.8360562991375957
 31
0.0
  0
LINE
  5
1BCBE
  8
0
 10
3413.7667704217101345
 20
208.8360562991375957
 30
0.0
 11
3413.7665846639220035
 21
208.8472714474382883
 31
0.0
  0
LINE
  5
1BCBF
  8
0
 10
3412.666895850041783
 20
208.8224456966165974
 30
0.0
 11
3412.6672164131100544
 21
208.8112331849376062
 31
0.0
  0
LINE
  5
1BCC0
  8
0
 10
3412.6672164131100544
 20
208.8112331849376062
 30
0.0
 11
3412.7220366166097847
 21
208.8124707851376058
 31
0.0
  0
LINE
  5
1BCC1
  8
0
 10
3412.7220366166097847
 20
208.8124707851376058
 30
0.0
 11
3412.7218508588271106
 21
208.8236859347437928
 31
0.0
  0
LINE
  5
1BCC2
  8
0
 10
3413.9817852794380997
 20
208.8530023576753081
 30
0.0
 11
3413.9794600262111999
 21
208.8049810880376072
 31
0.0
  0
LINE
  5
1BCC3
  8
0
 10
3413.9794600262111999
 20
208.8049810880376072
 30
0.0
 11
3412.4495767035100471
 21
208.770443022437604
 31
0.0
  0
ARC
  5
1BCC4
  8
0
 10
3412.509222743024111
 20
208.8223022856826958
 30
0.0
 40
0.0614618405910735
 50
133.8260758547858131
 51
183.5134596362698005
  0
ARC
  5
1BCC5
  8
0
 10
3412.5116017203308729
 20
208.7927337153955989
 30
0.0
 40
0.0864999392891475
 50
88.2609446391012966
 51
121.3009175845500067
  0
ARC
  5
1BCC6
  8
0
 10
3430.5400379907118804
 20
-557.0228510359064558
 30
0.0
 40
766.1141378240597533
 50
91.2435525222226858
 51
91.3482302073595065
  0
ARC
  5
1BCC7
  8
0
 10
3413.9185314506457871
 20
208.8067383807689907
 30
0.0
 40
0.1041654421262498
 50
72.3562210124550802
 51
92.7478377287743427
  0
ARC
  5
1BCC8
  8
0
 10
3413.9367706688622093
 20
208.8640836172980073
 30
0.0
 40
0.043989489838903
 50
34.0406250441510778
 51
72.356221012454597
  0
ARC
  5
1BCC9
  8
0
 10
3413.9389532344539475
 20
208.8655580290497937
 30
0.0
 40
0.0413555797084239
 50
11.7897784627770097
 51
34.0406250441524278
  0
ARC
  5
1BCCA
  8
0
 10
3413.7985949116418851
 20
208.8362617794174128
 30
0.0
 40
0.18473873431514
 50
5.3168128932548386
 51
11.7897784627770097
  0
ARC
  5
1BCCB
  8
0
 10
3411.8212722739071978
 20
208.4147909630945037
 30
0.0
 40
0.1852494358913204
 50
128.5141231773299921
 51
135.3732481638587899
  0
ARC
  5
1BCCC
  8
0
 10
3411.8195100400857882
 20
208.4756592907882009
 30
0.0
 40
0.1413265769870428
 50
95.8261066190479056
 51
143.4915806163143088
  0
ARC
  5
1BCCD
  8
0
 10
3411.3167462536098355
 20
203.7983993998055894
 30
0.0
 40
4.8425502311119137
 50
83.0051909819166269
 51
84.211326572968531
  0
ARC
  5
1BCCE
  8
0
 10
3411.8612900754310431
 20
208.2574765592073049
 30
0.0
 40
0.3503560669362737
 50
51.5997155441345114
 51
82.5909611091729658
  0
ARC
  5
1BCCF
  8
0
 10
3411.6911161331690892
 20
208.0528102413894089
 30
0.0
 40
0.6164864476054182
 50
45.1626729207147193
 51
51.0202429999136413
  0
ARC
  5
1BCD0
  8
0
 10
3412.7943657454397908
 20
209.2365115985170121
 30
0.0
 40
1.002152541328702
 50
228.1539623144402071
 51
271.2307637746603177
  0
LINE
  5
1BCD1
  8
0
 10
3412.81589120860599
 20
208.2345902590261915
 30
0.0
 11
3415.953175746611123
 21
208.305416404650714
 31
0.0
  0
ARC
  5
1BCD2
  8
0
 10
3424.896671804073776
 20
199.9827109181227911
 30
0.0
 40
15.7398495844617905
 50
147.0457169824948949
 51
156.3980404974518876
  0
ARC
  5
1BCD3
  8
0
 10
3421.5368468931328607
 20
201.276496328646914
 30
0.0
 40
12.1441204116846198
 50
155.6447975154320886
 51
180.2664131066522941
  0
ARC
  5
1BCD4
  8
0
 10
3422.6631812168780016
 20
201.4909307881584937
 30
0.0
 40
13.2730882760711104
 50
181.1694797919930124
 51
201.1267431966535923
  0
ARC
  5
1BCD5
  8
0
 10
3422.0101724389910487
 20
201.1238889595522039
 30
0.0
 40
12.5321343592364407
 50
200.6375162344704961
 51
216.6208085837805868
  0
ARC
  5
1BCD6
  8
0
 10
3418.2361436264991426
 20
198.1341889117830135
 30
0.0
 40
7.7211140545378747
 50
215.5205103713921062
 51
233.894152736971904
  0
ARC
  5
1BCD7
  8
0
 10
3416.2691153541891254
 20
195.7374576957581098
 30
0.0
 40
4.628976088131914
 50
236.0840140040097879
 51
252.3352872443498995
  0
ARC
  5
1BCD8
  8
0
 10
3416.2471637599710448
 20
195.6937100434755052
 30
0.0
 40
4.5806364453995663
 50
252.4308689165696933
 51
262.6043055515316951
  0
ARC
  5
1BCD9
  8
0
 10
3416.2640022658820271
 20
195.7980636281963882
 30
0.0
 40
4.6862905043742558
 50
262.5643756049904027
 51
266.1969640314824233
  0
ARC
  5
1BCDA
  8
0
 10
3411.5149795816919323
 20
208.6178122885756068
 30
0.0
 40
0.1369408154895125
 50
96.1789868254204805
 51
153.6679735690873088
  0
LINE
  5
1BCDB
  8
0
 10
3411.5002399920049356
 20
208.7539575471886906
 30
0.0
 11
3411.8122319681478984
 21
208.7610809463990904
 31
0.0
  0
ARC
  5
1BCDC
  8
0
 10
3411.8134066044221981
 20
208.4125754474619896
 30
0.0
 40
0.3485074784846481
 50
79.2101315026972514
 51
90.1931144451586135
  0
LINE
  5
1BCDD
  8
0
 10
3411.8786498585182017
 20
208.7549214425526998
 30
0.0
 11
3411.8911639985108195
 21
208.6369597877011017
 31
0.0
  0
ARC
  5
1BCDE
  8
0
 10
3411.9165402195808383
 20
208.6956271078281873
 30
0.0
 40
0.0639203179490941
 50
246.6093743101716029
 51
266.4738436865121116
  0
ARC
  5
1BCDF
  8
0
 10
3411.8910652085401125
 20
208.4282649168634975
 30
0.0
 40
0.2046997236610228
 50
64.3237673693827219
 51
83.9587118815251756
  0
ARC
  5
1BCE0
  8
0
 10
3411.7112833598612269
 20
208.1915520468211014
 30
0.0
 40
0.4994880343605591
 50
43.9559718600353904
 51
57.4863304208252686
  0
LINE
  5
1BCE1
  8
0
 10
3412.4287584948651784
 20
208.3034301152482044
 30
0.0
 11
3412.417472746310068
 21
208.6898190009376037
 31
0.0
  0
LINE
  5
1BCE2
  8
0
 10
3412.417472746310068
 20
208.6898190009376037
 30
0.0
 11
3412.4101801804099523
 21
208.7695465436376026
 31
0.0
  0
ARC
  5
1BCE3
  8
0
 10
3412.4067099609560501
 20
208.7672599916874105
 30
0.0
 40
0.0041558083311328
 50
33.3811675713743696
 51
80.5479354937129273
  0
ARC
  5
1BCE4
  8
0
 10
3412.3497561886570111
 20
208.2209962536279875
 30
0.0
 40
0.5533728452879914
 50
84.0215465030916562
 51
93.6885770127101267
  0
LINE
  5
1BCE5
  8
0
 10
3412.3141558576207899
 20
208.7732227672366037
 30
0.0
 11
3411.9696673582097901
 21
208.765440431737602
 31
0.0
  0
ARC
  5
1BCE6
  8
0
 10
3411.9710362421469654
 20
208.7048461829357109
 30
0.0
 40
0.0606097090498005
 50
91.2941481305025775
 51
137.4170659209470955
  0
ARC
  5
1BCE7
  8
0
 10
3411.9694651086952035
 20
208.7062900507681036
 30
0.0
 40
0.0584758827575656
 50
137.4170659209495113
 51
181.3744055503304082
  0
ARC
  5
1BCE8
  8
0
 10
3398.8081982080611851
 20
208.3905182993071037
 30
0.0
 40
13.1065785504278391
 50
1.0549459538574271
 51
1.3744055503304351
  0
LINE
  5
1BCE9
  8
0
 10
3412.4205336516220086
 20
208.5850231349920136
 30
0.0
 11
3412.4478353034151041
 21
208.5854526705701915
 31
0.0
  0
LINE
  5
1BCEA
  8
0
 10
3412.4506028164628333
 20
208.4095471545138878
 30
0.0
 11
3412.4256776568668101
 21
208.408908414318887
 31
0.0
  0
ARC
  5
1BCEB
  8
0
 10
3403.5164367677698465
 20
214.0787487038253971
 30
0.0
 40
9.5493554492298216
 50
323.3517297161453143
 51
325.5645146822897118
  0
ARC
  5
1BCEC
  8
0
 10
3411.7643307613129764
 20
207.5301297810287053
 30
0.0
 40
0.9448327186264648
 50
143.1393996038453054
 51
164.7624453813326113
  0
ARC
  5
1BCED
  8
0
 10
3418.7004774587148859
 20
206.8626484654996887
 30
0.0
 40
7.9010179868803396
 50
173.3439080694853942
 51
173.9662449555897012
  0
ARC
  5
1BCEE
  8
0
 10
3428.4373787221379644
 20
205.7992912637683105
 30
0.0
 40
17.6957849196462185
 50
173.8562293638210861
 51
174.9294730971909075
  0
ARC
  5
1BCEF
  8
0
 10
3409.9699469294560004
 20
207.4161280900644897
 30
0.0
 40
0.8425556008748223
 50
345.9584992855516248
 51
356.4037503590986944
  0
ARC
  5
1BCF0
  8
0
 10
3408.6043389548940468
 20
207.8591632612659055
 30
0.0
 40
2.2769808758329901
 50
332.724765956629426
 51
343.479990376399428
  0
ARC
  5
1BCF1
  8
0
 10
3422.698010731623981
 20
200.9225216129987075
 30
0.0
 40
13.4317161191459409
 50
153.9757771693431891
 51
168.4144720342181074
  0
ARC
  5
1BCF2
  8
0
 10
3423.9024224650720498
 20
201.0500700642676861
 30
0.0
 40
14.5905856860587395
 50
169.8551381161886127
 51
178.7761177870848996
  0
ARC
  5
1BCF3
  8
0
 10
3432.6097134187830306
 20
201.9317691170188027
 30
0.0
 40
23.3015221251086011
 50
181.4018437475623102
 51
184.2579932802244116
  0
ARC
  5
1BCF4
  8
0
 10
3422.6442039846001535
 20
201.5311676233461924
 30
0.0
 40
13.3381202728646908
 50
185.7204722927029934
 51
195.2983032976104028
  0
ARC
  5
1BCF5
  8
0
 10
3422.45153757602111
 20
201.372536441152107
 30
0.0
 40
13.1108251400026106
 50
194.851777502387506
 51
215.7204803142178093
  0
ARC
  5
1BCF6
  8
0
 10
3419.3398265017672202
 20
199.1071573839404891
 30
0.0
 40
9.261932816494264
 50
215.5813561189065979
 51
228.75761177345899
  0
ARC
  5
1BCF7
  8
0
 10
3416.2976776318278098
 20
195.7908417964455055
 30
0.0
 40
4.7638552153852958
 50
229.9749453155895935
 51
247.3537761087310116
  0
ARC
  5
1BCF8
  8
0
 10
3414.8097438841969051
 20
192.1299769407839904
 30
0.0
 40
0.8131430303389038
 50
244.7905279830202119
 51
257.8351250332805193
  0
ARC
  5
1BCF9
  8
0
 10
3416.0580587905828907
 20
202.5990304387354968
 30
0.0
 40
11.3530497704577105
 50
262.8165294731925883
 51
263.5153688943352108
  0
ARC
  5
1BCFA
  8
0
 10
3414.57299065462621
 20
190.2215227818489041
 30
0.0
 40
1.115695930001624
 50
72.9356422592203728
 51
79.5223129665363615
  0
ARC
  5
1BCFB
  8
0
 10
3416.2403567343931172
 20
195.7505970787692888
 30
0.0
 40
4.6593336817716411
 50
253.2863731982141928
 51
266.4662984696443004
  0
LINE
  5
1BCFC
  8
0
 10
3410.8432299956111819
 20
207.6931588703378111
 30
0.0
 11
3410.8174968531097875
 21
207.6925831200375967
 31
0.0
  0
ARC
  5
1BCFD
  8
0
 10
3410.8196084455821619
 20
207.5982055574534115
 30
0.0
 40
0.0944011818893325
 50
91.281715181151398
 51
120.7990247941679058
  0
ARC
  5
1BCFE
  8
0
 10
3411.1834864690258655
 20
207.3777571559191983
 30
0.0
 40
0.5107293331496434
 50
143.8143991494889917
 51
153.3303957259388994
  0
ARC
  5
1BCFF
  8
0
 10
3424.3128228799328099
 20
200.4159920435010918
 30
0.0
 40
15.3714854283814901
 50
152.1074772113952065
 51
160.0005150235930955
  0
ARC
  5
1BD00
  8
0
 10
3422.8382715519041994
 20
200.9340358256999082
 30
0.0
 40
13.8086899624449497
 50
159.9278603439423136
 51
174.2434659674555917
  0
ARC
  5
1BD01
  8
0
 10
3416.1952408813717739
 20
195.5907689108908016
 30
0.0
 40
4.7744221437511829
 50
242.8801713436820933
 51
258.4360345791603208
  0
ARC
  5
1BD02
  8
0
 10
3416.2451599632258876
 20
195.7927697284507929
 30
0.0
 40
4.9823366225011867
 50
258.3392943307899259
 51
266.6403205206918869
  0
ARC
  5
1BD03
  8
0
 10
3403.5457143723851914
 20
208.0699488254248877
 30
0.0
 40
8.2848820674132178
 50
31.5391516742800988
 51
35.9198730794318308
  0
ARC
  5
1BD04
  8
0
 10
3408.0016471656499562
 20
211.7190635753829895
 30
0.0
 40
2.6935692535075888
 50
9.9437193928704826
 51
14.7227765074273407
  0
ARC
  5
1BD05
  8
0
 10
3400.4800264015480025
 20
210.5890397922339901
 30
0.0
 40
10.2990083709966704
 50
351.4856165306607068
 51
8.9100669501827028
  0
ARC
  5
1BD06
  8
0
 10
3386.8128586800621633
 20
212.8827876244261859
 30
0.0
 40
24.1563953302742291
 50
342.6352421039184151
 51
350.9046446674943809
  0
LINE
  5
1BD07
  8
0
 10
3411.5898648951151699
 20
208.3897154348518086
 30
0.0
 11
3411.0218342403250062
 21
208.3752024984835884
 31
0.0
  0
LINE
  5
1BD08
  8
0
 10
3411.0204766080100853
 20
208.4353395947375986
 30
0.0
 11
3411.0311395390099278
 21
207.963018995737599
 31
0.0
  0
LINE
  5
1BD09
  8
0
 10
3411.0311395390099278
 20
207.963018995737599
 30
0.0
 11
3411.0110120346112126
 21
207.9822575267376124
 31
0.0
  0
LINE
  5
1BD0A
  8
0
 10
3411.0110120346112126
 20
207.9822575267376124
 30
0.0
 11
3411.0012378158098727
 21
208.4152121254375913
 31
0.0
  0
LINE
  5
1BD0B
  8
0
 10
3411.0012378158098727
 20
208.4152121254375913
 30
0.0
 11
3411.0204766080100853
 21
208.4353395947375986
 31
0.0
  0
LINE
  5
1BD0C
  8
0
 10
3411.0311395390099278
 20
207.963018995737599
 30
0.0
 11
3411.3298907588950897
 21
207.963018995737599
 31
0.0
  0
ARC
  5
1BD0D
  8
0
 10
3416.4925419646278897
 20
196.5765937931383007
 30
0.0
 40
3.995764237352295
 50
232.5109274733086124
 51
262.2422766848201263
  0
ARC
  5
1BD0E
  8
0
 10
3419.7204808317201241
 20
200.5724878957234125
 30
0.0
 40
9.1318561304176438
 50
205.4109936056983088
 51
231.6994529391226081
  0
ARC
  5
1BD0F
  8
0
 10
3422.196864691718929
 20
202.0505725421971022
 30
0.0
 40
12.0060074933115892
 50
184.9539941915793122
 51
206.7112934299966014
  0
ARC
  5
1BD10
  8
0
 10
3420.1606914799808692
 20
201.9461501531934005
 30
0.0
 40
9.9686818106320167
 50
157.7667681005395934
 51
185.3666916876736082
  0
ARC
  5
1BD11
  8
0
 10
3416.0694736210298288
 20
203.6067648892374962
 30
0.0
 40
5.5533117751012799
 50
147.0065663759324934
 51
157.6545601647081867
  0
ARC
  5
1BD12
  8
0
 10
3413.7684849861448129
 20
205.1504927205193098
 30
0.0
 40
2.7830844112333311
 50
122.0427948980803023
 51
147.8669025079680068
  0
ARC
  5
1BD13
  8
0
 10
3414.0117750174317734
 20
204.6695222505773017
 30
0.0
 40
3.32021908722913
 50
104.7093428053795066
 51
121.1979695001512027
  0
ARC
  5
1BD14
  8
0
 10
3414.5108898663020227
 20
202.5742902702091044
 30
0.0
 40
5.4737373863270227
 50
94.1380950467452351
 51
104.1937622905291931
  0
ARC
  5
1BD15
  8
0
 10
3415.8384150923079687
 20
187.3193425450540133
 30
0.0
 40
20.7859098984634194
 50
91.8733927435964546
 51
94.753511463938807
  0
ARC
  5
1BD16
  8
0
 10
3417.2464089263858114
 20
146.4688236106549084
 30
0.0
 40
61.6606650199857995
 50
91.1734451600322444
 51
91.9401055483173053
  0
ARC
  5
1BD17
  8
0
 10
3423.099444492935163
 20
218.426285058257605
 30
0.0
 40
0.4979348172010724
 50
73.9232530525029716
 51
89.2165413011040442
  0
ARC
  5
1BD18
  8
0
 10
3423.1047602536050363
 20
218.5179925675159041
 30
0.0
 40
0.4088454672312426
 50
35.3241577668271418
 51
71.0788870958026422
  0
ARC
  5
1BD19
  8
0
 10
3422.5798723754010098
 20
218.0503724432215904
 30
0.0
 40
1.1102230245150231
 50
25.1683713508942688
 51
39.3547895640752969
  0
ARC
  5
1BD1A
  8
0
 10
3420.5095322579509229
 20
216.7688755581168891
 30
0.0
 40
3.5400437516004311
 50
330.3556639095112928
 51
29.6945385245733711
  0
ARC
  5
1BD1B
  8
0
 10
3417.9080738097532048
 20
218.5650816397993026
 30
0.0
 40
6.6950583208686281
 50
316.8300013002025253
 51
328.0068333292512079
  0
ARC
  5
1BD1C
  8
0
 10
3415.9532025571120357
 20
223.2679420422713861
 30
0.0
 40
11.6236193358465396
 50
269.9998684982228951
 51
277.704672540095828
  0
ARC
  5
1BD1D
  8
0
 10
3415.9535684140250851
 20
223.2652377671560089
 30
0.0
 40
11.6208904248586808
 50
277.704672540095828
 51
293.4143657472798168
  0
ARC
  5
1BD1E
  8
0
 10
3418.1324390331760696
 20
218.2336264793754879
 30
0.0
 40
6.1377718481433616
 50
293.4143657472798168
 51
317.133792701625282
  0
ARC
  5
1BD1F
  8
0
 10
3419.2725120635959684
 20
217.32716643224839
 30
0.0
 40
4.6868265563053226
 50
315.7743330979586744
 51
352.8710119882244953
  0
ARC
  5
1BD20
  8
0
 10
3421.1277979372139271
 20
217.162700186948598
 30
0.0
 40
2.826268063962079
 50
351.5115523845569783
 51
17.733866268841961
  0
ARC
  5
1BD21
  8
0
 10
3424.4378104900329163
 20
211.6785395154986986
 30
0.0
 40
2.8059236811358321
 50
146.8652524498274943
 51
171.0535590095225018
  0
ARC
  5
1BD22
  8
0
 10
3432.8986947332341515
 20
210.9504891712041967
 30
0.0
 40
11.2928624178049493
 50
174.0817357333700102
 51
189.0848590624023018
  0
ARC
  5
1BD23
  8
0
 10
3445.3613055996352159
 20
212.9494043061955892
 30
0.0
 40
23.9147606172641503
 50
189.099304519160313
 51
197.5335348320818127
  0
ARC
  5
1BD24
  8
0
 10
3410.6430673666468465
 20
201.0200848027369886
 30
0.0
 40
12.8171245474872499
 50
1.675647591500776
 51
21.6306100334211102
  0
ARC
  5
1BD25
  8
0
 10
3409.5208476155598873
 20
201.4350250209703006
 30
0.0
 40
13.9339212694080992
 50
324.3499692996779231
 51
359.8349062018892255
  0
ARC
  5
1BD26
  8
0
 10
3414.5464240992619125
 20
197.5852339531180064
 30
0.0
 40
7.6090019658356072
 50
304.4960898263898912
 51
325.8504134410915185
  0
ARC
  5
1BD27
  8
0
 10
3415.9938910416958606
 20
195.6559988417212139
 30
0.0
 40
5.2001892560035898
 50
281.2905809995423283
 51
303.3905937061819031
  0
ARC
  5
1BD28
  8
0
 10
3415.9275022728720614
 20
196.1041975409482063
 30
0.0
 40
5.6527571874301854
 50
272.7569884547746142
 51
281.0610365581065935
  0
ARC
  5
1BD29
  8
0
 10
6524.6186942963504407
 20
-136706.1658612767059822
 30
0.0
 40
136931.9096870608918834
 50
91.3007531013093541
 51
91.3008561541774668
  0
ARC
  5
1BD2A
  8
0
 10
3428.3606371208347809
 20
208.0699488254248877
 30
0.0
 40
8.2848820674132178
 50
144.0801269205682047
 51
148.4608483257198941
  0
ARC
  5
1BD2B
  8
0
 10
3423.9047043275709257
 20
211.7190635753829895
 30
0.0
 40
2.6935692535075888
 50
165.2772234925726025
 51
170.0562806071295086
  0
ARC
  5
1BD2C
  8
0
 10
3396.7472380113108557
 20
240.0264603320271135
 30
0.0
 40
36.8301005983729581
 50
313.9800723815052947
 51
315.0019988333942251
  0
ARC
  5
1BD2D
  8
0
 10
3424.8013086755850054
 20
211.4191029265599866
 30
0.0
 40
3.2521760258792751
 50
139.6623529596558058
 51
146.5383156779475087
  0
ARC
  5
1BD2E
  8
0
 10
3436.2465725459669557
 20
201.2736070871098093
 30
0.0
 40
18.6789390755170004
 50
137.3135774390430868
 51
141.3871014143128946
  0
LINE
  5
1BD2F
  8
0
 10
3415.9532293676152221
 20
208.9220002945017995
 30
0.0
 11
3417.9194237648848684
 21
208.8776122356383098
 31
0.0
  0
LINE
  5
1BD30
  8
0
 10
3419.4539923329148223
 20
208.2945042278375922
 30
0.0
 11
3419.4603394543150898
 21
208.6979327379376059
 31
0.0
  0
LINE
  5
1BD31
  8
0
 10
3419.4603394543150898
 20
208.6979327379376059
 30
0.0
 11
3419.4568284107158433
 21
208.770443022437604
 31
0.0
  0
LINE
  5
1BD32
  8
0
 10
3419.4568284107158433
 20
208.770443022437604
 30
0.0
 11
3419.4577667778280556
 21
208.8183937768417024
 31
0.0
  0
LINE
  5
1BD33
  8
0
 10
3417.9431030627151813
 20
208.8517128706376127
 30
0.0
 11
3419.43922604451609
 21
208.8179369664375997
 31
0.0
  0
ARC
  5
1BD34
  8
0
 10
3419.444693002168151
 20
208.9725357436931859
 30
0.0
 40
0.1546954089651122
 50
267.9747373246656821
 51
274.8480220111633798
  0
ARC
  5
1BD35
  8
0
 10
3419.4575186836059402
 20
208.8218413463604861
 30
0.0
 40
0.003456484678231
 50
274.1160274142379762
 51
348.7037116294525276
  0
ARC
  5
1BD36
  8
0
 10
3413.8259378215439028
 20
209.6538237483825071
 30
0.0
 40
5.6961577430416002
 50
351.5944331891387264
 51
352.9227195912501998
  0
LINE
  5
1BD37
  8
0
 10
3419.4786958083150239
 20
208.9520116819375914
 30
0.0
 11
3419.4873585340810678
 21
209.7663517093274947
 31
0.0
  0
ARC
  5
1BD38
  8
0
 10
3418.9942760026428914
 20
209.7776458563457993
 30
0.0
 40
0.4932118617450358
 50
358.6878589606827745
 51
13.9793586739631408
  0
ARC
  5
1BD39
  8
0
 10
3418.9696721876271113
 20
209.7619386856428889
 30
0.0
 40
0.5209643857794721
 50
15.0020495499930604
 51
52.4691824250705281
  0
ARC
  5
1BD3A
  8
0
 10
3418.9245958256360609
 20
209.6433357574908882
 30
0.0
 40
0.6435157871433339
 50
55.7211502745032092
 51
75.0262974258745743
  0
ARC
  5
1BD3B
  8
0
 10
3418.9896867265579203
 20
209.8143224516352063
 30
0.0
 40
0.4618958931454249
 50
77.3468055838720971
 51
88.0908227825630235
  0
ARC
  5
1BD3C
  8
0
 10
3417.7513993113188917
 20
160.9985877074599045
 30
0.0
 40
49.29331916242635
 50
88.5426409121686504
 51
88.8696134018716037
  0
ARC
  5
1BD3D
  8
0
 10
3418.8792609275569703
 20
223.4046469232596053
 30
0.0
 40
13.1232533556516593
 50
268.0932411476757125
 51
269.3214315314995133
  0
ARC
  5
1BD3E
  8
0
 10
3418.4376379028940391
 20
209.8195357137115025
 30
0.0
 40
0.4691505743699515
 50
89.3927752239992373
 51
99.9483555026917401
  0
ARC
  5
1BD3F
  8
0
 10
3418.4405439835541074
 20
209.8423379854673101
 30
0.0
 40
0.4472449395477182
 50
100.8197450772970001
 51
108.7151603611341955
  0
ARC
  5
1BD40
  8
0
 10
3418.4887639520111406
 20
209.6686649984854114
 30
0.0
 40
0.6272876642158315
 50
107.7967096171283004
 51
121.9186144628458948
  0
ARC
  5
1BD41
  8
0
 10
3418.4386553663898667
 20
209.7866335034636052
 30
0.0
 40
0.501055813165515
 50
124.1878505596386049
 51
178.181674283047812
  0
ARC
  5
1BD42
  8
0
 10
3379.7796427841890363
 20
210.7112821379789125
 30
0.0
 40
38.1690286198085005
 50
357.4114370197809762
 51
358.6357406319631878
  0
ARC
  5
1BD43
  8
0
 10
3423.933162143915979
 20
209.462457269945304
 30
0.0
 40
6.0421400927206852
 50
184.5091717923197905
 51
185.7537381488106973
  0
ARC
  5
1BD44
  8
0
 10
3417.9265941931971611
 20
208.8578803843500964
 30
0.0
 40
0.0052624362579154
 50
192.7972765520599978
 51
247.9645901247542099
  0
ARC
  5
1BD45
  8
0
 10
3417.9318220728127926
 20
208.8929343669331047
 30
0.0
 40
0.0405763181663975
 50
259.7759082527389864
 51
264.4191141794930786
  0
ARC
  5
1BD46
  8
0
 10
3417.9468009346787767
 20
209.0577874590630927
 30
0.0
 40
0.2061077636863682
 50
264.731644767286582
 51
268.9719755270235737
  0
LINE
  5
1BD47
  8
0
 10
3418.1947754590141813
 20
208.8460312090637956
 30
0.0
 11
3418.1944548960159409
 21
208.8348186990376121
 31
0.0
  0
LINE
  5
1BD48
  8
0
 10
3418.1944548960159409
 20
208.8348186990376121
 30
0.0
 11
3418.1396346925148464
 21
208.8360562991375957
 31
0.0
  0
LINE
  5
1BD49
  8
0
 10
3418.1396346925148464
 20
208.8360562991375957
 30
0.0
 11
3418.1398204503038869
 21
208.8472714474382883
 31
0.0
  0
LINE
  5
1BD4A
  8
0
 10
3419.239509264183198
 20
208.8224456966165974
 30
0.0
 11
3419.239188701115836
 21
208.8112331849376062
 31
0.0
  0
LINE
  5
1BD4B
  8
0
 10
3419.239188701115836
 20
208.8112331849376062
 30
0.0
 11
3419.1843684976161057
 21
208.8124707851376058
 31
0.0
  0
LINE
  5
1BD4C
  8
0
 10
3419.1843684976161057
 20
208.8124707851376058
 30
0.0
 11
3419.1845542553978703
 21
208.8236859347437928
 31
0.0
  0
LINE
  5
1BD4D
  8
0
 10
3417.9246198347877908
 20
208.8530023576753081
 30
0.0
 11
3417.9269450880151453
 21
208.8049810880376072
 31
0.0
  0
LINE
  5
1BD4E
  8
0
 10
3417.9269450880151453
 20
208.8049810880376072
 30
0.0
 11
3419.4568284107158433
 21
208.770443022437604
 31
0.0
  0
ARC
  5
1BD4F
  8
0
 10
3419.39718237120087
 20
208.8223022856826958
 30
0.0
 40
0.0614618405910735
 50
356.4865403637285226
 51
46.1739241452141584
  0
ARC
  5
1BD50
  8
0
 10
3419.3948033938950175
 20
208.7927337153955989
 30
0.0
 40
0.0864999392891475
 50
58.6990824154499933
 51
91.739055360898746
  0
ARC
  5
1BD51
  8
0
 10
3401.3663671235149195
 20
-557.0228510359064558
 30
0.0
 40
766.1141378240597533
 50
88.6517697926404651
 51
88.7564474777773427
  0
ARC
  5
1BD52
  8
0
 10
3417.9878736635801033
 20
208.8067383807689907
 30
0.0
 40
0.1041654421262498
 50
87.2521622712256431
 51
107.6437789875449056
  0
ARC
  5
1BD53
  8
0
 10
3417.9696344453641359
 20
208.8640836172980073
 30
0.0
 40
0.043989489838903
 50
107.643778987545403
 51
145.9593749558488867
  0
ARC
  5
1BD54
  8
0
 10
3417.9674518797719429
 20
208.8655580290497937
 30
0.0
 40
0.0413555797084239
 50
145.9593749558476077
 51
168.2102215372229921
  0
ARC
  5
1BD55
  8
0
 10
3418.1078102025840053
 20
208.8362617794174128
 30
0.0
 40
0.18473873431514
 50
168.2102215372229921
 51
174.6831871067452084
  0
ARC
  5
1BD56
  8
0
 10
3420.0851328403191474
 20
208.4147909630945037
 30
0.0
 40
0.1852494358913204
 50
44.6267518361412172
 51
51.4858768226699368
  0
ARC
  5
1BD57
  8
0
 10
3420.0868950741401022
 20
208.4756592907882009
 30
0.0
 40
0.1413265769870428
 50
36.5084193836857196
 51
84.1738933809520944
  0
ARC
  5
1BD58
  8
0
 10
3420.5896588606160549
 20
203.7983993998055894
 30
0.0
 40
4.8425502311119137
 50
95.7886734270314548
 51
96.9948090180833731
  0
ARC
  5
1BD59
  8
0
 10
3420.0451150387939379
 20
208.2574765592073049
 30
0.0
 40
0.3503560669362737
 50
97.4090388908270342
 51
128.4002844558654886
  0
ARC
  5
1BD5A
  8
0
 10
3420.2152889810568013
 20
208.0528102413894089
 30
0.0
 40
0.6164864476054182
 50
128.9797570000862947
 51
134.837327079285302
  0
ARC
  5
1BD5B
  8
0
 10
3419.1120393687860997
 20
209.2365115985170121
 30
0.0
 40
1.002152541328702
 50
268.7692362253396823
 51
311.8460376855597929
  0
LINE
  5
1BD5C
  8
0
 10
3419.0905139056199005
 20
208.2345902590261915
 30
0.0
 11
3415.9532293676152221
 21
208.305416404650714
 31
0.0
  0
ARC
  5
1BD5D
  8
0
 10
3407.0097333101521144
 20
199.9827109181227911
 30
0.0
 40
15.7398495844617905
 50
23.6019595025480697
 51
32.9542830175050625
  0
ARC
  5
1BD5E
  8
0
 10
3410.3695582210921202
 20
201.276496328646914
 30
0.0
 40
12.1441204116846198
 50
359.7335868933477059
 51
24.3552024845679114
  0
ARC
  5
1BD5F
  8
0
 10
3409.2432238973469794
 20
201.4909307881584937
 30
0.0
 40
13.2730882760711104
 50
338.873256803346294
 51
358.8305202080069876
  0
ARC
  5
1BD60
  8
0
 10
3409.8962326752348417
 20
201.1238889595522039
 30
0.0
 40
12.5321343592364407
 50
323.3791914162193848
 51
339.3624837655294755
  0
ARC
  5
1BD61
  8
0
 10
3413.6702614877272026
 20
198.1341889117830135
 30
0.0
 40
7.7211140545378747
 50
306.1058472630281813
 51
324.4794896286080075
  0
ARC
  5
1BD62
  8
0
 10
3415.6372897600358556
 20
195.7374576957581098
 30
0.0
 40
4.628976088131914
 50
287.6647127556501005
 51
303.9159859959902974
  0
ARC
  5
1BD63
  8
0
 10
3415.6592413542548456
 20
195.6937100434755052
 30
0.0
 40
4.5806364453995663
 50
277.3956944484683049
 51
287.569131083430193
  0
ARC
  5
1BD64
  8
0
 10
3415.6428047049498673
 20
195.7945515535107006
 30
0.0
 40
4.6827559583150178
 50
273.8003254413640093
 51
277.4363099222695155
  0
ARC
  5
1BD65
  8
0
 10
3420.3914255325339582
 20
208.6178122885756068
 30
0.0
 40
0.1369408154895125
 50
26.3320264309127303
 51
83.8210131745795053
  0
LINE
  5
1BD66
  8
0
 10
3420.4061651222209548
 20
208.7539575471886906
 30
0.0
 11
3420.094173146077992
 21
208.7610809463990904
 31
0.0
  0
ARC
  5
1BD67
  8
0
 10
3420.092998509804147
 20
208.4125754474619896
 30
0.0
 40
0.3485074784846481
 50
89.8068855548413723
 51
100.7898684973027059
  0
LINE
  5
1BD68
  8
0
 10
3420.0277552557067793
 20
208.7549214425526998
 30
0.0
 11
3420.0152411157150709
 21
208.6369597877011017
 31
0.0
  0
ARC
  5
1BD69
  8
0
 10
3419.9898648946441426
 20
208.6956271078281873
 30
0.0
 40
0.0639203179490941
 50
273.5261563134878884
 51
293.3906256898284255
  0
ARC
  5
1BD6A
  8
0
 10
3420.0153399056848684
 20
208.4282649168634975
 30
0.0
 40
0.2046997236610228
 50
96.0412881184748244
 51
115.6762326306173065
  0
ARC
  5
1BD6B
  8
0
 10
3420.1951217543642088
 20
208.1915520468211014
 30
0.0
 40
0.4994880343605591
 50
122.513669579174703
 51
136.0440281399646096
  0
LINE
  5
1BD6C
  8
0
 10
3419.4776466193588931
 20
208.3034301152482044
 30
0.0
 11
3419.4889323679158224
 21
208.6898190009376037
 31
0.0
  0
LINE
  5
1BD6D
  8
0
 10
3419.4889323679158224
 20
208.6898190009376037
 30
0.0
 11
3419.4962249338159381
 21
208.7695465436376026
 31
0.0
  0
ARC
  5
1BD6E
  8
0
 10
3419.4996951532698404
 20
208.7672599916874105
 30
0.0
 40
0.0041558083311328
 50
99.4520645062870585
 51
146.6188324286256091
  0
ARC
  5
1BD6F
  8
0
 10
3419.5566489255688793
 20
208.2209962536279875
 30
0.0
 40
0.5533728452879914
 50
86.3114229872898733
 51
95.9784534969083438
  0
LINE
  5
1BD70
  8
0
 10
3419.5922492566051005
 20
208.7732227672366037
 30
0.0
 11
3419.9367377560151908
 21
208.765440431737602
 31
0.0
  0
ARC
  5
1BD71
  8
0
 10
3419.9353688720780156
 20
208.7048461829357109
 30
0.0
 40
0.0606097090498005
 50
42.582934079052869
 51
88.7058518694974083
  0
ARC
  5
1BD72
  8
0
 10
3419.9369400055311417
 20
208.7062900507681036
 30
0.0
 40
0.0584758827575656
 50
358.6255944496695065
 51
42.5829340790504673
  0
ARC
  5
1BD73
  8
0
 10
3433.09820690616516
 20
208.3905182993071037
 30
0.0
 40
13.1065785504278391
 50
178.6255944496695065
 51
178.9450540461409105
  0
LINE
  5
1BD74
  8
0
 10
3419.4858714626029723
 20
208.5850231349920136
 30
0.0
 11
3419.4585698108107863
 21
208.5854526705701915
 31
0.0
  0
LINE
  5
1BD75
  8
0
 10
3419.4558022977630571
 20
208.4095471545138878
 30
0.0
 11
3419.4807274573581708
 21
208.408908414318887
 31
0.0
  0
ARC
  5
1BD76
  8
0
 10
3428.3899683464560439
 20
214.0787487038253971
 30
0.0
 40
9.5493554492298216
 50
214.4354853177102029
 51
216.6482702838547141
  0
ARC
  5
1BD77
  8
0
 10
3420.142074352912914
 20
207.5301297810287053
 30
0.0
 40
0.9448327186264648
 50
15.2375546186674207
 51
36.8606003961546378
  0
ARC
  5
1BD78
  8
0
 10
3413.2059276555110046
 20
206.8626484654996887
 30
0.0
 40
7.9010179868803396
 50
6.033755044410257
 51
6.6560919305145321
  0
ARC
  5
1BD79
  8
0
 10
3403.4690263920879261
 20
205.7992912637683105
 30
0.0
 40
17.6957849196462185
 50
5.0705269028090818
 51
6.1437706361788198
  0
ARC
  5
1BD7A
  8
0
 10
3421.9364581847689806
 20
207.4161280900644897
 30
0.0
 40
0.8425556008748223
 50
183.5962496409013056
 51
194.0415007144484036
  0
ARC
  5
1BD7B
  8
0
 10
3423.3020661593318437
 20
207.8591632612659055
 30
0.0
 40
2.2769808758329901
 50
196.5200096236006004
 51
207.2752340433706024
  0
ARC
  5
1BD7C
  8
0
 10
3409.208394382601
 20
200.9225216129987075
 30
0.0
 40
13.4317161191459409
 50
11.5855279657819192
 51
26.0242228306567682
  0
ARC
  5
1BD7D
  8
0
 10
3411.0708959493858856
 20
201.3556712739218142
 30
0.0
 40
11.5202811998601202
 50
359.9835208647834861
 51
11.3354731450091393
  0
ARC
  5
1BD7E
  8
0
 10
3409.6165690749157875
 20
201.4502814055337012
 30
0.0
 40
12.9749771228069495
 50
344.6333479112026907
 51
359.5675785228723953
  0
ARC
  5
1BD7F
  8
0
 10
3409.4548675382047804
 20
201.372536441152107
 30
0.0
 40
13.1108251400026106
 50
324.2795196857823044
 51
345.1482224976126076
  0
ARC
  5
1BD80
  8
0
 10
3412.566578612459125
 20
199.1071573839404891
 30
0.0
 40
9.261932816494264
 50
311.2423882265409816
 51
324.4186438810933737
  0
ARC
  5
1BD81
  8
0
 10
3415.6087274823980806
 20
195.7908417964455055
 30
0.0
 40
4.7638552153852958
 50
292.6462238912690168
 51
310.0250546844104065
  0
ARC
  5
1BD82
  8
0
 10
3417.0966612300280758
 20
192.1299769407839904
 30
0.0
 40
0.8131430303389038
 50
282.1648749667194807
 51
295.2094720169798165
  0
ARC
  5
1BD83
  8
0
 10
3415.8483463236420903
 20
202.5990304387354968
 30
0.0
 40
11.3530497704577105
 50
276.4846311056647892
 51
277.183470526807298
  0
ARC
  5
1BD84
  8
0
 10
3417.3334144595992257
 20
190.2215227818489041
 30
0.0
 40
1.115695930001624
 50
100.4776870334635959
 51
107.0643577407795988
  0
ARC
  5
1BD85
  8
0
 10
3415.6661064995810193
 20
195.7503534692862956
 30
0.0
 40
4.6590836492467123
 50
273.5325146438743218
 51
286.7138038241471918
  0
LINE
  5
1BD86
  8
0
 10
3421.0631751186151632
 20
207.6931588703378111
 30
0.0
 11
3421.0889082611151935
 21
207.6925831200375967
 31
0.0
  0
ARC
  5
1BD87
  8
0
 10
3421.0867966686441832
 20
207.5982055574534115
 30
0.0
 40
0.0944011818893325
 50
59.2009752058320728
 51
88.7182848188486162
  0
ARC
  5
1BD88
  8
0
 10
3420.7229186451991154
 20
207.3777571559191983
 30
0.0
 40
0.5107293331496434
 50
26.6696042740610615
 51
36.1856008505109799
  0
ARC
  5
1BD89
  8
0
 10
3407.5935822342921711
 20
200.4159920435010918
 30
0.0
 40
15.3714854283814901
 50
19.9994849764069009
 51
27.8925227886047509
  0
ARC
  5
1BD8A
  8
0
 10
3428.3606907418411538
 20
208.0699488254248877
 30
0.0
 40
8.2848820674132178
 50
144.0801269205682047
 51
148.4608483257198941
  0
LINE
  5
1BD8B
  8
0
 10
3420.316540219109811
 20
208.3897154348518086
 30
0.0
 11
3420.8845708739008842
 21
208.3752024984835884
 31
0.0
  0
LINE
  5
1BD8C
  8
0
 10
3420.8859285062158051
 20
208.4353395947375986
 30
0.0
 11
3420.8752655752150531
 21
207.963018995737599
 31
0.0
  0
LINE
  5
1BD8D
  8
0
 10
3420.8752655752150531
 20
207.963018995737599
 30
0.0
 11
3420.8953930796151326
 21
207.9822575267376124
 31
0.0
  0
LINE
  5
1BD8E
  8
0
 10
3420.8953930796151326
 20
207.9822575267376124
 30
0.0
 11
3420.9051672984151082
 21
208.4152121254375913
 31
0.0
  0
LINE
  5
1BD8F
  8
0
 10
3420.9051672984151082
 20
208.4152121254375913
 30
0.0
 11
3420.8859285062158051
 21
208.4353395947375986
 31
0.0
  0
LINE
  5
1BD90
  8
0
 10
3420.8752655752150531
 20
207.963018995737599
 30
0.0
 11
3420.5765143553308008
 21
207.963018995737599
 31
0.0
  0
ARC
  5
1BD91
  8
0
 10
3415.4139177554420712
 20
196.5764994270587067
 30
0.0
 40
3.9956561271092101
 50
277.7563682542123047
 51
307.4892747724102833
  0
ARC
  5
1BD92
  8
0
 10
3412.1859242825062211
 20
200.5724878957234125
 30
0.0
 40
9.1318561304176438
 50
308.3005470608774772
 51
334.5890063943016912
  0
ARC
  5
1BD93
  8
0
 10
3409.7095404225069615
 20
202.0505725421971022
 30
0.0
 40
12.0060074933115892
 50
333.2887065700033986
 51
355.0460058084206025
  0
ARC
  5
1BD94
  8
0
 10
3411.7457136342450212
 20
201.9461501531934005
 30
0.0
 40
9.9686818106320167
 50
354.6333083123263918
 51
22.2332318994603817
  0
ARC
  5
1BD95
  8
0
 10
3415.8369314931960616
 20
203.6067648892374962
 30
0.0
 40
5.5533117751012799
 50
22.34543983529176
 51
32.9934336240675279
  0
ARC
  5
1BD96
  8
0
 10
3418.1379201280810776
 20
205.1504927205193098
 30
0.0
 40
2.7830844112333311
 50
32.1330974920319576
 51
57.9572051019196621
  0
ARC
  5
1BD97
  8
0
 10
3417.8946300967932075
 20
204.6695222505773017
 30
0.0
 40
3.32021908722913
 50
58.8020304998487973
 51
75.2906571946204508
  0
ARC
  5
1BD98
  8
0
 10
3417.3955152479238677
 20
202.5742902702091044
 30
0.0
 40
5.4737373863270227
 50
75.80623770947075
 51
85.8619049532548928
  0
ARC
  5
1BD99
  8
0
 10
3416.0679900219170122
 20
187.3193425450540133
 30
0.0
 40
20.7859098984634194
 50
85.2464885360612072
 51
88.1266072564035454
  0
ARC
  5
1BD9A
  8
0
 10
3414.6599961878400791
 20
146.4688236106549084
 30
0.0
 40
61.6606650199857995
 50
88.0598944516826947
 51
88.8265548399677556
  0
ARC
  5
1BD9B
  8
0
 10
3431.4263250916728794
 20
210.5890397922339901
 30
0.0
 40
10.2990083709966704
 50
171.0899330498189101
 51
188.514383469339208
  0
ARC
  5
1BD9C
  8
0
 10
3445.083845034515889
 20
212.8808838379518988
 30
0.0
 40
24.14656791258043
 50
189.0945135753993895
 51
197.3673167591001061
  0
ARC
  5
1BD9D
  8
0
 10
3420.14499080605583
 20
201.2651734761124089
 30
0.0
 40
11.0959361938333494
 50
174.5498156089963118
 51
179.876850199936996
  0
ARC
  5
1BD9E
  8
0
 10
3420.3475703066101232
 20
201.2647380572452107
 30
0.0
 40
11.2985161623260595
 50
179.876850199936996
 51
186.6130203564561043
  0
ARC
  5
1BD9F
  8
0
 10
3421.8385789834519528
 20
201.4375970211208084
 30
0.0
 40
12.7995115306767602
 50
186.6130203564561043
 51
196.2407191111373095
  0
ARC
  5
1BDA0
  8
0
 10
3422.7609232081790651
 20
201.706273757950413
 30
0.0
 40
13.7601915282822098
 50
196.2407191111373095
 51
206.3179358447578977
  0
ARC
  5
1BDA1
  8
0
 10
3424.2076539080399016
 20
202.4218561995600965
 30
0.0
 40
15.3742200127463207
 50
206.3179358447578977
 51
216.6832367587915087
  0
ARC
  5
1BDA2
  8
0
 10
3417.8736245121631327
 20
197.7034983317595902
 30
0.0
 40
7.4759398609374887
 50
216.6832367587915087
 51
231.7232313381516917
  0
ARC
  5
1BDA3
  8
0
 10
3416.0448290651697789
 20
195.3859102822150078
 30
0.0
 40
4.5237022088611782
 50
231.7232313381516917
 51
243.3930040005878936
  0
ARC
  5
1BDA4
  8
0
 10
3409.0648844522638683
 20
200.9335105147987122
 30
0.0
 40
13.8119220278867303
 50
5.7573726056069354
 51
20.0695606668890605
  0
ARC
  5
1BDA5
  8
0
 10
3415.7111106118481985
 20
195.5907689108908016
 30
0.0
 40
4.7744221437511829
 50
281.5639654208396223
 51
297.1198286563179067
  0
ARC
  5
1BDA6
  8
0
 10
3415.6611915299949942
 20
195.7927697284509918
 30
0.0
 40
4.9823366225013759
 50
273.3596794793081131
 51
281.6607056692100741
  0
ARC
  5
1BDA7
  8
0
 10
3411.7613606871641423
 20
201.2651734761124089
 30
0.0
 40
11.0959361938333494
 50
0.123149800064575
 51
5.4501843910036412
  0
ARC
  5
1BDA8
  8
0
 10
3411.5587811866098491
 20
201.2647380572452107
 30
0.0
 40
11.2985161623260595
 50
353.386979643543782
 51
0.123149800064575
  0
ARC
  5
1BDA9
  8
0
 10
3410.0677725097680195
 20
201.4375970211208084
 30
0.0
 40
12.7995115306767602
 50
343.7592808888626905
 51
353.386979643543782
  0
ARC
  5
1BDAA
  8
0
 10
3409.1454282850418167
 20
201.706273757950413
 30
0.0
 40
13.7601915282822098
 50
333.6820641552420739
 51
343.7592808888626905
  0
ARC
  5
1BDAB
  8
0
 10
3407.6986975851809802
 20
202.4218561995600965
 30
0.0
 40
15.3742200127463207
 50
323.3167632412084913
 51
333.6820641552420739
  0
ARC
  5
1BDAC
  8
0
 10
3414.0327269810559301
 20
197.7034983317595902
 30
0.0
 40
7.4759398609374887
 50
308.2767686618482799
 51
323.3167632412084913
  0
ARC
  5
1BDAD
  8
0
 10
3415.8615224280511029
 20
195.3859102822150078
 30
0.0
 40
4.5237022088611782
 50
296.6069959994121064
 51
308.2767686618482799
  0
ENDSEC
  0
EOF
