  0
SECTION
  2
HEADER
  9
$ACADVER
  1
AC1009
  9
$INSBASE
 10
3415.9519522666919329
 20
159.8298204075919102
 30
0.0
  9
$EXTMIN
 10
3407.7989158337500157
 20
159.8264156051978944
 30
-0.0000000349181948
  9
$EXTMAX
 10
3424.2571651626972198
 20
187.1576662704148077
 30
0.0000000814935746
  9
$LIMMIN
 10
0.0
 20
0.0
  9
$LIMMAX
 10
11.6929133858000007
 20
8.2677165353999982
  9
$ORTHOMODE
 70
     1
  9
$REGENMODE
 70
     1
  9
$FILLMODE
 70
     1
  9
$QTEXTMODE
 70
     0
  9
$MIRRTEXT
 70
     0
  9
$DRAGMODE
 70
     2
  9
$LTSCALE
 40
0.6431102362
  9
$OSMODE
 70
  2039
  9
$ATTMODE
 70
     1
  9
$TEXTSIZE
 40
0.2
  9
$TRACEWID
 40
0.05
  9
$TEXTSTYLE
  7
STANDARD
  9
$CLAYER
  8
0
  9
$CELTYPE
  6
BYLAYER
  9
$CECOLOR
 62
   256
  9
$DIMSCALE
 40
1.0
  9
$DIMASZ
 40
0.1875
  9
$DIMEXO
 40
0.0625
  9
$DIMDLI
 40
0.4443307087
  9
$DIMRND
 40
0.0
  9
$DIMDLE
 40
0.0
  9
$DIMEXE
 40
0.125
  9
$DIMTP
 40
0.01
  9
$DIMTM
 40
0.01
  9
$DIMTXT
 40
2.0
  9
$DIMCEN
 40
0.1052362205
  9
$DIMTSZ
 40
0.0
  9
$DIMTOL
 70
     1
  9
$DIMLIM
 70
     0
  9
$DIMTIH
 70
     1
  9
$DIMTOH
 70
     1
  9
$DIMSE1
 70
     0
  9
$DIMSE2
 70
     0
  9
$DIMTAD
 70
     0
  9
$DIMZIN
 70
     0
  9
$DIMBLK
  1

  9
$DIMASO
 70
     1
  9
$DIMSHO
 70
     1
  9
$DIMPOST
  1
\X
  9
$DIMAPOST
  1

  9
$DIMALT
 70
     1
  9
$DIMALTD
 70
     2
  9
$DIMALTF
 40
25.3999999999999986
  9
$DIMLFAC
 40
1.0
  9
$DIMTOFL
 70
     0
  9
$DIMTVP
 40
0.0
  9
$DIMTIX
 70
     0
  9
$DIMSOXD
 70
     0
  9
$DIMSAH
 70
     0
  9
$DIMBLK1
  1

  9
$DIMBLK2
  1

  9
$DIMSTYLE
  2
STANDARD
  9
$DIMCLRD
 70
     0
  9
$DIMCLRE
 70
     0
  9
$DIMCLRT
 70
     0
  9
$DIMTFAC
 40
1.0
  9
$DIMGAP
 40
0.09
  9
$LUNITS
 70
     2
  9
$LUPREC
 70
     4
  9
$SKETCHINC
 40
0.1
  9
$FILLETRAD
 40
0.0
  9
$AUNITS
 70
     0
  9
$AUPREC
 70
     0
  9
$MENU
  1
.
  9
$ELEVATION
 40
0.0
  9
$PELEVATION
 40
0.0
  9
$THICKNESS
 40
0.0
  9
$LIMCHECK
 70
     0
  9
$BLIPMODE
 70
     0
  9
$CHAMFERA
 40
0.0
  9
$CHAMFERB
 40
0.0
  9
$SKPOLY
 70
     0
  9
$TDCREATE
 40
2458060.468368056230247
  9
$TDUPDATE
 40
2459146.3848842601291835
  9
$TDINDWG
 40
0.5831320602
  9
$TDUSRTIMER
 40
0.5831320602
  9
$USRTIMER
 70
     1
  9
$ANGBASE
 50
0.0
  9
$ANGDIR
 70
     0
  9
$PDMODE
 70
     0
  9
$PDSIZE
 40
0.3125
  9
$PLINEWID
 40
0.0
  9
$COORDS
 70
     1
  9
$SPLFRAME
 70
     0
  9
$SPLINETYPE
 70
     6
  9
$SPLINESEGS
 70
     8
  9
$ATTDIA
 70
     1
  9
$ATTREQ
 70
     1
  9
$HANDLING
 70
     1
  9
$HANDSEED
  5
1C008
  9
$SURFTAB1
 70
     6
  9
$SURFTAB2
 70
     6
  9
$SURFTYPE
 70
     6
  9
$SURFU
 70
     6
  9
$SURFV
 70
     6
  9
$UCSNAME
  2

  9
$UCSORG
 10
0.0
 20
0.0
 30
0.0
  9
$UCSXDIR
 10
1.0
 20
0.0
 30
0.0
  9
$UCSYDIR
 10
0.0
 20
1.0
 30
0.0
  9
$PUCSNAME
  2

  9
$PUCSORG
 10
0.0
 20
0.0
 30
0.0
  9
$PUCSXDIR
 10
1.0
 20
0.0
 30
0.0
  9
$PUCSYDIR
 10
0.0
 20
1.0
 30
0.0
  9
$USERI1
 70
     0
  9
$USERI2
 70
     0
  9
$USERI3
 70
     0
  9
$USERI4
 70
     0
  9
$USERI5
 70
     0
  9
$USERR1
 40
0.0
  9
$USERR2
 40
0.0
  9
$USERR3
 40
0.0
  9
$USERR4
 40
0.0
  9
$USERR5
 40
0.0
  9
$WORLDVIEW
 70
     1
  9
$SHADEDGE
 70
     3
  9
$SHADEDIF
 70
    70
  9
$TILEMODE
 70
     1
  9
$MAXACTVP
 70
    64
  9
$PLIMCHECK
 70
     0
  9
$PEXTMIN
 10
1.0000000000000000E+20
 20
1.0000000000000000E+20
 30
1.0000000000000000E+20
  9
$PEXTMAX
 10
-1.0000000000000000E+20
 20
-1.0000000000000000E+20
 30
-1.0000000000000000E+20
  9
$PLIMMIN
 10
0.0
 20
0.0
  9
$PLIMMAX
 10
12.0
 20
9.0
  9
$UNITMODE
 70
     0
  9
$VISRETAIN
 70
     1
  9
$PLINEGEN
 70
     0
  9
$PSLTSCALE
 70
     1
  0
ENDSEC
  0
SECTION
  2
TABLES
  0
TABLE
  2
VPORT
 70
     1
  0
VPORT
  2
*ACTIVE
 70
     0
 10
0.0
 20
0.0
 11
1.0
 21
1.0
 12
112.3349252638481062
 22
-21.7694706380814296
 13
0.0
 23
0.0
 14
1.0
 24
1.0
 15
0.0
 25
0.0
 16
0.0
 26
0.0
 36
96.5995694866707311
 17
3303.693115234375
 27
195.2615115758877096
 37
0.0
 40
27.5586951922505889
 41
2.6486111111111108
 42
50.0
 43
0.0
 44
0.0
 50
0.0
 51
0.0
 71
     0
 72
   100
 73
     1
 74
     1
 75
     0
 76
     0
 77
     0
 78
     0
  0
ENDTAB
  0
TABLE
  2
LTYPE
 70
     2
  0
LTYPE
  2
CONTINUOUS
 70
     0
  3
Solid line
 72
    65
 73
     0
 40
0.0
  0
LTYPE
  2
PHANTOM2
 70
     0
  3
___ _ _ ___ _ _ ___ _ _ ___ _ _
 72
    65
 73
     6
 40
1.25
 49
0.625
 49
-0.125
 49
0.125
 49
-0.125
 49
0.125
 49
-0.125
  0
ENDTAB
  0
TABLE
  2
LAYER
 70
     2
  0
LAYER
  2
0
 70
     0
 62
   255
  6
CONTINUOUS
  0
LAYER
  2
DEFPOINTS
 70
     0
 62
     7
  6
CONTINUOUS
  0
ENDTAB
  0
TABLE
  2
STYLE
 70
     1
  0
STYLE
  2
STANDARD
 70
     0
 40
0.0
 41
0.8
 50
0.0
 71
     0
 42
0.2
  3
txt
  4

  0
ENDTAB
  0
TABLE
  2
VIEW
 70
     0
  0
ENDTAB
  0
TABLE
  2
UCS
 70
     0
  0
ENDTAB
  0
TABLE
  2
APPID
 70
     9
  0
APPID
  2
ACAD
 70
     0
  0
APPID
  2
ACAD_MLEADERVER
 70
     0
  0
APPID
  2
ACAD_EXEMPT_FROM_CAD_STANDARDS
 70
     0
  0
APPID
  2
ACAD_NAV_VCDISPLAY
 70
     0
  0
APPID
  2
ACAECLAYERSTANDARD
 70
     0
  0
APPID
  2
ACCMTRANSPARENCY
 70
     0
  0
APPID
  2
ACAD_DSTYLE_DIMJAG
 70
     0
  0
APPID
  2
ACAD_DSTYLE_DIMTALN
 70
     0
  0
APPID
  2
ACDBATTR
 70
     0
  0
ENDTAB
  0
TABLE
  2
DIMSTYLE
 70
     1
  0
DIMSTYLE
  2
STANDARD
 70
     0
  3

  4

  5

  6

  7

 40
1.0
 41
0.1875
 42
0.0625
 43
0.38
 44
0.125
 45
0.0
 46
0.0
 47
0.01
 48
0.01
140
0.15625
141
0.09
142
0.0
143
25.3999999999999986
144
1.0
145
0.0
146
1.0
147
0.09
 71
     1
 72
     0
 73
     1
 74
     1
 75
     0
 76
     0
 77
     0
 78
     4
170
     0
171
     2
172
     0
173
     0
174
     0
175
     0
176
     0
177
     0
178
     0
  0
ENDTAB
  0
ENDSEC
  0
SECTION
  2
BLOCKS
  0
BLOCK
  8
0
  2
$MODEL_SPACE
 70
     0
 10
0.0
 20
0.0
 30
0.0
  3
$MODEL_SPACE
  1

  0
ENDBLK
  5
21
  8
0
  0
BLOCK
 67
     1
  8
0
  2
$PAPER_SPACE
 70
     0
 10
0.0
 20
0.0
 30
0.0
  3
$PAPER_SPACE
  1

  0
ENDBLK
  5
1D
 67
     1
  8
0
  0
BLOCK
  8
0
  2
_FILLED
 70
     0
 10
0.0
 20
0.0
 30
0.0
  3
_FILLED
  1

  0
SOLID
  5
9E2C
  8
0
  6
BYBLOCK
 62
     0
 10
0.0
 20
0.0
 30
0.0
 11
-1.0
 21
0.1666666667
 31
0.0
 12
-1.0
 22
-0.1666666667
 32
0.0
 13
-1.0
 23
-0.1666666667
 33
0.0
  0
ENDBLK
  5
9E2D
  8
0
  6
BYBLOCK
 62
     0
  0
BLOCK
  8
0
  2
A$C6B0F1CD5
 70
     2
 10
0.0
 20
0.0
 30
0.0
  3
A$C6B0F1CD5
  1

  0
ATTDEF
  5
B779
  8
DEFPOINTS
 10
0.0005209962714616
 20
0.000347009907216
 30
0.0
 40
0.001
  1
BATH FAUCET
  3

  2
PRODUCT
 70
     0
1001
ACDBATTR
1070
     0
1070
     1
  0
ATTDEF
  5
B77A
  8
DEFPOINTS
 10
0.0005209962714616
 20
0.0020136765738812
 30
0.0
 40
0.001
  1
SINGULIER
  3

  2
TRADENAME
 70
     0
1001
ACDBATTR
1070
     0
1070
     1
  0
ATTDEF
  5
B77B
  8
DEFPOINTS
 10
0.0005209962714616
 20
0.0036803432405463
 30
0.0
 40
0.001
  1
K-10873W
  3

  2
MODELNUMBER
 70
     0
1001
ACDBATTR
1070
     0
1070
     1
  0
ENDBLK
  5
B77F
  8
0
  0
BLOCK
  8
0
  2
A$C790C4779
 70
     0
 10
0.0
 20
0.0
 30
0.0
  3
A$C790C4779
  1

  0
LINE
  5
135B8
  8
0
 62
     1
 10
0.0000000000000002
 20
-37.3954278042999988
 30
0.0
 11
0.000000000000002
 21
187.2057910386251365
 31
0.0
  0
LINE
  5
135B9
  8
0
 10
-4.232274871249996
 20
-0.0000000000500009
 30
0.0
 11
-1.6732305542500019
 21
0.0000000000500009
 31
0.0
  0
ARC
  5
135BA
  8
0
 10
-1.673230554249227
 20
-0.019685039349227
 30
0.0
 40
0.0196850393992278
 50
359.9999999977458174
 51
90.0000000022289299
  0
LINE
  5
135BB
  8
0
 10
-1.65354551485
 20
-0.0196850393500014
 30
0.0
 11
-1.6535455148548031
 21
-0.1417322834500041
 31
0.0
  0
ARC
  5
135BC
  8
0
 10
-1.8503959085783681
 20
-0.1417322834422592
 30
0.0
 40
0.1968503937235679
 50
308.0000000051189204
 51
359.9999999977458174
  0
ARC
  5
135BD
  8
0
 10
206402.867126322700642
 20
-264186.1327213866170496
 30
0.0
 40
335256.6379051808035001
 50
128.0000000051190909
 51
128.0001315430347972
  0
ARC
  5
135BE
  8
0
 10
-2.3841858483936611
 20
-0.7086672312258245
 30
0.0
 40
0.0787343436991881
 50
269.9974989648274004
 51
308.0001315430346835
  0
LINE
  5
135BF
  8
0
 10
-2.3841892852500002
 20
-0.7874015748500014
 30
0.0
 11
-3.521326940266623
 21
-0.7873519373147886
 31
0.0
  0
ARC
  5
135C0
  8
0
 10
-3.5213234946367509
 20
-0.7084166022533154
 30
0.0
 40
0.0789353351366763
 50
232.1074321309334039
 51
269.9974989648262067
  0
ARC
  5
135C1
  8
0
 10
122.5627830190684051
 20
161.2970992303251876
 30
0.0
 40
205.3665118602133077
 50
231.8926994283673935
 51
232.1074321309334039
  0
ARC
  5
135C2
  8
0
 10
-4.05438302028411
 20
-0.1413806812727074
 30
0.0
 40
0.1975826044299356
 50
180.1019590338792966
 51
231.894492101153304
  0
LINE
  5
135C3
  8
0
 10
-3.4665376408499968
 20
-0.8464569578199387
 30
0.0
 11
-3.4665376408499968
 21
-0.7873543289388536
 31
0.0
  0
LINE
  5
135C4
  8
0
 10
-2.4389785857499979
 20
-0.8464564280499971
 30
0.0
 11
-2.4389785857499979
 21
-0.7873991832258938
 31
0.0
  0
LINE
  5
135C5
  8
0
 10
-4.1763149515081661
 20
-0.2968525105499964
 30
0.0
 11
-1.729202704762441
 21
-0.2968525105499964
 31
0.0
  0
ARC
  5
135C6
  8
0
 10
-4.2322710507446732
 20
-0.0196942628668566
 30
0.0
 40
0.0196942632874289
 50
90.0111148525494258
 51
179.9731663683137128
  0
LINE
  5
135C7
  8
0
 10
-4.2519653118722616
 20
-0.0196850393500014
 30
0.0
 11
-4.2519653118722616
 21
-0.1417322834500041
 31
0.0
  0
LINE
  5
135C8
  8
0
 10
4.2322748712499969
 20
-0.0000000000500009
 30
0.0
 11
1.6732305542500019
 21
0.0000000000500009
 31
0.0
  0
ARC
  5
135C9
  8
0
 10
1.6732305542492281
 20
-0.019685039349227
 30
0.0
 40
0.0196850393992278
 50
89.9999999977710843
 51
180.0000000022540974
  0
LINE
  5
135CA
  8
0
 10
1.65354551485
 20
-0.0196850393500014
 30
0.0
 11
1.6535455148548031
 21
-0.1417322834500041
 31
0.0
  0
ARC
  5
135CB
  8
0
 10
1.8503959085783681
 20
-0.1417322834422592
 30
0.0
 40
0.1968503937235679
 50
180.0000000022540974
 51
231.999999994881108
  0
ARC
  5
135CC
  8
0
 10
-206402.867126322700642
 20
-264186.1327213866170496
 30
0.0
 40
335256.6379051808035001
 50
51.9998684569652525
 51
51.9999999948808806
  0
ARC
  5
135CD
  8
0
 10
2.3841858483936611
 20
-0.7086672312258245
 30
0.0
 40
0.0787343436991881
 50
231.9998684569652028
 51
270.0025010351724859
  0
LINE
  5
135CE
  8
0
 10
2.3841892852500002
 20
-0.7874015748500014
 30
0.0
 11
3.5213269402666239
 21
-0.7873519373147886
 31
0.0
  0
ARC
  5
135CF
  8
0
 10
3.5213234946367522
 20
-0.7084166022533154
 30
0.0
 40
0.0789353351366763
 50
270.0025010351737933
 51
307.8925678690666246
  0
ARC
  5
135D0
  8
0
 10
-122.5627830190684051
 20
161.2970992303251876
 30
0.0
 40
205.3665118602133077
 50
307.8925678690666246
 51
308.1073005716326065
  0
ARC
  5
135D1
  8
0
 10
4.0543830206346447
 20
-0.1413806814436782
 30
0.0
 40
0.1975826040790903
 50
308.1055078494570125
 51
359.8980410155184018
  0
LINE
  5
135D2
  8
0
 10
3.5236243727499978
 20
-0.8464569872500007
 30
0.0
 11
2.3818920892499991
 21
-0.8464563986499982
 31
0.0
  0
LINE
  5
135D3
  8
0
 10
2.3818920892499991
 20
-0.8464563986499982
 30
0.0
 11
2.3228369407499989
 21
-0.9055114862499991
 31
0.0
  0
LINE
  5
135D4
  8
0
 10
2.3228369407499989
 20
-0.9055114862499991
 30
0.0
 11
2.32283669621774
 21
-1.377952431149992
 31
0.0
  0
LINE
  5
135D5
  8
0
 10
2.32283669621774
 20
-1.377952431149992
 30
0.0
 11
2.3818917848499961
 21
-1.4370075797500019
 31
0.0
  0
LINE
  5
135D6
  8
0
 10
2.3818917848499961
 20
-1.4370075797500019
 30
0.0
 11
3.5236240682500002
 21
-1.4370092896499991
 31
0.0
  0
LINE
  5
135D7
  8
0
 10
3.5236240682500002
 20
-1.4370092896499991
 30
0.0
 11
3.5826792168500021
 21
-1.377954201950004
 31
0.0
  0
LINE
  5
135D8
  8
0
 10
3.5826792168500021
 20
-1.377954201950004
 30
0.0
 11
3.582679460450001
 21
-0.905512135849996
 31
0.0
  0
LINE
  5
135D9
  8
0
 10
3.582679460450001
 20
-0.905512135849996
 30
0.0
 11
3.5236243727499978
 21
-0.8464569872500007
 31
0.0
  0
LINE
  5
135DA
  8
0
 10
3.4665376408499982
 20
-0.8464569578199387
 30
0.0
 11
3.4665376408499982
 21
-0.7873543289388536
 31
0.0
  0
LINE
  5
135DB
  8
0
 10
2.4389785857499979
 20
-0.8464564280499971
 30
0.0
 11
2.4389785857499979
 21
-0.7873991832258938
 31
0.0
  0
LINE
  5
135DC
  8
0
 10
4.176314951508167
 20
-0.2968525105499964
 30
0.0
 11
1.729202704762441
 21
-0.2968525105499964
 31
0.0
  0
ARC
  5
135DD
  8
0
 10
4.2322710507446706
 20
-0.0196942628668637
 30
0.0
 40
0.01969426328744
 50
0.0268336317070377
 51
89.9888851474415361
  0
LINE
  5
135DE
  8
0
 10
4.2519653118722616
 20
-0.0196850393500014
 30
0.0
 11
4.2519653118722616
 21
-0.1417322834500041
 31
0.0
  0
LINE
  5
135DF
  8
0
 10
3.5433038938999988
 20
-0.9055123383000065
 30
0.0
 11
3.543303893900001
 21
-1.3779528689999969
 31
0.0
  0
LINE
  5
135E0
  8
0
 10
3.5826792168507078
 20
-1.377952833859438
 30
0.0
 11
3.4378639481999991
 21
-1.3779529631
 31
0.0
  0
ARC
  5
135E1
  8
0
 10
3.248028303433538
 20
-0.9399295068502055
 30
0.0
 40
0.4773909512347318
 50
246.5685011794114985
 51
293.4314988205883878
  0
LINE
  5
135E2
  8
0
 10
3.0581926583999999
 20
-1.3779529631
 30
0.0
 11
2.8473127671000542
 21
-1.3779527748999949
 31
0.0
  0
ARC
  5
135E3
  8
0
 10
2.6574772525882229
 20
-0.9398586328204601
 30
0.0
 40
0.4774560333709902
 50
246.5718688740558946
 51
293.4280970205315953
  0
LINE
  5
135E4
  8
0
 10
2.4676414772999991
 20
-1.3779529631
 30
0.0
 11
2.322837098936501
 21
-1.3779528338691589
 31
0.0
  0
LINE
  5
135E5
  8
0
 10
2.3622015316999998
 20
-1.3779528689999969
 30
0.0
 11
2.3622015316999989
 21
-0.9055123382999994
 31
0.0
  0
LINE
  5
135E6
  8
0
 10
3.582679460449878
 20
-0.9055123734407715
 30
0.0
 11
3.4378639481999991
 21
-0.9055122441999969
 31
0.0
  0
ARC
  5
135E7
  8
0
 10
3.248028303433538
 20
-1.343535700449791
 30
0.0
 40
0.4773909512347318
 50
66.5685011794114843
 51
113.4314988205885015
  0
LINE
  5
135E8
  8
0
 10
3.0581926583999999
 20
-0.9055122441999969
 30
0.0
 11
2.8473127671000542
 21
-0.9055124324000018
 31
0.0
  0
ARC
  5
135E9
  8
0
 10
2.6574772525882229
 20
-1.3436065744795369
 30
0.0
 40
0.4774560333709902
 50
66.5719029794683621
 51
113.4281311259440059
  0
LINE
  5
135EA
  8
0
 10
2.4676414772999991
 20
-0.9055122441999969
 30
0.0
 11
2.3228369407495402
 21
-0.9055123734309802
 31
0.0
  0
LINE
  5
135EB
  8
0
 10
3.4378639481999982
 20
-0.9055122441999969
 30
0.0
 11
3.4378639481999982
 21
-1.3779529631
 31
0.0
  0
LINE
  5
135EC
  8
0
 10
3.0581926583999999
 20
-0.9055122442336838
 30
0.0
 11
3.058192658399999
 21
-1.377952963066313
 31
0.0
  0
LINE
  5
135ED
  8
0
 10
2.8473127671
 20
-0.9055124324000018
 30
0.0
 11
2.8473127671
 21
-1.3779527748999949
 31
0.0
  0
LINE
  5
135EE
  8
0
 10
2.4676414772999991
 20
-0.9055122441999969
 30
0.0
 11
2.4676414772999999
 21
-1.3779529631
 31
0.0
  0
LINE
  5
135EF
  8
0
 10
-3.6169677232999988
 20
-1.523622219399996
 30
0.0
 11
3.6169677232999988
 21
-1.523622219399996
 31
0.0
  0
LINE
  5
135F0
  8
0
 10
-3.6169677232999988
 20
-1.523622219399996
 30
0.0
 11
-3.6169655664706148
 21
-1.79921328830644
 31
0.0
  0
LINE
  5
135F1
  8
0
 10
3.6169677233000002
 20
-1.523622219399996
 30
0.0
 11
3.6169655664706148
 21
-1.79921328830644
 31
0.0
  0
ARC
  5
135F2
  8
0
 10
2.6574690738000011
 20
-1.7992057790999989
 30
0.0
 40
0.9594964926999981
 50
270.0002677998999729
 51
359.9995515920693947
  0
LINE
  5
135F3
  8
0
 10
2.6574735584770042
 20
-2.7587022717895162
 30
0.0
 11
2.2392906997799491
 21
-2.7587042263720098
 31
0.0
  0
ARC
  5
135F4
  8
0
 10
1.907109920768588
 20
-4.075208196272551
 30
0.0
 40
1.3083373122455031
 50
92.8163441161551788
 51
111.9714302184384991
  0
ARC
  5
135F5
  8
0
 10
1.6844007503543561
 20
-3.5169014528423679
 30
0.0
 40
0.7072586572166115
 50
112.1620754251559049
 51
163.3646549416143046
  0
ARC
  5
135F6
  8
0
 10
2.7186311955143219
 20
-3.8197152938323948
 30
0.0
 40
1.784901853957199
 50
163.5553001483318099
 51
178.3862015974247868
  0
ARC
  5
135F7
  8
0
 10
17.0322942082439717
 20
-4.2229819411431349
 30
0.0
 40
16.1042444656422106
 50
178.3862015974247868
 51
179.0624040412432976
  0
LINE
  5
135F8
  8
0
 10
0.9302059317510785
 20
-3.9594616474315032
 30
0.0
 11
0.9302059317510789
 21
-6.2430797267999969
 31
0.0
  0
ARC
  5
135F9
  8
0
 10
-11.7908390203851798
 20
-5.718937694217189
 30
0.0
 40
12.7318384196702503
 50
355.5078398175591019
 51
357.6405908905456954
  0
ARC
  5
135FA
  8
0
 10
0.2226689771053312
 20
-6.6400791684104936
 30
0.0
 40
0.6834632913349376
 50
333.5756682723919084
 51
353.6113554237957146
  0
ARC
  5
135FB
  8
0
 10
-0.000004227200002
 20
-6.543456277899991
 30
0.0
 40
0.9259561775000049
 50
270.0002615682309965
 51
334.3531834573997799
  0
ARC
  5
135FC
  8
0
 10
-0.0039294877421534
 20
-2.5412034252165361
 30
0.0
 40
0.8186418030565732
 50
2.3872099443528429
 51
89.7249787062001758
  0
ARC
  5
135FD
  8
0
 10
-1.2042913979932119
 20
-4.5679724788304936
 30
0.0
 40
2.0296260080375919
 50
339.3436971396209856
 51
353.942414238114111
  0
ARC
  5
135FE
  8
0
 10
0.004017697323935
 20
-4.9538129150649262
 30
0.0
 40
0.7656678747152985
 50
269.6993498564817742
 51
334.446170457167284
  0
ARC
  5
135FF
  8
0
 10
2.1686245118476162
 20
-7.9508769724150801
 30
0.0
 40
5.192656081247792
 50
89.2201525049801347
 51
93.5971406112717261
  0
LINE
  5
13600
  8
0
 10
10.3808581070999999
 20
0.0000014401000001
 30
0.0
 11
12.3030732488000005
 21
0.0000014401000001
 31
0.0
  0
LINE
  5
13601
  8
0
 10
12.3030732488000005
 20
0.0000014401000001
 30
0.0
 11
12.29657102
 21
-1.033483819499998
 31
0.0
  0
ARC
  5
13602
  8
0
 10
8.1992593507892622
 20
-1.007705359971282
 30
0.0
 40
4.0973927616993393
 50
345.2166835011761918
 51
359.6395252388066979
  0
ARC
  5
13603
  8
0
 10
7.665804588572442
 20
-0.8630059943421527
 30
0.0
 40
4.6501126065208096
 50
341.9974842144903278
 51
345.1699741906389818
  0
ARC
  5
13604
  8
0
 10
12.0028788648755391
 20
-2.2764817731436571
 30
0.0
 40
0.0886059968295827
 50
318.0992830752639975
 51
344.4977818221523762
  0
ARC
  5
13605
  8
0
 10
12.0222500335543199
 20
-2.2924277543286129
 30
0.0
 40
0.0635475594357337
 50
280.4396121136027205
 51
317.1360971380005935
  0
LINE
  5
13606
  8
0
 10
12.0337647944999997
 20
-2.3549233748999958
 30
0.0
 11
11.9798079277565606
 21
-2.3627665272333331
 31
0.0
  0
ARC
  5
13607
  8
0
 10
11.9770126687480296
 20
-2.3433200881157599
 30
0.0
 40
0.0196466119684799
 50
190.154941106188403
 51
277.939795250628606
  0
LINE
  5
13608
  8
0
 10
11.95767382945
 20
-2.3467839957999952
 30
0.0
 11
11.9571443876300005
 21
-2.308943896012607
 31
0.0
  0
LINE
  5
13609
  8
0
 10
10.7521216164000002
 20
-1.210324162899993
 30
0.0
 11
11.9318097393000002
 21
-1.210324196599998
 31
0.0
  0
ARC
  5
1360A
  8
0
 10
11.9318097387331292
 20
-1.230167867049893
 30
0.0
 40
0.0198436704498946
 50
359.8147381281693242
 51
89.9999983632289542
  0
LINE
  5
1360B
  8
0
 10
11.9516533054496605
 20
-1.2302320300503231
 30
0.0
 11
11.9566201102960505
 21
-2.208815112944535
 31
0.0
  0
ARC
  5
1360C
  8
0
 10
11.8551802160073105
 20
-2.2804312542049838
 30
0.0
 40
0.1058756961608776
 50
344.3772049374097719
 51
2.5461677608355711
  0
ARC
  5
1360D
  8
0
 10
10.6067466818612992
 20
-2.3297893135268088
 30
0.0
 40
1.3552833762090479
 50
2.2861042438788921
 51
5.1211050264768181
  0
LINE
  5
1360E
  8
0
 10
11.9443278825999997
 20
-1.214818001299995
 30
0.0
 11
11.9443278825999997
 21
-2.0771530284999988
 31
0.0
  0
ARC
  5
1360F
  8
0
 10
7.7738742757910222
 20
-2.5360116965846942
 30
0.0
 40
4.1956208794196908
 50
4.4909549061469374
 51
6.2787749749526132
  0
ARC
  5
13610
  8
0
 10
8.9328028997891487
 20
-2.4084993214452619
 30
0.0
 40
3.0296985143644992
 50
6.2787749749526123
 51
11.4328692858054399
  0
ARC
  5
13611
  8
0
 10
6.2269925402716213
 20
-2.9813099462674368
 30
0.0
 40
5.7954158466209558
 50
11.6810173414004108
 51
12.6660501549976203
  0
ARC
  5
13612
  8
0
 10
11.3410135079070997
 20
-1.8142682605241871
 30
0.0
 40
0.5503239048216554
 50
10.86426564846942
 51
89.8999399818415554
  0
ARC
  5
13613
  8
0
 10
11.9403624301628604
 20
-1.271832645922472
 30
0.0
 40
0.011990444703853
 50
16.7031499675962891
 51
70.6476770153719542
  0
ARC
  5
13614
  8
0
 10
11.9403908746999896
 20
-1.8779516345999949
 30
0.0
 40
0.011811023600004
 50
289.5118474172356855
 51
0.0
  0
LINE
  5
13615
  8
0
 10
11.9522018983000002
 20
-1.8779516345999949
 30
0.0
 11
11.9528880707079601
 21
-1.4735112468700251
 31
0.0
  0
ARC
  5
13616
  8
0
 10
11.8716683941174104
 20
-2.2845554211270871
 30
0.0
 40
0.0888872497842505
 50
331.9619538346584022
 51
344.0752043370417255
  0
ARC
  5
13617
  8
0
 10
13.6448174646469802
 20
-2.6082002513809708
 30
0.0
 40
1.7179739166623069
 50
170.5569657723497983
 51
176.416341704627996
  0
ARC
  5
13618
  8
0
 10
40.6176326128047194
 20
-4.5165655329799712
 30
0.0
 40
28.7581617563696206
 50
175.9806653773430867
 51
177.8243949032508056
  0
ARC
  5
13619
  8
0
 10
11.3109454596221699
 20
-3.9843821651330771
 30
0.0
 40
2.3739108471967758
 50
270.7487131088689125
 51
304.0721119084967086
  0
ARC
  5
1361A
  8
0
 10
11.9392484018913105
 20
-4.9930688185020671
 30
0.0
 40
1.1872246568299929
 50
306.2278427815676878
 51
341.1817607006785806
  0
ARC
  5
1361B
  8
0
 10
12.2872573453760499
 20
-5.1116643625316414
 30
0.0
 40
0.8195629538895935
 50
341.1817607006785806
 51
357.4079159961017922
  0
ARC
  5
1361C
  8
0
 10
11.8011570714692908
 20
-5.0896579760327496
 30
0.0
 40
1.3061611015833281
 50
357.4079159961017922
 51
1.859337335707236
  0
LINE
  5
1361D
  8
0
 10
13.1066304719000009
 20
-5.0472784519999934
 30
0.0
 11
13.0868023329999996
 21
-4.6459973220999942
 31
0.0
  0
ARC
  5
1361E
  8
0
 10
12.1079914253851406
 20
-4.7028268321022209
 30
0.0
 40
0.9804592730312299
 50
3.322847899046351
 51
30.3415943727762816
  0
ARC
  5
1361F
  8
0
 10
11.7444886779769906
 20
-4.9405605757694451
 30
0.0
 40
1.4144290415860841
 50
31.2144213116060705
 51
59.0490585062247391
  0
ARC
  5
13620
  8
0
 10
10.8464265443629309
 20
-6.5341546809798103
 30
0.0
 40
3.2433612945695489
 50
59.9218854450547767
 51
66.9248125443956212
  0
ARC
  5
13621
  8
0
 10
12.6684623023076401
 20
-2.2204077592796159
 30
0.0
 40
1.4394475239673199
 50
236.7965187613311002
 51
247.5006852366697103
  0
ARC
  5
13622
  8
0
 10
12.0955923033801795
 20
-3.08839684311718
 30
0.0
 40
0.3994826227261367
 50
222.6214766235947025
 51
237.3723914536045925
  0
ARC
  5
13623
  8
0
 10
11.8438483531682408
 20
-3.3152100033849901
 30
0.0
 40
0.0609266116601539
 50
200.1534310629050992
 51
225.9817505718258133
  0
ARC
  5
13624
  8
0
 10
11.9762488603168809
 20
-3.3085488660547631
 30
0.0
 40
0.1916027213839594
 50
177.8119439527129089
 51
188.2980249856892101
  0
LINE
  5
13625
  8
0
 10
11.7847858370215999
 20
-3.3012335704231068
 30
0.0
 11
11.8417615188000003
 21
-1.918661399399987
 31
0.0
  0
ARC
  5
13626
  8
0
 10
12.9657332026160592
 20
-1.9649801770574551
 30
0.0
 40
1.124925675404381
 50
165.616448583165095
 51
177.6401810463889888
  0
ARC
  5
13627
  8
0
 10
11.3471134242308
 20
-3.5432079149980491
 30
0.0
 40
2.3829989295199301
 50
269.8762315409881012
 51
287.8607440399625261
  0
ARC
  5
13628
  8
0
 10
11.51442690145727
 20
-4.062436459526416
 30
0.0
 40
1.837478919699338
 50
287.8607440399622988
 51
310.9111810268066733
  0
ARC
  5
13629
  8
0
 10
11.9834054086248099
 20
-4.6036266166918827
 30
0.0
 40
1.1213590788920349
 50
310.9111810268066733
 51
334.6055649638310001
  0
ARC
  5
1362A
  8
0
 10
12.1240198547220093
 20
-4.6703785286917103
 30
0.0
 40
0.9657048460332601
 50
334.6055649638310001
 51
351.8644030939661889
  0
ARC
  5
1362B
  8
0
 10
12.2224814324441091
 20
-4.6844541034681866
 30
0.0
 40
0.866242269690127
 50
351.8644030939661889
 51
359.9718430927334225
  0
LINE
  5
1362C
  8
0
 10
10.3808581069999999
 20
0.0000014401000001
 30
0.0
 11
10.3873603358000004
 21
-1.033483819499998
 31
0.0
  0
ARC
  5
1362D
  8
0
 10
14.48467200501074
 20
-1.007705359971282
 30
0.0
 40
4.0973927616993393
 50
180.3604747611933021
 51
194.7833164988236945
  0
ARC
  5
1362E
  8
0
 10
15.0181267672275602
 20
-0.8630059943421527
 30
0.0
 40
4.6501126065208096
 50
194.8300258093609898
 51
198.0025157855097007
  0
ARC
  5
1362F
  8
0
 10
10.6810524909244595
 20
-2.2764817731436571
 30
0.0
 40
0.0886059968295827
 50
195.5022181778475101
 51
221.9007169247360025
  0
ARC
  5
13630
  8
0
 10
10.6616813222456894
 20
-2.2924277543286129
 30
0.0
 40
0.0635475594357337
 50
222.8639028619994065
 51
259.5603878863972227
  0
LINE
  5
13631
  8
0
 10
10.6501665613000007
 20
-2.3549233748999958
 30
0.0
 11
10.7041234280434399
 21
-2.3627665272333331
 31
0.0
  0
ARC
  5
13632
  8
0
 10
10.7069186870519708
 20
-2.3433200881157599
 30
0.0
 40
0.0196466119684799
 50
262.0602047493715077
 51
349.845058893811597
  0
LINE
  5
13633
  8
0
 10
10.7262575263500004
 20
-2.3467839957999952
 30
0.0
 11
10.7267869681699999
 21
-2.308943896012607
 31
0.0
  0
ARC
  5
13634
  8
0
 10
10.7521216170668694
 20
-1.230167867049893
 30
0.0
 40
0.0198436704498946
 50
90.0000016367710316
 51
180.1852618718305905
  0
LINE
  5
13635
  8
0
 10
10.7322780503503399
 20
-1.2302320300503231
 30
0.0
 11
10.7273112455039605
 21
-2.208815112944535
 31
0.0
  0
ARC
  5
13636
  8
0
 10
10.8287511397926899
 20
-2.2804312542049838
 30
0.0
 40
0.1058756961608776
 50
177.4538322391643987
 51
195.6227950625901997
  0
ARC
  5
13637
  8
0
 10
12.0771846739387101
 20
-2.3297893135268088
 30
0.0
 40
1.3552833762090479
 50
174.8788949735231881
 51
177.7138957561211043
  0
LINE
  5
13638
  8
0
 10
10.7396034732000007
 20
-1.214818001299995
 30
0.0
 11
10.7396034732000007
 21
-2.0771530284999988
 31
0.0
  0
ARC
  5
13639
  8
0
 10
14.9100570800089791
 20
-2.5360116965846942
 30
0.0
 40
4.1956208794196908
 50
173.7212250250474028
 51
175.5090450938533877
  0
ARC
  5
1363A
  8
0
 10
13.75112845601085
 20
-2.4084993214452619
 30
0.0
 40
3.0296985143644992
 50
168.5671307141944908
 51
173.7212250250474028
  0
ARC
  5
1363B
  8
0
 10
16.4569388155283782
 20
-2.9813099462674368
 30
0.0
 40
5.7954158466209558
 50
167.3339498450023086
 51
168.3189826585995093
  0
ARC
  5
1363C
  8
0
 10
11.3429178478929007
 20
-1.8142682605241871
 30
0.0
 40
0.5503239048216554
 50
90.1000600181584446
 51
169.1357343515306013
  0
ARC
  5
1363D
  8
0
 10
10.7435689256371294
 20
-1.271832645922472
 30
0.0
 40
0.011990444703853
 50
109.3523229846280032
 51
163.2968500324037109
  0
ARC
  5
1363E
  8
0
 10
10.7435404811000108
 20
-1.8779516345999949
 30
0.0
 40
0.011811023600004
 50
180.0
 51
250.4881525827642861
  0
LINE
  5
1363F
  8
0
 10
10.7317294575000002
 20
-1.8779516345999949
 30
0.0
 11
10.7310432850920296
 21
-1.4735112468700251
 31
0.0
  0
ARC
  5
13640
  8
0
 10
10.81226296168259
 20
-2.2845554211270871
 30
0.0
 40
0.0888872497842505
 50
195.9247956629581893
 51
208.0380461653415125
  0
ARC
  5
13641
  8
0
 10
9.0391138911530184
 20
-2.6082002513809708
 30
0.0
 40
1.7179739166623069
 50
3.583658295372016
 51
9.4430342276501467
  0
ARC
  5
13642
  8
0
 10
-17.9337012570047207
 20
-4.5165655329799712
 30
0.0
 40
28.7581617563696206
 50
2.1756050967491292
 51
4.0193346226568458
  0
ARC
  5
13643
  8
0
 10
11.4255435852618508
 20
-3.8167771224841109
 30
0.0
 40
2.5426871789811072
 50
237.0628215887417127
 51
268.1163533938930073
  0
ARC
  5
13644
  8
0
 10
10.7446829539086792
 20
-4.9930688185020671
 30
0.0
 40
1.1872246568299929
 50
198.8182392993213909
 51
233.7721572184323975
  0
ARC
  5
13645
  8
0
 10
10.3966740104239399
 20
-5.1116643625316414
 30
0.0
 40
0.8195629538895935
 50
182.5920840038982078
 51
198.8182392993213909
  0
ARC
  5
13646
  8
0
 10
10.8827742843307096
 20
-5.0896579760327496
 30
0.0
 40
1.3061611015833281
 50
178.1406626642927051
 51
182.5920840038982078
  0
LINE
  5
13647
  8
0
 10
9.5773008839000013
 20
-5.0472784519999934
 30
0.0
 11
9.5971290228000043
 21
-4.6459973220999942
 31
0.0
  0
ARC
  5
13648
  8
0
 10
10.5759399304148705
 20
-4.7028268321022209
 30
0.0
 40
0.9804592730312299
 50
149.6584056272236865
 51
176.6771521009536059
  0
ARC
  5
13649
  8
0
 10
10.9394426778230098
 20
-4.9405605757694451
 30
0.0
 40
1.4144290415860841
 50
120.9509414937752041
 51
148.7855786883939118
  0
ARC
  5
1364A
  8
0
 10
11.8375048114370696
 20
-6.5341546809798103
 30
0.0
 40
3.2433612945695489
 50
113.075187455604393
 51
120.0781145549451026
  0
ARC
  5
1364B
  8
0
 10
10.0154690534923603
 20
-2.2204077592796159
 30
0.0
 40
1.4394475239673199
 50
292.4993147633302897
 51
303.2034812386688145
  0
ARC
  5
1364C
  8
0
 10
10.5883390524198209
 20
-3.08839684311718
 30
0.0
 40
0.3994826227261367
 50
302.6276085463953223
 51
317.378523376405326
  0
ARC
  5
1364D
  8
0
 10
10.8400830026317703
 20
-3.3152100033849901
 30
0.0
 40
0.0609266116601539
 50
314.0182494281742152
 51
339.8465689370949008
  0
ARC
  5
1364E
  8
0
 10
10.7076824954831196
 20
-3.3085488660547631
 30
0.0
 40
0.1916027213839594
 50
351.7019750143107899
 51
2.1880560472870609
  0
LINE
  5
1364F
  8
0
 10
10.8991455187783899
 20
-3.3012335704231068
 30
0.0
 11
10.8421698370000001
 21
-1.918661399399987
 31
0.0
  0
ARC
  5
13650
  8
0
 10
9.7181981531839376
 20
-1.9649801770574551
 30
0.0
 40
1.124925675404381
 50
2.3598189536110099
 51
14.3835514168352994
  0
ARC
  5
13651
  8
0
 10
11.3368179315692004
 20
-3.5432079149980491
 30
0.0
 40
2.3829989295199301
 50
252.1392559600373886
 51
270.1237684590118988
  0
ARC
  5
13652
  8
0
 10
11.1695044543427304
 20
-4.062436459526416
 30
0.0
 40
1.837478919699338
 50
229.088818973193213
 51
252.1392559600375876
  0
ARC
  5
13653
  8
0
 10
10.7005259471751906
 20
-4.6036266166918827
 30
0.0
 40
1.1213590788920349
 50
205.3944350361689999
 51
229.088818973193213
  0
ARC
  5
13654
  8
0
 10
10.559911501078
 20
-4.6703785286917103
 30
0.0
 40
0.9657048460332601
 50
188.1355969060338111
 51
205.3944350361689999
  0
ARC
  5
13655
  8
0
 10
10.4614499233558895
 20
-4.6844541034681866
 30
0.0
 40
0.866242269690127
 50
180.0281569072666059
 51
188.1355969060338111
  0
LINE
  5
13656
  8
0
 10
10.4604561302098205
 20
-1.7786230187561849
 30
0.0
 11
0.9302059317510789
 21
-4.5311086975323072
 31
0.0
  0
LINE
  5
13657
  8
0
 10
0.9302059317510792
 20
-5.1048187572632591
 30
0.0
 11
10.5999036389994501
 21
-2.312061071976216
 31
0.0
  0
LINE
  5
13658
  8
0
 10
11.2336978269000003
 20
-0.1102346034999968
 30
0.0
 11
11.4502333625000006
 21
-0.1102346034999968
 31
0.0
  0
ARC
  5
13659
  8
0
 10
11.4502333625000006
 20
-0.1200771551352986
 30
0.0
 40
0.0098425516353018
 50
0.0048522026362922
 51
90.0000000000394493
  0
LINE
  5
1365A
  8
0
 10
11.4600759141000008
 20
-0.1200763215999956
 30
0.0
 11
11.4600909177550001
 21
-0.2972424812523968
 31
0.0
  0
ARC
  5
1365B
  8
0
 10
11.4502492180850197
 20
-0.2972433147155584
 30
0.0
 40
0.0098416997052721
 50
269.9078786402786818
 51
0.0048522026338495
  0
LINE
  5
1365C
  8
0
 10
11.4502333943999997
 20
-0.3070850016999955
 30
0.0
 11
11.2336979033999995
 21
-0.3070850016000008
 31
0.0
  0
ARC
  5
1365D
  8
0
 10
11.23369796110393
 20
-0.2972424820962374
 30
0.0
 40
0.0098425195039326
 50
179.9999994397452099
 51
269.999664090888075
  0
LINE
  5
1365E
  8
0
 10
11.2238554415999996
 20
-0.2972424819999944
 30
0.0
 11
11.2238554433323703
 21
-0.1200771232158502
 31
0.0
  0
ARC
  5
1365F
  8
0
 10
11.2336979631454099
 20
-0.1200771233120932
 30
0.0
 40
0.0098425198130396
 50
90.0007931187747943
 51
179.9999994397468015
  0
LINE
  5
13660
  8
0
 10
11.2435404810000001
 20
-0.285157346899993
 30
0.0
 11
11.4403908747000003
 21
-0.285157346899993
 31
0.0
  0
LINE
  5
13661
  8
0
 10
11.4403908747000003
 20
-0.285157346899993
 30
0.0
 11
11.4403908747000003
 21
-0.1259827065999985
 31
0.0
  0
LINE
  5
13662
  8
0
 10
11.4403908747000003
 20
-0.1259827065999985
 30
0.0
 11
11.2435404810000001
 21
-0.1259827065999985
 31
0.0
  0
LINE
  5
13663
  8
0
 10
11.2435404810000001
 20
-0.1259827065999985
 30
0.0
 11
11.2435404810000001
 21
-0.285157346899993
 31
0.0
  0
LINE
  5
13664
  8
0
 10
11.2435404810000001
 20
-0.1329247435999932
 30
0.0
 11
11.4403908747000003
 21
-0.1329247435999932
 31
0.0
  0
LINE
  5
13665
  8
0
 10
11.4403908747000003
 20
-0.1758951483000004
 30
0.0
 11
11.2435404810000001
 21
-0.1758951483000004
 31
0.0
  0
LINE
  5
13666
  8
0
 62
     1
 10
2.9527527127499957
 20
0.0
 30
0.0
 11
3425.624364378980772
 21
0.0
 31
0.0
  0
LINE
  5
13667
  8
0
 10
-3.3740125552999989
 20
-1.437007873999995
 30
0.0
 11
-3.3740125552999989
 21
-1.5236220473000011
 31
0.0
  0
LINE
  5
13668
  8
0
 10
-2.5314928702999988
 20
-1.523622219399996
 30
0.0
 11
-2.5314928702999988
 21
-1.4370080725999941
 31
0.0
  0
LINE
  5
13669
  8
0
 10
2.5315011772
 20
-1.5236210477475041
 30
0.0
 11
2.5315013069151591
 21
-1.4370078038106859
 31
0.0
  0
LINE
  5
1366A
  8
0
 10
3.3740208622000001
 20
-1.5236209259999991
 30
0.0
 11
3.3740208622000001
 21
-1.437009065598772
 31
0.0
  0
ARC
  5
1366B
  8
0
 10
2.271510834839332
 20
-1.5234519131982931
 30
0.0
 40
0.0207238646051601
 50
359.5319609112299872
 51
56.0224196324593322
  0
ARC
  5
1366C
  8
0
 10
2.2754550412557482
 20
-1.5175994482230091
 30
0.0
 40
0.0136663784704072
 50
56.0224196324582806
 51
91.2475798736429198
  0
LINE
  5
1366D
  8
0
 10
2.2751574879000001
 20
-1.503936309399996
 30
0.0
 11
-2.2752329068285522
 21
-1.5039382334107709
 31
0.0
  0
ARC
  5
1366E
  8
0
 10
-2.2740689617853578
 20
-1.521347485033139
 30
0.0
 40
0.0174094494500777
 50
89.727221817396412
 51
153.1828808872606089
  0
ARC
  5
1366F
  8
0
 10
-2.270154145968919
 20
-1.5238287508724959
 30
0.0
 40
0.022027201329863
 50
152.016809705136609
 51
179.4627927975514012
  0
LINE
  5
13670
  8
0
 10
-1.7716502950999991
 20
-1.503936318799993
 30
0.0
 11
-1.7716502967500001
 21
-1.4842512795
 31
0.0
  0
LINE
  5
13671
  8
0
 10
-1.7716502967500001
 20
-1.4842512795
 30
0.0
 11
-1.5354298242999991
 21
-1.484251260299998
 31
0.0
  0
LINE
  5
13672
  8
0
 10
-1.5354298242999991
 20
-1.484251260299998
 30
0.0
 11
-1.5354298226999989
 21
-1.5039362989999949
 31
0.0
  0
LINE
  5
13673
  8
0
 10
-2.3818893597500002
 20
-0.8464569872500007
 30
0.0
 11
-3.5236216432499989
 21
-0.8464563986499982
 31
0.0
  0
LINE
  5
13674
  8
0
 10
-3.5236216432499989
 20
-0.8464563986499982
 30
0.0
 11
-3.5826767917499991
 21
-0.9055114862499991
 31
0.0
  0
LINE
  5
13675
  8
0
 10
-3.5826767917499991
 20
-0.9055114862499991
 30
0.0
 11
-3.5826770362822589
 21
-1.377952431149992
 31
0.0
  0
LINE
  5
13676
  8
0
 10
-3.5826770362822589
 20
-1.377952431149992
 30
0.0
 11
-3.5236219476500028
 21
-1.4370075797500019
 31
0.0
  0
LINE
  5
13677
  8
0
 10
-3.5236219476500028
 20
-1.4370075797500019
 30
0.0
 11
-2.3818896642499992
 21
-1.4370092896499991
 31
0.0
  0
LINE
  5
13678
  8
0
 10
-2.3818896642499992
 20
-1.4370092896499991
 30
0.0
 11
-2.3228345156499959
 21
-1.377954201950004
 31
0.0
  0
LINE
  5
13679
  8
0
 10
-2.3228345156499959
 20
-1.377954201950004
 30
0.0
 11
-2.322834272049997
 21
-0.905512135849996
 31
0.0
  0
LINE
  5
1367A
  8
0
 10
-2.322834272049997
 20
-0.905512135849996
 30
0.0
 11
-2.3818893597500002
 21
-0.8464569872500007
 31
0.0
  0
LINE
  5
1367B
  8
0
 10
-2.3622098386000001
 20
-0.9055123383000065
 30
0.0
 11
-2.3622098385999979
 21
-1.3779528689999969
 31
0.0
  0
LINE
  5
1367C
  8
0
 10
-2.3228345156492902
 20
-1.377952833859438
 30
0.0
 11
-2.4676497842999989
 21
-1.3779529631
 31
0.0
  0
ARC
  5
1367D
  8
0
 10
-2.65748542906646
 20
-0.9399295068502055
 30
0.0
 40
0.4773909512347318
 50
246.5685011794114985
 51
293.4314988205883878
  0
LINE
  5
1367E
  8
0
 10
-2.847321074099999
 20
-1.3779529631
 30
0.0
 11
-3.0582009653999451
 21
-1.3779527748999949
 31
0.0
  0
ARC
  5
1367F
  8
0
 10
-3.248036479911776
 20
-0.9398586328204601
 30
0.0
 40
0.4774560333709902
 50
246.5718688740558946
 51
293.4280970205315953
  0
LINE
  5
13680
  8
0
 10
-3.4378722551999989
 20
-1.3779529631
 30
0.0
 11
-3.582676633563497
 21
-1.3779528338691589
 31
0.0
  0
LINE
  5
13681
  8
0
 10
-3.5433122007999991
 20
-1.3779528689999969
 30
0.0
 11
-3.5433122007999991
 21
-0.9055123382999994
 31
0.0
  0
LINE
  5
13682
  8
0
 10
-2.3228342720501201
 20
-0.9055123734407715
 30
0.0
 11
-2.4676497842999989
 21
-0.9055122441999969
 31
0.0
  0
ARC
  5
13683
  8
0
 10
-2.65748542906646
 20
-1.343535700449791
 30
0.0
 40
0.4773909512347318
 50
66.5685011794115127
 51
113.4314988205885015
  0
LINE
  5
13684
  8
0
 10
-2.847321074099999
 20
-0.9055122441999969
 30
0.0
 11
-3.0582009653999451
 21
-0.9055124324000018
 31
0.0
  0
ARC
  5
13685
  8
0
 10
-3.248036479911776
 20
-1.3436065744795369
 30
0.0
 40
0.4774560333709902
 50
66.5719029794683905
 51
113.4281311259440059
  0
LINE
  5
13686
  8
0
 10
-3.4378722551999989
 20
-0.9055122441999969
 30
0.0
 11
-3.5826767917504578
 21
-0.9055123734309802
 31
0.0
  0
LINE
  5
13687
  8
0
 10
-2.4676497842999998
 20
-0.9055122441999969
 30
0.0
 11
-2.4676497842999998
 21
-1.3779529631
 31
0.0
  0
LINE
  5
13688
  8
0
 10
-2.847321074099999
 20
-0.9055122442336838
 30
0.0
 11
-2.847321074099999
 21
-1.377952963066313
 31
0.0
  0
LINE
  5
13689
  8
0
 10
-3.058200965399998
 20
-0.9055124324000018
 30
0.0
 11
-3.0582009653999989
 21
-1.3779527748999949
 31
0.0
  0
LINE
  5
1368A
  8
0
 10
-3.4378722551999989
 20
-0.9055122441999969
 30
0.0
 11
-3.4378722551999981
 21
-1.3779529631
 31
0.0
  0
LINE
  5
1368B
  8
0
 10
0.8140018595208253
 20
-2.5071048493476691
 30
0.0
 11
0.8140018595208253
 21
-4.7821547824318884
 31
0.0
  0
ARC
  5
1368C
  8
0
 10
-2.6574690738000011
 20
-1.7992057790999989
 30
0.0
 40
0.9594964926999981
 50
180.0004484079302074
 51
269.9997322001000271
  0
LINE
  5
1368D
  8
0
 10
-2.6574735584770042
 20
-2.7587022717895162
 30
0.0
 11
-2.2392906997799491
 21
-2.7587042263720098
 31
0.0
  0
ARC
  5
1368E
  8
0
 10
-1.907109920768588
 20
-4.075208196272551
 30
0.0
 40
1.3083373122455031
 50
68.0285697815615009
 51
87.1836558838448354
  0
ARC
  5
1368F
  8
0
 10
-1.6844007503543561
 20
-3.5169014528423679
 30
0.0
 40
0.7072586572166115
 50
16.635345058385699
 51
67.8379245748440667
  0
ARC
  5
13690
  8
0
 10
-2.718631195514321
 20
-3.8197152938323948
 30
0.0
 40
1.784901853957199
 50
1.6137984025751699
 51
16.4446998516682008
  0
ARC
  5
13691
  8
0
 10
-17.0322942082439717
 20
-4.2229819411431349
 30
0.0
 40
16.1042444656422106
 50
0.9375959587566665
 51
1.6137984025751699
  0
LINE
  5
13692
  8
0
 10
-0.930205931751078
 20
-3.9594616474315032
 30
0.0
 11
-0.9302059317510785
 21
-6.2430797267999969
 31
0.0
  0
ARC
  5
13693
  8
0
 10
11.7908390203851798
 20
-5.718937694217189
 30
0.0
 40
12.7318384196702503
 50
182.3594091094543046
 51
184.4921601824408981
  0
ARC
  5
13694
  8
0
 10
-0.2226689771053307
 20
-6.6400791684104936
 30
0.0
 40
0.6834632913349376
 50
186.3886445762043138
 51
206.4243317276082053
  0
ARC
  5
13695
  8
0
 10
0.0000042272000025
 20
-6.543456277899991
 30
0.0
 40
0.9259561775000049
 50
205.6468165426001065
 51
269.9997384317690035
  0
ARC
  5
13696
  8
0
 10
0.000001751300015
 20
-2.531514959500007
 30
0.0
 40
0.8089439065000162
 50
90.0001240408620333
 51
178.2708212361322921
  0
ARC
  5
13697
  8
0
 10
0.9295205756342417
 20
-4.6520449919252647
 30
0.0
 40
1.742957414251957
 50
184.2810471217289034
 51
201.2565944974953993
  0
ARC
  5
13698
  8
0
 10
-0.0040176973239345
 20
-4.9538129150649262
 30
0.0
 40
0.7656678747152985
 50
205.5538295428326876
 51
270.3006501435182258
  0
ARC
  5
13699
  8
0
 10
-2.1686245118476162
 20
-7.9508769724150801
 30
0.0
 40
5.192656081247792
 50
86.4028593887282739
 51
90.7798474950198369
  0
LINE
  5
1369A
  8
0
 10
-0.8085737803517024
 20
-2.5071048493476691
 30
0.0
 11
-0.8085737803517024
 21
-4.7821547824318884
 31
0.0
  0
ENDBLK
  5
1369E
  8
0
  0
ENDSEC
  0
SECTION
  2
ENTITIES
  0
ATTDEF
  5
1B61C
  8
DEFPOINTS
 10
3415.9523787105172232
 20
159.8340921224632893
 30
0.0
 40
0.001
  1
K-4983T-CM
  3

  2
MODELNUMBER
 70
     0
1001
ACDBATTR
1070
     0
1070
     1
  0
ATTDEF
  5
1B61D
  8
DEFPOINTS
 10
3415.9523787105172232
 20
159.8324254557965958
 30
0.0
 40
0.001
  1
ADAIR
  3

  2
TRADENAME
 70
     0
1001
ACDBATTR
1070
     0
1070
     1
  0
ATTDEF
  5
1B61E
  8
DEFPOINTS
 10
3415.9523787105172232
 20
159.8307587891299875
 30
0.0
 40
0.001
  1
TOILET
  3

  2
PRODUCT
 70
     0
1001
ACDBATTR
1070
     0
1070
     1
  0
LINE
  5
1BBC8
  8
0
 10
3420.9596920205908646
 20
159.8298204075919102
 30
0.0
 11
3410.9442125127920917
 21
159.8298204075919102
 31
0.0
  0
LINE
  5
1BBC9
  8
0
 10
3410.9442125127920917
 20
159.8298204075919102
 30
0.0
 11
3411.7912991339908331
 21
168.6380284979919111
 31
0.0
  0
ARC
  5
1BBCA
  8
0
 10
3411.5282351000669223
 20
168.5585355102647895
 30
0.0
 40
0.2748123378640895
 50
16.8138263921020688
 51
68.1117877799923974
  0
ARC
  5
1BBCB
  8
0
 10
3424.712899736332929
 20
177.478583003001404
 30
0.0
 40
16.7498441848039299
 50
196.113833605897014
 51
202.0024380645373867
  0
ARC
  5
1BBCC
  8
0
 10
3413.9484804630219514
 20
173.1289424803956081
 30
0.0
 40
5.139844401534849
 50
202.0024380645373867
 51
217.5405995453099877
  0
ARC
  5
1BBCD
  8
0
 10
3412.171807258939225
 20
171.7636518965589971
 30
0.0
 40
2.8991779711123908
 50
217.5405995453099877
 51
232.6272011688830901
  0
ARC
  5
1BBCE
  8
0
 10
3413.100438434787975
 20
173.0580064763030919
 30
0.0
 40
4.4917362608920728
 50
233.2354812120055101
 51
250.9003017156099986
  0
LINE
  5
1BBCF
  8
0
 10
3408.6211205696909019
 20
172.8297204036919084
 30
0.0
 11
3423.2827839636920544
 21
172.8297204036919084
 31
0.0
  0
LINE
  5
1BBD0
  8
0
 10
3408.0044378230918483
 20
173.0297204209919073
 30
0.0
 11
3423.8994667102920175
 21
173.0297204209919073
 31
0.0
  0
LINE
  5
1BBD1
  8
0
 10
3408.7269486878271891
 20
172.8297204036919084
 30
0.0
 11
3408.7031492471910497
 21
172.9185437802919125
 31
0.0
  0
ARC
  5
1BBD2
  8
0
 10
3408.5562747757421675
 20
172.87765236099861
 30
0.0
 40
0.1524593435361172
 50
15.5578359701744802
 51
82.7489255885208905
  0
ARC
  5
1BBD3
  8
0
 10
3408.6006718931598698
 20
173.1770268692382047
 30
0.0
 40
0.1502549206939094
 50
176.7895553517086
 51
260.3627763611096952
  0
ARC
  5
1BBD4
  8
0
 10
3428.2178288393388357
 20
170.7475342551946085
 30
0.0
 40
19.9169268369485017
 50
167.6922307076835921
 51
172.9698657680079066
  0
ARC
  5
1BBD5
  8
0
 10
3408.9531570368199027
 20
174.9506485403871068
 30
0.0
 40
0.1990732683391297
 50
89.7860636567359762
 51
167.6922307076835921
  0
LINE
  5
1BBD6
  8
0
 10
3408.9539003534919175
 20
175.1497204209919119
 30
0.0
 11
3422.950003914691024
 21
175.1497204209919119
 31
0.0
  0
LINE
  5
1BBD7
  8
0
 10
3408.1808929144071953
 20
187.1537301230517869
 30
0.0
 11
3423.7230116189762157
 21
187.1537301230517869
 31
0.0
  0
ARC
  5
1BBD8
  8
0
 10
3408.1899637864921715
 20
186.9219322140415045
 30
0.0
 40
0.2319753248557798
 50
92.2409936198630191
 51
126.5417287778256963
  0
ARC
  5
1BBD9
  8
0
 10
3408.167986690556063
 20
186.9515873605903948
 30
0.0
 40
0.1950643446110639
 50
126.5417287778256963
 51
180.7195834802853938
  0
LINE
  5
1BBDA
  8
0
 10
3407.972937729592104
 20
186.949137592191903
 30
0.0
 11
3407.972937729592104
 21
186.1827204209918989
 31
0.0
  0
ARC
  5
1BBDB
  8
0
 10
3408.0429378269668632
 20
186.1827205009774104
 30
0.0
 40
0.0700001234019096
 50
179.9505922114059047
 51
231.0876147228875084
  0
ARC
  5
1BBDC
  8
0
 10
3408.042937698518017
 20
186.1827203418588965
 30
0.0
 40
0.0699999189075538
 50
231.0876147228875084
 51
266.0346998162988825
  0
ARC
  5
1BBDD
  8
0
 10
3408.0429378319090574
 20
186.1827222661860048
 30
0.0
 40
0.0700018478523721
 50
266.0346998162988825
 51
270.0157900405851024
  0
LINE
  5
1BBDE
  8
0
 10
3408.0429571235908952
 20
186.1127204209919057
 30
0.0
 11
3423.8520690278719485
 21
186.1127204210218906
 31
0.0
  0
ARC
  5
1BBDF
  8
0
 10
5004.5321253013489695
 20
119.7651500841206058
 30
0.0
 40
1597.5699477756170381
 50
177.6198041404468029
 51
178.083782584885995
  0
ARC
  5
1BBE0
  8
0
 10
3408.0177004523688993
 20
173.1914623388877033
 30
0.0
 40
0.1622847661980562
 50
182.3515036249079913
 51
265.3123073389526212
  0
ARC
  5
1BBE1
  8
0
 10
3413.5416835635501229
 20
169.3679775376953103
 30
0.0
 40
8.7882893635736874
 50
91.1002839894329668
 51
102.2112554945089045
  0
ARC
  5
1BBE2
  8
0
 10
3413.9960172540781969
 20
169.2262240054517122
 30
0.0
 40
9.0324308911771425
 50
104.8387684888047033
 51
114.665762068894395
  0
ARC
  5
1BBE3
  8
0
 10
3403.1406366088008326
 20
186.9924845676233076
 30
0.0
 40
11.8981163835452595
 50
301.946704139138717
 51
306.5518879260613971
  0
ARC
  5
1BBE4
  8
0
 10
3409.4937493852539774
 20
176.8062384398498068
 30
0.0
 40
0.1069562443457047
 50
122.4953234348381983
 51
164.2195325208404881
  0
LINE
  5
1BBE5
  8
0
 10
3409.3908242404918383
 20
176.8353254262918881
 30
0.0
 11
3409.3139399414922082
 21
176.548211778891897
 31
0.0
  0
ARC
  5
1BBE6
  8
0
 10
3416.9211115635730494
 20
176.5463938816596965
 30
0.0
 40
7.6071718393535708
 50
179.9863060414672873
 51
180.100129156765604
  0
ARC
  5
1BBE7
  8
0
 10
3409.3790165340051317
 20
176.5348950414933995
 30
0.0
 40
0.0650899575669673
 50
181.5805410570721108
 51
253.8952351672008945
  0
ARC
  5
1BBE8
  8
0
 10
3409.6458584925057949
 20
178.0192212418199915
 30
0.0
 40
1.572878877913521
 50
259.5643396381792058
 51
267.7714750363912231
  0
ARC
  5
1BBE9
  8
0
 10
3411.8020807657371734
 20
223.2331724928671974
 30
0.0
 40
46.83815701165517
 50
267.286523115394175
 51
269.1072597653891876
  0
ARC
  5
1BBEA
  8
0
 10
3415.4525119354461822
 20
339.3316941509099252
 30
0.0
 40
162.9898606964362955
 50
268.4600444945539266
 51
269.6675149417154103
  0
ARC
  5
1BBEB
  8
0
 10
3414.5088019184649966
 20
176.5938924219697128
 30
0.0
 40
0.2493236006516262
 50
269.5155309444070895
 51
314.5221257583572196
  0
ARC
  5
1BBEC
  8
0
 10
3415.1869309300191162
 20
175.9333900767589967
 30
0.0
 40
0.6973920412575145
 50
129.7673159265085872
 51
136.1949308186516987
  0
ARC
  5
1BBED
  8
0
 10
3414.8915275251551975
 20
176.2679142945735862
 30
0.0
 40
0.2516393555894179
 50
99.8106977943105846
 51
126.7887344508702938
  0
ARC
  5
1BBEE
  8
0
 10
3414.8926607633889034
 20
176.3545174351432081
 30
0.0
 40
0.1672507339264187
 50
90.3554470177670481
 51
105.2566687906978018
  0
LINE
  5
1BBEF
  8
0
 10
3414.8916231931921175
 20
176.5217649506614066
 30
0.0
 11
3417.4281870326758508
 21
176.5217649506614066
 31
0.0
  0
ARC
  5
1BBF0
  8
0
 10
3411.0604061546760022
 20
176.3580691742147053
 30
0.0
 40
0.044263302335801
 50
41.8580411105901717
 51
74.3952633572205713
  0
ARC
  5
1BBF1
  8
0
 10
3411.0591143451638345
 20
176.3569118063252859
 30
0.0
 40
0.0459977394913694
 50
5.5051881439428323
 51
41.8580411105913726
  0
ARC
  5
1BBF2
  8
0
 10
3410.3255096211419186
 20
176.2862066611681939
 30
0.0
 40
0.7830018837536676
 50
4.268881739087016
 51
5.5051881439428323
  0
ARC
  5
1BBF3
  8
0
 10
3411.1645332091661658
 20
176.3488349168212892
 30
0.0
 40
0.0583558758630055
 50
184.2688817390869929
 51
234.3388037233671923
  0
ARC
  5
1BBF4
  8
0
 10
3411.1670455685439265
 20
176.3523362363488047
 30
0.0
 40
0.0626653059973096
 50
234.3388037233663113
 51
266.3365443815013123
  0
ARC
  5
1BBF5
  8
0
 10
3411.1656034217608067
 20
176.3298120679924068
 30
0.0
 40
0.0400950169541126
 50
266.3365443815013123
 51
270.7428607889066257
  0
ARC
  5
1BBF6
  8
0
 10
3413.0556942778980556
 20
30.5580034198682995
 30
0.0
 40
145.7439666632919
 50
88.861329996194641
 51
90.7428607889065972
  0
ARC
  5
1BBF7
  8
0
 10
3410.9182144464898556
 20
168.3206729094366949
 30
0.0
 40
8.0694914286354873
 50
88.7605789537308851
 51
90.8335054681157033
  0
ARC
  5
1BBF8
  8
0
 10
3411.3246406025209581
 20
140.3846105733290131
 30
0.0
 40
36.0085100418079733
 50
90.8335054681157033
 51
92.7407479279478508
  0
LINE
  5
1BBF9
  8
0
 10
3410.7980295089519132
 20
176.405778444914688
 30
0.0
 11
3410.8008280975409434
 21
176.3893126692420026
 31
0.0
  0
ARC
  5
1BBFA
  8
0
 10
3409.7327526359008516
 20
173.1153253838492958
 30
0.0
 40
3.2392125489574028
 50
92.2987537702631329
 51
96.4685123741249129
  0
ARC
  5
1BBFB
  8
0
 10
3409.3904402248899714
 20
176.1345138854964034
 30
0.0
 40
0.2006805028518051
 50
96.4685123741249129
 51
124.9390156329650949
  0
ARC
  5
1BBFC
  8
0
 10
3409.3680874340589071
 20
176.1868289728951993
 30
0.0
 40
0.1454592857563408
 50
129.5277229656904012
 51
164.6146090695939108
  0
ARC
  5
1BBFD
  8
0
 10
2866.1797726829959174
 20
319.4185118731646753
 30
0.0
 40
561.6097094833924075
 50
345.156418036011587
 51
345.2282490945942754
  0
LINE
  5
1BBFE
  8
0
 10
3409.0478947155911555
 20
175.5447204209918084
 30
0.0
 11
3409.0478947155911555
 21
175.52972042639189
 31
0.0
  0
ARC
  5
1BBFF
  8
0
 10
3409.1029740446711003
 20
175.527675365032394
 30
0.0
 40
0.0551172819344324
 50
177.8736199863384968
 51
264.5910906677697767
  0
LINE
  5
1BC00
  8
0
 10
3409.0977785177519763
 20
175.4728035027725923
 30
0.0
 11
3422.8061260156318895
 21
175.4728035027725923
 31
0.0
  0
ARC
  5
1BC01
  8
0
 10
3409.3253160416998071
 20
175.0403986447267926
 30
0.0
 40
0.4368225443944147
 50
70.8487901459136964
 51
81.8445254332570187
  0
ARC
  5
1BC02
  8
0
 10
3409.3778216330902069
 20
175.2200005208148923
 30
0.0
 40
0.2501091762059305
 50
14.8556157374892397
 51
68.7130381445383449
  0
ARC
  5
1BC03
  8
0
 10
3409.7162836949428311
 20
175.3097776172338911
 30
0.0
 40
0.100057204755272
 50
194.8556157374891882
 51
269.9763646001576944
  0
LINE
  5
1BC04
  8
0
 10
3409.7162424197908877
 20
175.2097204209919141
 30
0.0
 11
3411.0918847360449035
 21
175.2091529471167917
 31
0.0
  0
ARC
  5
1BC05
  8
0
 10
3411.0919256533861699
 20
175.3083427536454053
 30
0.0
 40
0.0991898149681394
 50
269.9763646001576944
 51
325.8982351659158212
  0
ARC
  5
1BC06
  8
0
 10
3411.3619556212211137
 20
175.1255065904871913
 30
0.0
 40
0.2269163733930914
 50
125.0597869963636981
 51
145.8982351659157928
  0
ARC
  5
1BC07
  8
0
 10
3409.6075245830270433
 20
172.0924691871944958
 30
0.0
 40
3.6053008688751631
 50
63.2260971584736708
 51
69.6525294886217523
  0
ARC
  5
1BC08
  8
0
 10
3409.6101943774929168
 20
172.0977604690901899
 30
0.0
 40
3.5993741947157161
 50
57.9855096618014727
 51
63.2260971584736708
  0
ARC
  5
1BC09
  8
0
 10
3411.6227650255859771
 20
175.346394343450811
 30
0.0
 40
0.1309998109605667
 50
53.8567598812867416
 51
74.7869620851816705
  0
ARC
  5
1BC0A
  8
0
 10
3411.6485339981400102
 20
175.3903308478271867
 30
0.0
 40
0.0804824434565399
 50
3.6742803524641938
 51
50.220470813930433
  0
ARC
  5
1BC0B
  8
0
 10
3526.8507326590010962
 20
185.357500382799202
 30
0.0
 40
115.5521064939483011
 50
184.945739971699993
 51
185.0180867583445945
  0
ARC
  5
1BC0C
  8
0
 10
3411.85426928420884
 20
175.2625599136821108
 30
0.0
 40
0.1134303170016165
 50
186.289546377578688
 51
264.1495277269547728
  0
LINE
  5
1BC0D
  8
0
 10
3413.1544299665961262
 20
175.4728035027725923
 30
0.0
 11
3413.1349488469909375
 21
175.2501332867919075
 31
0.0
  0
ARC
  5
1BC0E
  8
0
 10
3413.0251589894651261
 20
175.2598203935307026
 30
0.0
 40
0.1102163910345616
 50
272.6336845989271751
 51
354.9576699135382114
  0
LINE
  5
1BC0F
  8
0
 10
3409.898200999446999
 20
175.2094886532343025
 30
0.0
 11
3409.8267053909758033
 21
175.1497285873163889
 31
0.0
  0
ARC
  5
1BC10
  8
0
 10
3410.5927535637360961
 20
175.296071422071492
 30
0.0
 40
0.1473704516627387
 50
276.7432022676430847
 51
323.9387724788912237
  0
ARC
  5
1BC11
  8
0
 10
3418.3107364767688523
 20
112.6044051700681052
 30
0.0
 40
56.6046786776359809
 50
92.3882747450501967
 51
96.7774045573034414
  0
LINE
  5
1BC12
  8
0
 10
3420.9596920205908646
 20
159.8298204075919102
 30
0.0
 11
3420.1126053993921232
 21
168.6380284979919111
 31
0.0
  0
ARC
  5
1BC13
  8
0
 10
3420.375669433316034
 20
168.5585355102647895
 30
0.0
 40
0.2748123378640895
 50
111.8882122200076026
 51
163.1861736078978993
  0
ARC
  5
1BC14
  8
0
 10
3407.1910047970500273
 20
177.478583003001404
 30
0.0
 40
16.7498441848039299
 50
337.997561935462727
 51
343.8861663941028723
  0
ARC
  5
1BC15
  8
0
 10
3417.9554240703610049
 20
173.1289424803956081
 30
0.0
 40
5.139844401534849
 50
322.4594004546898987
 51
337.997561935462727
  0
ARC
  5
1BC16
  8
0
 10
3419.732097274444186
 20
171.7636518965589971
 30
0.0
 40
2.8991779711123908
 50
307.3727988311169952
 51
322.4594004546898987
  0
ARC
  5
1BC17
  8
0
 10
3418.8034660985949813
 20
173.0580064763030919
 30
0.0
 40
4.4917362608920728
 50
289.0996982843893761
 51
306.7645187879945183
  0
LINE
  5
1BC18
  8
0
 10
3423.1769558455562219
 20
172.8297204036919084
 30
0.0
 11
3423.2007564932919195
 21
172.9185436271918945
 31
0.0
  0
ARC
  5
1BC19
  8
0
 10
3423.3476297576407887
 20
172.87765236099861
 30
0.0
 40
0.1524593435361172
 50
97.2510744114791237
 51
164.4421640298255056
  0
ARC
  5
1BC1A
  8
0
 10
3423.3032326402230865
 20
173.1770268692382047
 30
0.0
 40
0.1502549206939094
 50
279.6372236388903048
 51
3.2104446482913889
  0
ARC
  5
1BC1B
  8
0
 10
3403.6783162656579407
 20
170.7460276109057986
 30
0.0
 40
19.9248290893522793
 50
7.0324155614144006
 51
12.3072459180252292
  0
ARC
  5
1BC1C
  8
0
 10
3423.7139407468907848
 20
186.9219322140415045
 30
0.0
 40
0.2319753248557798
 50
53.4582712221742398
 51
87.7590063801369951
  0
ARC
  5
1BC1D
  8
0
 10
3423.7359178428268933
 20
186.9515873605903948
 30
0.0
 40
0.1950643446110639
 50
359.2804165197129009
 51
53.4582712221742398
  0
LINE
  5
1BC1E
  8
0
 10
3423.9309668037908523
 20
186.949137592191903
 30
0.0
 11
3423.9309668037908523
 21
186.1827204209918989
 31
0.0
  0
ARC
  5
1BC1F
  8
0
 10
3423.8609667064160931
 20
186.1827205009774104
 30
0.0
 40
0.0700001234019096
 50
308.9123852771124916
 51
0.0494077885941176
  0
ARC
  5
1BC20
  8
0
 10
3423.8609668348649393
 20
186.1827203418588965
 30
0.0
 40
0.0699999189075538
 50
273.9653001837011175
 51
308.9123852771124916
  0
ARC
  5
1BC21
  8
0
 10
3423.8609667014738989
 20
186.1827222661860048
 30
0.0
 40
0.0700018478523721
 50
269.9842099594148976
 51
273.9653001837011175
  0
ARC
  5
1BC22
  8
0
 10
1827.371779230626089
 20
119.7651500840680967
 30
0.0
 40
1597.5699477770269823
 50
1.9162174151139491
 51
2.3801958595531989
  0
ARC
  5
1BC23
  8
0
 10
3423.8890659687431253
 20
173.1887148263824088
 30
0.0
 40
0.1593342284953838
 50
273.7427150096145851
 51
358.5934740265224718
  0
ARC
  5
1BC24
  8
0
 10
3416.8218427084220821
 20
339.3380274470274003
 30
0.0
 40
162.9898606964362955
 50
270.3324850582844761
 51
271.5399555054460734
  0
ARC
  5
1BC25
  8
0
 10
3417.7655527254028129
 20
176.6002257180871879
 30
0.0
 40
0.2493236006516262
 50
225.4778742416426951
 51
270.4844690555927968
  0
ARC
  5
1BC26
  8
0
 10
3417.0874237138477838
 20
175.9397233728765002
 30
0.0
 40
0.6973920412575145
 50
43.8050691813482587
 51
50.2326840734913702
  0
ARC
  5
1BC27
  8
0
 10
3417.3828271187121572
 20
176.2742475906910045
 30
0.0
 40
0.2516393555894179
 50
53.2112655491296778
 51
79.6152335951755248
  0
ARC
  5
1BC28
  8
0
 10
3419.2801761003761385
 20
7.1261841163351392
 30
0.0
 40
169.1797463258683933
 50
89.3808839806382025
 51
91.1272358862817953
  0
ARC
  5
1BC29
  8
0
 10
3413.593168056614104
 20
112.6044051700681052
 30
0.0
 40
56.6046786776359809
 50
83.2225954426965728
 51
87.6117252549498176
  0
ARC
  5
1BC2A
  8
0
 10
3408.9958592820921695
 20
184.9561639583918975
 30
0.0
 40
0.0199999999999996
 50
92.9963834651016867
 51
180.0000000000098055
  0
ARC
  5
1BC2B
  8
0
 10
3357.1509884623328617
 20
1175.4114170863711024
 30
0.0
 40
991.7912214928433059
 50
272.9963834651015873
 51
273.008453101910618
  0
LINE
  5
1BC2C
  8
0
 10
3409.2034527183909631
 20
184.9870797464919008
 30
0.0
 11
3410.1389141224440209
 21
184.9870997476919001
 31
0.0
  0
ARC
  5
1BC2D
  8
0
 10
3410.1221032505418407
 20
185.0061397499669908
 30
0.0
 40
0.0253993524000321
 50
311.4420519354835051
 51
316.9902389339025035
  0
ARC
  5
1BC2E
  8
0
 10
3410.0937103785918225
 20
185.0326255761796972
 30
0.0
 40
0.0642278750058963
 50
316.9902389339013098
 51
352.1555428885104106
  0
ARC
  5
1BC2F
  8
0
 10
3410.7143828594698789
 20
184.961042729465504
 30
0.0
 40
0.5605762961965122
 50
96.5009562890994346
 51
173.5660676756623104
  0
ARC
  5
1BC30
  8
0
 10
3410.9677021237430381
 20
180.710071939320386
 30
0.0
 40
4.8183675721092198
 50
90.2001572639878475
 51
93.7696779391125546
  0
ARC
  5
1BC31
  8
0
 10
3410.8918184917720282
 20
185.0166908035969016
 30
0.0
 40
0.5151152189115319
 50
33.3999945706880368
 51
83.4173227821749492
  0
ARC
  5
1BC32
  8
0
 10
3410.7341535747809758
 20
184.9060980480317085
 30
0.0
 40
0.7076422792589602
 50
322.8031395063198943
 51
33.848285415069661
  0
ARC
  5
1BC33
  8
0
 10
3410.8941792427390283
 20
184.7876418024380882
 30
0.0
 40
0.5085639743969858
 50
277.1073593447998746
 51
322.5342681129047264
  0
ARC
  5
1BC34
  8
0
 10
3410.9217822303780849
 20
187.5993962087383977
 30
0.0
 40
3.3165986889461871
 50
265.6850786438794785
 51
270.6101997627446281
  0
LINE
  5
1BC35
  8
0
 10
3408.9758592820921876
 20
184.9561639583918975
 30
0.0
 11
3408.9758592820921876
 21
184.8546066922918953
 31
0.0
  0
ARC
  5
1BC36
  8
0
 10
3408.9958592820908052
 20
184.8546066922909858
 30
0.0
 40
0.0199999999990848
 50
179.9999999975117078
 51
267.0011431616861159
  0
LINE
  5
1BC37
  8
0
 10
3408.9948129614581376
 20
184.8346340807167962
 30
0.0
 11
3409.2034527183909631
 21
184.8236909042919081
 31
0.0
  0
LINE
  5
1BC38
  8
0
 10
3409.2034527183909631
 20
184.8236909042919081
 30
0.0
 11
3410.1389110228860773
 21
184.8236709029918927
 31
0.0
  0
ARC
  5
1BC39
  8
0
 10
3410.1005961985779322
 20
184.7834279888828064
 30
0.0
 40
0.055565437978411
 50
36.405200332578687
 51
46.4059624952167127
  0
ARC
  5
1BC3A
  8
0
 10
3410.0931879248350924
 20
184.7779651004717039
 30
0.0
 40
0.0647700927599597
 50
7.9390915502441706
 51
36.4052003325799873
  0
ARC
  5
1BC3B
  8
0
 10
3410.7603711854208086
 20
184.8743175092828892
 30
0.0
 40
0.6093355604065379
 50
188.2472622954016117
 51
238.6347776370679128
  0
ARC
  5
1BC3C
  8
0
 10
3410.6751233239569956
 20
184.7579657689545911
 30
0.0
 40
0.465776476819135
 50
240.1394086128063066
 51
269.6461271357946998
  0
ARC
  5
1BC3D
  8
0
 10
3410.6693085542951849
 20
185.0470467154372045
 30
0.0
 40
0.4715207757736762
 50
51.6823236397596517
 51
91.5109614419965709
  0
ARC
  5
1BC3E
  8
0
 10
3410.593928920127837
 20
184.9516600611420927
 30
0.0
 40
0.593096690595361
 50
20.3585413011067082
 51
51.6823236397596517
  0
ARC
  5
1BC3F
  8
0
 10
3410.4577703021818706
 20
184.9011352444547072
 30
0.0
 40
0.7383272877242143
 50
356.3289280798730942
 51
20.3585413011067082
  0
ARC
  5
1BC40
  8
0
 10
3410.5232717436338135
 20
184.8969326644989906
 30
0.0
 40
0.6726911657286835
 50
328.7359159253869052
 51
356.3289280798730942
  0
ARC
  5
1BC41
  8
0
 10
3410.6082772106801713
 20
184.8453214868449948
 30
0.0
 40
0.57324448108514
 50
305.979096395596514
 51
328.7359159253869052
  0
ARC
  5
1BC42
  8
0
 10
3410.6691226256298251
 20
184.7615106731277024
 30
0.0
 40
0.4696760640052226
 50
284.9264452119321049
 51
305.979096395596514
  0
ARC
  5
1BC43
  8
0
 10
3410.6716347950718955
 20
184.752086753042903
 30
0.0
 40
0.4599230508775906
 50
270.1311925398409812
 51
284.9264452119321049
  0
LINE
  5
1BC44
  8
0
 62
     1
 10
3407.798741486806648
 20
159.8298204075919102
 30
0.0
 11
3425.1181548439849394
 21
160.6421215252413219
 31
0.0
  0
LINE
  5
1BC45
  8
0
 10
3413.3729273331291552
 20
178.1546464897269004
 30
0.0
 11
3418.5309772002538011
 21
178.1546464897269004
 31
0.0
  0
LINE
  5
1BC46
  8
0
 10
3422.5899531928339456
 20
176.548212162729186
 30
0.0
 11
3422.5899531928339456
 21
176.5330997207213954
 31
0.0
  0
ARC
  5
1BC47
  8
0
 10
3422.9507474965630536
 20
174.9506485403871068
 30
0.0
 40
0.1990732683391297
 50
12.3077692923164399
 51
90.213936343264038
  0
ARC
  5
1BC48
  8
0
 10
3418.3622209698341976
 20
169.3679775376953103
 30
0.0
 40
8.7882893635736874
 50
77.7887445054910529
 51
88.899716010567019
  0
ARC
  5
1BC49
  8
0
 10
3417.9078872793061237
 20
169.2262240054517122
 30
0.0
 40
9.0324308911771425
 50
65.3342379311055339
 51
75.1612315111952967
  0
ARC
  5
1BC4A
  8
0
 10
3428.7632679245821237
 20
186.9924845676233076
 30
0.0
 40
11.8981163835452595
 50
233.4481120739384892
 51
238.0532958608613114
  0
ARC
  5
1BC4B
  8
0
 10
3422.4101551481298884
 20
176.8062384398498068
 30
0.0
 40
0.1069562443457047
 50
15.7804674791595207
 51
57.5046765651617733
  0
LINE
  5
1BC4C
  8
0
 10
3422.5130802928920275
 20
176.8353254262918881
 30
0.0
 11
3422.5899531928339456
 21
176.548212162729186
 31
0.0
  0
ARC
  5
1BC4D
  8
0
 10
3422.5248879993791888
 20
176.5348950414933995
 30
0.0
 40
0.0650899575669673
 50
286.1047648327991055
 51
358.4194589429279176
  0
ARC
  5
1BC4E
  8
0
 10
3422.2580460408771614
 20
178.0192212418199915
 30
0.0
 40
1.572878877913521
 50
272.2285249636087769
 51
280.4356603618207942
  0
ARC
  5
1BC4F
  8
0
 10
3420.1018237676471472
 20
223.2331724928671974
 30
0.0
 40
46.83815701165517
 50
270.8927402346108124
 51
272.713476884605825
  0
ARC
  5
1BC50
  8
0
 10
3420.8434983787069541
 20
176.3580691742147053
 30
0.0
 40
0.044263302335801
 50
105.6047366427794003
 51
138.1419588894098069
  0
ARC
  5
1BC51
  8
0
 10
3420.8447901882191218
 20
176.3569118063252859
 30
0.0
 40
0.0459977394913694
 50
138.1419588894086132
 51
174.494811856057197
  0
ARC
  5
1BC52
  8
0
 10
3421.5783949122419472
 20
176.2862066611681939
 30
0.0
 40
0.7830018837536676
 50
174.494811856057197
 51
175.7311182609130071
  0
ARC
  5
1BC53
  8
0
 10
3420.7393713242181548
 20
176.3488349168212892
 30
0.0
 40
0.0583558758630055
 50
305.6611962766327792
 51
355.7311182609129787
  0
ARC
  5
1BC54
  8
0
 10
3420.7368589648390298
 20
176.3523362363488047
 30
0.0
 40
0.0626653059973096
 50
273.6634556184986877
 51
305.6611962766336887
  0
ARC
  5
1BC55
  8
0
 10
3420.7383011116230591
 20
176.3298120679924068
 30
0.0
 40
0.0400950169541126
 50
269.2571392110933743
 51
273.6634556184986877
  0
ARC
  5
1BC56
  8
0
 10
3420.9856900868940102
 20
168.3206729094366949
 30
0.0
 40
8.0694914286354873
 50
89.1664945318842967
 51
91.2394210462691149
  0
ARC
  5
1BC57
  8
0
 10
3420.5792639308629077
 20
140.3846105733290131
 30
0.0
 40
36.0085100418079733
 50
87.259252072052135
 51
89.1664945318842967
  0
LINE
  5
1BC58
  8
0
 10
3421.1058750244310431
 20
176.405778444914688
 30
0.0
 11
3421.1030764358420129
 21
176.3893126692420026
 31
0.0
  0
ARC
  5
1BC59
  8
0
 10
3422.1711518974821047
 20
173.1153253838492958
 30
0.0
 40
3.2392125489574028
 50
83.5314876258750729
 51
87.7012462297368671
  0
ARC
  5
1BC5A
  8
0
 10
3422.5134643084938944
 20
176.1345138854964034
 30
0.0
 40
0.2006805028518051
 50
55.0609843670349122
 51
83.5314876258750729
  0
ARC
  5
1BC5B
  8
0
 10
3422.5358170993240492
 20
176.1868289728951993
 30
0.0
 40
0.1454592857563408
 50
15.3853909304060394
 51
50.4722770343095775
  0
ARC
  5
1BC5C
  8
0
 10
3965.7241318503870389
 20
319.4185118731646753
 30
0.0
 40
561.6097094833924075
 50
194.7717509054056961
 51
194.843581963988413
  0
LINE
  5
1BC5D
  8
0
 10
3422.8560098177918007
 20
175.5447204209918084
 30
0.0
 11
3422.8560098177918007
 21
175.52972042639189
 31
0.0
  0
ARC
  5
1BC5E
  8
0
 10
3422.800930488711856
 20
175.527675365032394
 30
0.0
 40
0.0551172819344324
 50
275.4089093322302233
 51
2.126380013661513
  0
ARC
  5
1BC5F
  8
0
 10
3422.5785884916831492
 20
175.0403986447267926
 30
0.0
 40
0.4368225443944147
 50
98.1554745667429955
 51
109.1512098540863036
  0
ARC
  5
1BC60
  8
0
 10
3422.5260829002941136
 20
175.2200005208148923
 30
0.0
 40
0.2501091762059305
 50
111.2869618554615982
 51
165.1443842625106981
  0
ARC
  5
1BC61
  8
0
 10
3422.1876208384401252
 20
175.3097776172338911
 30
0.0
 40
0.100057204755272
 50
270.0236353998421919
 51
345.1443842625108118
  0
LINE
  5
1BC62
  8
0
 10
3422.1876621135920686
 20
175.2097204209919141
 30
0.0
 11
3420.8120197973380527
 21
175.2091529471167917
 31
0.0
  0
ARC
  5
1BC63
  8
0
 10
3420.8119788799981507
 20
175.3083427536454053
 30
0.0
 40
0.0991898149681394
 50
214.1017648340842072
 51
270.0236353998421919
  0
ARC
  5
1BC64
  8
0
 10
3420.5419489121632068
 20
175.1255065904871913
 30
0.0
 40
0.2269163733930914
 50
34.1017648340841575
 51
54.9402130036363019
  0
ARC
  5
1BC65
  8
0
 10
3422.2963799503568225
 20
172.0924691871944958
 30
0.0
 40
3.6053008688751631
 50
110.3474705113782051
 51
116.7739028415262936
  0
ARC
  5
1BC66
  8
0
 10
3422.2937101558900395
 20
172.0977604690901899
 30
0.0
 40
3.5993741947157161
 50
116.7739028415262936
 51
122.0144903381984989
  0
ARC
  5
1BC67
  8
0
 10
3420.2811395077969792
 20
175.346394343450811
 30
0.0
 40
0.1309998109605667
 50
105.213037914818301
 51
126.1432401187131944
  0
ARC
  5
1BC68
  8
0
 10
3420.2553705352429461
 20
175.3903308478271867
 30
0.0
 40
0.0804824434565399
 50
129.7795291860695954
 51
176.3257196475358057
  0
ARC
  5
1BC69
  8
0
 10
3305.0531718743832243
 20
185.357500382799202
 30
0.0
 40
115.5521064939483011
 50
354.9819132416553771
 51
355.0542600282998933
  0
ARC
  5
1BC6A
  8
0
 10
3420.0496352491750258
 20
175.2625599136821108
 30
0.0
 40
0.1134303170016165
 50
275.8504722730452272
 51
353.710453622421312
  0
LINE
  5
1BC6B
  8
0
 10
3418.7494745667868301
 20
175.4728035027725923
 30
0.0
 11
3418.7689556863920188
 21
175.2501332867919075
 31
0.0
  0
ARC
  5
1BC6C
  8
0
 10
3418.8787455439178302
 20
175.2598203935307026
 30
0.0
 40
0.1102163910345616
 50
185.0423300864617033
 51
267.3663154010728249
  0
LINE
  5
1BC6D
  8
0
 10
3422.0057035339359572
 20
175.2094886532343025
 30
0.0
 11
3422.077199142407153
 21
175.1497285873163889
 31
0.0
  0
ARC
  5
1BC6E
  8
0
 10
3421.3111509696482244
 20
175.296071422071492
 30
0.0
 40
0.1473704516627387
 50
216.0612275211088047
 51
263.2567977323569153
  0
ENDSEC
  0
EOF
