  0
SECTION
  2
HEADER
  9
$ACADVER
  1
AC1009
  9
$INSBASE
 10
546.5152620628864497
 20
92.0283712980909741
 30
0.0
  9
$EXTMIN
 10
539.0338541939881907
 20
80.841527894263308
 30
-0.0000000349181948
  9
$EXTMAX
 10
553.9969186438282804
 20
92.0416247808055346
 30
0.0000000814935746
  9
$LIMMIN
 10
0.0
 20
0.0
  9
$LIMMAX
 10
11.6929133858000007
 20
8.2677165353999982
  9
$ORTHOMODE
 70
     0
  9
$REGENMODE
 70
     1
  9
$FILLMODE
 70
     1
  9
$QTEXTMODE
 70
     0
  9
$MIRRTEXT
 70
     0
  9
$DRAGMODE
 70
     2
  9
$LTSCALE
 40
0.6431102362
  9
$OSMODE
 70
  4095
  9
$ATTMODE
 70
     1
  9
$TEXTSIZE
 40
0.2
  9
$TRACEWID
 40
0.05
  9
$TEXTSTYLE
  7
STANDARD
  9
$CLAYER
  8
0
  9
$CELTYPE
  6
BYLAYER
  9
$CECOLOR
 62
   256
  9
$DIMSCALE
 40
1.0
  9
$DIMASZ
 40
0.1875
  9
$DIMEXO
 40
0.0625
  9
$DIMDLI
 40
0.4443307087
  9
$DIMRND
 40
0.0
  9
$DIMDLE
 40
0.0
  9
$DIMEXE
 40
0.125
  9
$DIMTP
 40
0.01
  9
$DIMTM
 40
0.01
  9
$DIMTXT
 40
1.0
  9
$DIMCEN
 40
0.1052362205
  9
$DIMTSZ
 40
0.0
  9
$DIMTOL
 70
     1
  9
$DIMLIM
 70
     0
  9
$DIMTIH
 70
     0
  9
$DIMTOH
 70
     1
  9
$DIMSE1
 70
     0
  9
$DIMSE2
 70
     0
  9
$DIMTAD
 70
     0
  9
$DIMZIN
 70
     0
  9
$DIMBLK
  1

  9
$DIMASO
 70
     1
  9
$DIMSHO
 70
     1
  9
$DIMPOST
  1
\X
  9
$DIMAPOST
  1

  9
$DIMALT
 70
     1
  9
$DIMALTD
 70
     2
  9
$DIMALTF
 40
25.3999999999999986
  9
$DIMLFAC
 40
1.0
  9
$DIMTOFL
 70
     0
  9
$DIMTVP
 40
0.0
  9
$DIMTIX
 70
     0
  9
$DIMSOXD
 70
     0
  9
$DIMSAH
 70
     0
  9
$DIMBLK1
  1

  9
$DIMBLK2
  1

  9
$DIMSTYLE
  2
STANDARD
  9
$DIMCLRD
 70
     0
  9
$DIMCLRE
 70
     0
  9
$DIMCLRT
 70
     0
  9
$DIMTFAC
 40
1.0
  9
$DIMGAP
 40
0.09
  9
$LUNITS
 70
     2
  9
$LUPREC
 70
     4
  9
$SKETCHINC
 40
0.1
  9
$FILLETRAD
 40
0.0
  9
$AUNITS
 70
     0
  9
$AUPREC
 70
     0
  9
$MENU
  1
.
  9
$ELEVATION
 40
0.0
  9
$PELEVATION
 40
0.0
  9
$THICKNESS
 40
0.0
  9
$LIMCHECK
 70
     0
  9
$BLIPMODE
 70
     0
  9
$CHAMFERA
 40
0.0
  9
$CHAMFERB
 40
0.0
  9
$SKPOLY
 70
     0
  9
$TDCREATE
 40
2458171.8957638889551163
  9
$TDUPDATE
 40
2459046.1344907409511507
  9
$TDINDWG
 40
0.3126164583
  9
$TDUSRTIMER
 40
0.3126164583
  9
$USRTIMER
 70
     1
  9
$ANGBASE
 50
0.0
  9
$ANGDIR
 70
     0
  9
$PDMODE
 70
     0
  9
$PDSIZE
 40
0.3125
  9
$PLINEWID
 40
0.0
  9
$COORDS
 70
     1
  9
$SPLFRAME
 70
     0
  9
$SPLINETYPE
 70
     6
  9
$SPLINESEGS
 70
     8
  9
$ATTDIA
 70
     1
  9
$ATTREQ
 70
     1
  9
$HANDLING
 70
     1
  9
$HANDSEED
  5
89E5
  9
$SURFTAB1
 70
     6
  9
$SURFTAB2
 70
     6
  9
$SURFTYPE
 70
     6
  9
$SURFU
 70
     6
  9
$SURFV
 70
     6
  9
$UCSNAME
  2

  9
$UCSORG
 10
0.0
 20
0.0
 30
0.0
  9
$UCSXDIR
 10
1.0
 20
0.0
 30
0.0
  9
$UCSYDIR
 10
0.0
 20
1.0
 30
0.0
  9
$PUCSNAME
  2

  9
$PUCSORG
 10
0.0
 20
0.0
 30
0.0
  9
$PUCSXDIR
 10
1.0
 20
0.0
 30
0.0
  9
$PUCSYDIR
 10
0.0
 20
1.0
 30
0.0
  9
$USERI1
 70
     0
  9
$USERI2
 70
     0
  9
$USERI3
 70
     0
  9
$USERI4
 70
     0
  9
$USERI5
 70
     0
  9
$USERR1
 40
0.0
  9
$USERR2
 40
0.0
  9
$USERR3
 40
0.0
  9
$USERR4
 40
0.0
  9
$USERR5
 40
0.0
  9
$WORLDVIEW
 70
     1
  9
$SHADEDGE
 70
     3
  9
$SHADEDIF
 70
    70
  9
$TILEMODE
 70
     1
  9
$MAXACTVP
 70
    64
  9
$PLIMCHECK
 70
     0
  9
$PEXTMIN
 10
1.0000000000000000E+20
 20
1.0000000000000000E+20
 30
1.0000000000000000E+20
  9
$PEXTMAX
 10
-1.0000000000000000E+20
 20
-1.0000000000000000E+20
 30
-1.0000000000000000E+20
  9
$PLIMMIN
 10
0.0
 20
0.0
  9
$PLIMMAX
 10
12.0
 20
9.0
  9
$UNITMODE
 70
     0
  9
$VISRETAIN
 70
     1
  9
$PLINEGEN
 70
     0
  9
$PSLTSCALE
 70
     1
  0
ENDSEC
  0
SECTION
  2
TABLES
  0
TABLE
  2
VPORT
 70
     1
  0
VPORT
  2
*ACTIVE
 70
     0
 10
0.0
 20
0.0
 11
1.0
 21
1.0
 12
79.7731847110782155
 22
-2.6915707823953592
 13
0.0
 23
0.0
 14
1.0
 24
1.0
 15
0.0
 25
0.0
 16
0.0
 26
0.0
 36
24.1179433675886514
 17
466.74220170783002
 27
89.133147119929788
 37
0.0
 40
11.3375213882175707
 41
2.7561475409836058
 42
50.0
 43
0.0
 44
0.0
 50
0.0
 51
0.0
 71
     0
 72
   100
 73
     1
 74
     1
 75
     0
 76
     0
 77
     0
 78
     0
  0
ENDTAB
  0
TABLE
  2
LTYPE
 70
     2
  0
LTYPE
  2
CONTINUOUS
 70
     0
  3
Solid line
 72
    65
 73
     0
 40
0.0
  0
LTYPE
  2
PHANTOM2
 70
     0
  3
___ _ _ ___ _ _ ___ _ _ ___ _ _
 72
    65
 73
     6
 40
1.25
 49
0.625
 49
-0.125
 49
0.125
 49
-0.125
 49
0.125
 49
-0.125
  0
ENDTAB
  0
TABLE
  2
LAYER
 70
     2
  0
LAYER
  2
0
 70
     0
 62
   255
  6
CONTINUOUS
  0
LAYER
  2
DEFPOINTS
 70
     0
 62
     7
  6
CONTINUOUS
  0
ENDTAB
  0
TABLE
  2
STYLE
 70
     1
  0
STYLE
  2
STANDARD
 70
     0
 40
0.0
 41
0.8
 50
0.0
 71
     0
 42
0.2
  3
txt
  4

  0
ENDTAB
  0
TABLE
  2
VIEW
 70
     0
  0
ENDTAB
  0
TABLE
  2
UCS
 70
     0
  0
ENDTAB
  0
TABLE
  2
APPID
 70
    10
  0
APPID
  2
ACAD
 70
     0
  0
APPID
  2
ACAD_MLEADERVER
 70
     0
  0
APPID
  2
ACAD_EXEMPT_FROM_CAD_STANDARDS
 70
     0
  0
APPID
  2
ACAD_DSTYLE_DIMJAG
 70
     0
  0
APPID
  2
ACAD_DSTYLE_DIMTALN
 70
     0
  0
APPID
  2
ACAD_NAV_VCDISPLAY
 70
     0
  0
APPID
  2
ACAECLAYERSTANDARD
 70
     0
  0
APPID
  2
ACCMTRANSPARENCY
 70
     0
  0
APPID
  2
DCO15
 70
     0
  0
APPID
  2
ACDBATTR
 70
     0
  0
ENDTAB
  0
TABLE
  2
DIMSTYLE
 70
     1
  0
DIMSTYLE
  2
STANDARD
 70
     0
  3

  4

  5

  6

  7

 40
1.0
 41
0.1875
 42
0.0625
 43
0.38
 44
0.125
 45
0.0
 46
0.0
 47
0.01
 48
0.01
140
0.15625
141
0.09
142
0.0
143
25.3999999999999986
144
1.0
145
0.0
146
1.0
147
0.09
 71
     1
 72
     0
 73
     1
 74
     1
 75
     0
 76
     0
 77
     0
 78
     4
170
     0
171
     2
172
     0
173
     0
174
     0
175
     0
176
     0
177
     0
178
     0
  0
ENDTAB
  0
ENDSEC
  0
SECTION
  2
BLOCKS
  0
BLOCK
  8
0
  2
$MODEL_SPACE
 70
     0
 10
0.0
 20
0.0
 30
0.0
  3
$MODEL_SPACE
  1

  0
ENDBLK
  5
21
  8
0
  0
BLOCK
 67
     1
  8
0
  2
$PAPER_SPACE
 70
     0
 10
0.0
 20
0.0
 30
0.0
  3
$PAPER_SPACE
  1

  0
ENDBLK
  5
1D
 67
     1
  8
0
  0
ENDSEC
  0
SECTION
  2
ENTITIES
  0
ATTDEF
  5
829
  8
DEFPOINTS
 10
546.5110345864859482
 20
92.0347845135015916
 30
0.0
 40
0.001
  1
K-4978IN-ER
  3

  2
MODELNUMBER
 70
     0
1001
ACDBATTR
1070
     0
1070
     1
  0
ATTDEF
  5
82A
  8
DEFPOINTS
 10
546.5110345864859482
 20
92.0331178468349265
 30
0.0
 40
0.001
  1
BARDON
  3

  2
TRADENAME
 70
     0
1001
ACDBATTR
1070
     0
1070
     1
  0
ATTDEF
  5
82B
  8
DEFPOINTS
 10
546.5110345864859482
 20
92.0314511801682471
 30
0.0
 40
0.001
  1
URINAL
  3

  2
PRODUCT
 70
     0
1001
ACDBATTR
1070
     0
1070
     1
  0
LINE
  5
8844
  8
0
  6
CONTINUOUS
 10
546.0808437991864821
 20
90.2391357884909553
 30
0.0
 11
545.7616121076864601
 21
89.6862102795909664
 31
0.0
  0
LINE
  5
8845
  8
0
  6
CONTINUOUS
 10
545.7616121077863909
 20
89.5673827101909552
 30
0.0
 11
546.0869832384864822
 21
89.0038233804909567
 31
0.0
  0
LINE
  5
8846
  8
0
  6
CONTINUOUS
 10
546.1898909321865858
 20
88.9444095957909866
 30
0.0
 11
546.8405533112924104
 21
88.9444095957909582
 31
0.0
  0
LINE
  5
8847
  8
0
  6
CONTINUOUS
 10
546.8466927499302983
 20
90.298549573190968
 30
0.0
 11
546.1837514928864721
 21
90.298549573190968
 31
0.0
  0
ARC
  5
884A
  8
0
  6
CONTINUOUS
 10
546.1837914345925356
 20
90.1796528228488086
 30
0.0
 40
0.1188967570510782
 50
90.0192477177553343
 51
149.9807523161776999
  0
ARC
  5
884B
  8
0
  6
CONTINUOUS
 10
546.1899308734282386
 20
89.063306345329039
 30
0.0
 40
0.1188967562468426
 50
210.0192474602430082
 51
269.9807525058365059
  0
ARC
  5
884C
  8
0
  6
CONTINUOUS
 10
545.8645996835026608
 20
89.6267964949776257
 30
0.0
 40
0.1188967559464598
 50
150.0192474249629129
 51
209.9807526714714925
  0
CIRCLE
  5
884D
  8
0
  6
CONTINUOUS
 10
546.5152620628864497
 20
89.6267964948909537
 30
0.0
 40
0.5145
  0
CIRCLE
  5
884E
  8
0
  6
CONTINUOUS
 10
546.5152620628864497
 20
89.6267964948909537
 30
0.0
 40
0.462
  0
CIRCLE
  5
884F
  8
0
  6
CONTINUOUS
 10
546.5152620628864497
 20
89.6267964948909537
 30
0.0
 40
0.4050000000000001
  0
ARC
  5
8850
  8
0
  6
CONTINUOUS
 10
546.5152620628864497
 20
90.0067964948909633
 30
0.0
 40
0.03399795
 50
189.3100409045408128
 51
350.6844441020596719
  0
ARC
  5
8851
  8
0
  6
CONTINUOUS
 10
546.5152620628864497
 20
90.0067964948909633
 30
0.0
 40
0.0043655287
 50
189.2949935637383874
 51
350.701753463137095
  0
ARC
  5
8853
  8
0
 10
546.647024256957252
 20
83.3821170279950934
 30
0.0
 40
2.5401613885781691
 50
222.3642127659045968
 51
267.0266427767809887
  0
ARC
  5
8854
  8
0
 10
844.7425863912095565
 20
308.5579124548219738
 30
0.0
 40
376.1135158958168745
 50
216.4698250210435901
 51
217.1024416084758002
  0
ARC
  5
8855
  8
0
 10
541.8561432319761479
 20
84.7020073981736346
 30
0.0
 40
0.5187725465304563
 50
34.558900144117473
 51
119.3360451625396053
  0
ARC
  5
8856
  8
0
 10
637.503706026462055
 20
-57.6746395689172715
 30
0.0
 40
172.0395757154662135
 50
123.900688855138597
 51
124.1900979764472055
  0
ARC
  5
8857
  8
0
 10
540.6379761692384136
 20
84.9018219051350655
 30
0.0
 40
0.3293133694498999
 50
207.3850487298516043
 51
305.1807682591825142
  0
LINE
  5
8858
  8
0
 10
539.0349470995705587
 20
92.0283712980909741
 30
0.0
 11
553.9955770262024544
 21
92.0283712980909741
 31
0.0
  0
LINE
  5
8859
  8
0
 10
539.2302530781091718
 20
86.6320204678529961
 30
0.0
 11
539.0349470995705587
 21
92.0283712980909741
 31
0.0
  0
LINE
  5
885A
  8
0
 10
540.3455671564751128
 20
84.7503482620373916
 30
0.0
 11
539.3901397858057862
 21
86.1360071436259034
 31
0.0
  0
ARC
  5
885B
  8
0
 10
539.9922986225448085
 20
86.6038850637051212
 30
0.0
 40
0.7625647597159338
 50
177.8855489184261955
 51
217.847236666055295
  0
ARC
  5
885C
  8
0
 10
546.5135255026993946
 20
83.0582754937526033
 30
0.0
 40
1.7879310876505761
 50
217.3014932028573014
 51
270.0556495638576848
  0
ARC
  5
885D
  8
0
 10
1246.4197123187329908
 20
616.272733899381592
 30
0.0
 40
881.666518732655959
 50
217.035643342047905
 51
217.3014932028573014
  0
ARC
  5
885E
  8
0
 10
544.2380541898860429
 20
86.4557103871890291
 30
0.0
 40
2.0272975653090102
 50
177.6757146368096869
 51
217.035643342047905
  0
ARC
  5
885F
  8
0
 10
542.6072431598062167
 20
86.6009858482107546
 30
0.0
 40
0.9939160648634953
 50
93.3462705123623238
 51
113.4054647402009977
  0
ARC
  5
8860
  8
0
 10
546.5614548479860559
 20
18.9728648724405105
 30
0.0
 40
68.7375396525367108
 50
90.4833376680143857
 51
93.3462705123623238
  0
ARC
  5
8861
  8
0
 10
546.5859272743642805
 20
16.0719250582764701
 30
0.0
 40
71.6385826899725515
 50
90.0565172966940253
 51
90.4833376680143857
  0
LINE
  5
8862
  8
0
 10
542.2124244921865284
 20
87.5131192615296243
 30
0.0
 11
542.2124244921865284
 21
86.5379280623290441
 31
0.0
  0
ARC
  5
8863
  8
0
 10
539.5073727441033498
 20
88.3319804920764255
 30
0.0
 40
3.8059601179995228
 50
302.4187085941707096
 51
314.2228658189072803
  0
ARC
  5
8864
  8
0
 10
541.6800573634352531
 20
86.1003019070011533
 30
0.0
 40
0.6913259147147754
 50
314.1790050461003148
 51
336.1974656927195042
  0
ARC
  5
8865
  8
0
 10
546.5152545926682706
 20
24.5874329160162297
 30
0.0
 40
63.2287017554747734
 50
89.9999932326817884
 51
93.7901684684379262
  0
ARC
  5
8866
  8
0
 10
542.4003460679938371
 20
86.7015294865313422
 30
0.0
 40
0.9784530416124688
 50
93.7901684684379262
 51
135.0810248645325942
  0
ARC
  5
8867
  8
0
 10
1295.2290438223690217
 20
-664.0009472446511154
 30
0.0
 40
1064.1366053091289814
 50
135.0810248645325942
 51
135.198050854887498
  0
ARC
  5
8868
  8
0
 10
539.9522778035551482
 20
86.0723455688276289
 30
0.0
 40
0.3129885561196073
 50
224.8019491451100862
 51
315.1980508548875832
  0
ARC
  5
8869
  8
0
 10
541.9452434200815105
 20
88.8476335236335331
 30
0.0
 40
3.7257847772841099
 50
226.7022808862751901
 51
233.5217301471489861
  0
ARC
  5
886A
  8
0
 10
546.5152620628864497
 20
86.7527807468909629
 30
0.0
 40
1.372043893099999
 50
136.1907185303246024
 51
43.8092814696753408
  0
ARC
  5
886B
  8
0
 10
546.5152620628864497
 20
86.7527807468909629
 30
0.0
 40
1.154502402299999
 50
124.267839536629296
 51
55.7321604633706897
  0
ARC
  5
886C
  8
0
 10
546.5760933285549754
 20
89.9997418568069349
 30
0.0
 40
0.0273257586795974
 50
87.9121577479721168
 51
176.7454698611200001
  0
ARC
  5
886D
  8
0
 10
546.4543999832776535
 20
89.9997084482844087
 30
0.0
 40
0.027358096415743
 50
3.327535986218054
 51
92.0198262274050336
  0
ARC
  5
886E
  8
0
 10
546.5653876240736508
 20
89.9846224375716304
 30
0.0
 40
0.0505978129896623
 50
114.3058981806113934
 51
154.893572492816304
  0
ARC
  5
886F
  8
0
 10
546.4652371519866847
 20
89.9846908756420163
 30
0.0
 40
0.0504777047905843
 50
25.0848297972257406
 51
65.8005820988774701
  0
LINE
  5
8870
  8
0
  6
CONTINUOUS
 10
546.949680326586531
 20
90.2391357884909553
 30
0.0
 11
547.26887207685877
 21
89.6862794598265083
 31
0.0
  0
LINE
  5
8871
  8
0
  6
CONTINUOUS
 10
547.2688720769748443
 20
89.5673135303296419
 30
0.0
 11
546.9435808283587903
 21
89.003892560457416
 31
0.0
  0
ARC
  5
8872
  8
0
  6
CONTINUOUS
 10
546.8467326911804776
 20
90.1796528228488086
 30
0.0
 40
0.1188967570510782
 50
30.0192476838222788
 51
90.0192474981694062
  0
ARC
  5
8873
  8
0
  6
CONTINUOUS
 10
546.8405932523448882
 20
89.063306345329039
 30
0.0
 40
0.1188967562468426
 50
269.9807525970620077
 51
330.0192473647575184
  0
ARC
  5
8874
  8
0
  6
CONTINUOUS
 10
547.1659244422702386
 20
89.6267964949776257
 30
0.0
 40
0.1188967559464598
 50
329.9807525619298758
 51
30.0192475498714693
  0
ARC
  5
8875
  8
0
 10
248.2879377345632861
 20
308.5579124548219738
 30
0.0
 40
376.1135158958168745
 50
322.897423304568008
 51
323.5301749789563814
  0
ARC
  5
8876
  8
0
 10
551.1743808937968652
 20
84.7020073981736346
 30
0.0
 40
0.5187725465304563
 50
60.6639548374603805
 51
145.441099855881788
  0
ARC
  5
8877
  8
0
 10
455.526818099311015
 20
-57.6746395689172715
 30
0.0
 40
172.0395757154662135
 50
55.8099020235528087
 51
56.0993111448614101
  0
ARC
  5
8878
  8
0
 10
552.3925479565347132
 20
84.9018219051350655
 30
0.0
 40
0.3293133694498999
 50
234.8192317408174858
 51
332.6149512701484241
  0
LINE
  5
8879
  8
0
 10
553.8002710476638413
 20
86.6320204678529961
 30
0.0
 11
553.9955770262024544
 21
92.0283712980909741
 31
0.0
  0
LINE
  5
887A
  8
0
 10
552.6849569692979003
 20
84.7503482620373916
 30
0.0
 11
553.6403843399673406
 21
86.1360071436259034
 31
0.0
  0
ARC
  5
887B
  8
0
 10
553.0382255032280909
 20
86.6038850637051212
 30
0.0
 40
0.7625647597159338
 50
322.1527633339439944
 51
2.1144510815737898
  0
ARC
  5
887C
  8
0
 10
546.5169986230737322
 20
83.0582754937526033
 30
0.0
 40
1.7879310876505761
 50
269.9443504361357782
 51
322.698506797142727
  0
ARC
  5
887D
  8
0
 10
-153.389188192960404
 20
616.272733899381592
 30
0.0
 40
881.666518732655959
 50
322.698506797142727
 51
322.9643566579480876
  0
ARC
  5
887E
  8
0
 10
548.7924699358868565
 20
86.4557103871890291
 30
0.0
 40
2.0272975653090102
 50
322.9643566579480876
 51
2.3242853631903122
  0
ARC
  5
887F
  8
0
 10
550.4232809659667964
 20
86.6009858482107546
 30
0.0
 40
0.9939160648634953
 50
66.5945352597989739
 51
86.6537294876376905
  0
ARC
  5
8880
  8
0
 10
546.4690692777869572
 20
18.9728648724405105
 30
0.0
 40
68.7375396525367108
 50
86.6537294876376905
 51
89.5166623319856285
  0
LINE
  5
8881
  8
0
 10
550.8180996335864847
 20
87.5131192615296243
 30
0.0
 11
550.8180996335864847
 21
86.5379280623290441
 31
0.0
  0
ARC
  5
8882
  8
0
 10
553.5231513816695497
 20
88.3319804920764255
 30
0.0
 40
3.8059601179995228
 50
225.7771341810926913
 51
237.5812914058236913
  0
ARC
  5
8883
  8
0
 10
551.35046676233776
 20
86.1003019070011533
 30
0.0
 40
0.6913259147147754
 50
203.8025343072797
 51
225.8209949538996
  0
ARC
  5
8884
  8
0
 10
546.5152695331048562
 20
24.5874329160162297
 30
0.0
 40
63.2287017554747734
 50
86.2098315315620738
 51
90.0000067712199723
  0
ARC
  5
8885
  8
0
 10
550.6301780577792897
 20
86.7015294865313422
 30
0.0
 40
0.9784530416124688
 50
44.9189751354673774
 51
86.2098315315620738
  0
ARC
  5
8886
  8
0
 10
-202.1985196965960085
 20
-664.0009472446511154
 30
0.0
 40
1064.1366053091289814
 50
44.801949145112431
 51
44.9189751354673774
  0
ARC
  5
8887
  8
0
 10
553.0782463222179786
 20
86.0723455688276289
 30
0.0
 40
0.3129885561196073
 50
224.8019491451123884
 51
315.1980508548898001
  0
ARC
  5
8888
  8
0
 10
551.08528070569173
 20
88.8476335236332915
 30
0.0
 40
3.725784777283867
 50
306.4782698528510991
 51
313.2977191137269983
  0
ARC
  5
8889
  8
0
 10
546.3836181136412051
 20
83.3821178474819362
 30
0.0
 40
2.5401560761621669
 50
272.9706927238271987
 51
317.614058705551713
  0
ARC
  5
888A
  8
0
 10
546.4445968514087326
 20
16.0719250582764701
 30
0.0
 40
71.6385826899725515
 50
89.5166623319856285
 51
89.9434827033059889
  0
ARC
  5
888B
  8
0
  6
CONTINUOUS
 10
546.5152620628864497
 20
89.2467964948909582
 30
0.0
 40
0.03399795
 50
9.3155558979402766
 51
170.6899590954583061
  0
ARC
  5
888C
  8
0
  6
CONTINUOUS
 10
546.5152620628864497
 20
89.2467964948909582
 30
0.0
 40
0.0043655287
 50
9.2982465368628961
 51
170.7050064362607031
  0
ARC
  5
888D
  8
0
 10
546.5760933285549754
 20
89.2538511329749866
 30
0.0
 40
0.0273257586795974
 50
183.2545301388799999
 51
272.0878422520278264
  0
ARC
  5
888E
  8
0
 10
546.4543999832776535
 20
89.253884541497527
 30
0.0
 40
0.027358096415743
 50
267.9801737725949806
 51
356.6724640137820188
  0
ARC
  5
888F
  8
0
 10
546.5653876240736508
 20
89.2689705522103054
 30
0.0
 40
0.0505978129896623
 50
205.1064275071844065
 51
245.6941018193826096
  0
ARC
  5
8890
  8
0
 10
546.4652371519866847
 20
89.2689021141399053
 30
0.0
 40
0.0504777047905843
 50
294.1994179011225015
 51
334.9151702027742772
  0
CIRCLE
  5
8891
  8
0
 10
546.5152620628864497
 20
89.6267964948909537
 30
0.0
 40
0.9699999999999992
  0
ENDSEC
  0
EOF
