  0
SECTION
  2
HEADER
  9
$ACADVER
  1
AC1009
  9
$INSBASE
 10
4433.1640028814254038
 20
208.8189974763029113
 30
0.0
  9
$EXTMIN
 10
4413.2006681242201012
 20
208.5294371443866908
 30
-0.0000000000112498
  9
$EXTMAX
 10
4433.4949729870313604
 20
211.8264471962314985
 30
0.0000000000002956
  9
$LIMMIN
 10
0.0
 20
0.0
  9
$LIMMAX
 10
11.6929133858000007
 20
8.2677165353999982
  9
$ORTHOMODE
 70
     0
  9
$REGENMODE
 70
     1
  9
$FILLMODE
 70
     1
  9
$QTEXTMODE
 70
     0
  9
$MIRRTEXT
 70
     0
  9
$DRAGMODE
 70
     2
  9
$LTSCALE
 40
0.6431102362
  9
$OSMODE
 70
  4095
  9
$ATTMODE
 70
     1
  9
$TEXTSIZE
 40
0.2
  9
$TRACEWID
 40
0.05
  9
$TEXTSTYLE
  7
STANDARD
  9
$CLAYER
  8
0
  9
$CELTYPE
  6
BYLAYER
  9
$CECOLOR
 62
   256
  9
$DIMSCALE
 40
1.0
  9
$DIMASZ
 40
0.1875
  9
$DIMEXO
 40
0.0625
  9
$DIMDLI
 40
0.4443307087
  9
$DIMRND
 40
0.0
  9
$DIMDLE
 40
0.0
  9
$DIMEXE
 40
0.125
  9
$DIMTP
 40
0.01
  9
$DIMTM
 40
0.01
  9
$DIMTXT
 40
2.0
  9
$DIMCEN
 40
0.1052362205
  9
$DIMTSZ
 40
0.0
  9
$DIMTOL
 70
     1
  9
$DIMLIM
 70
     0
  9
$DIMTIH
 70
     1
  9
$DIMTOH
 70
     1
  9
$DIMSE1
 70
     0
  9
$DIMSE2
 70
     0
  9
$DIMTAD
 70
     0
  9
$DIMZIN
 70
     0
  9
$DIMBLK
  1

  9
$DIMASO
 70
     1
  9
$DIMSHO
 70
     1
  9
$DIMPOST
  1
\X
  9
$DIMAPOST
  1

  9
$DIMALT
 70
     1
  9
$DIMALTD
 70
     2
  9
$DIMALTF
 40
25.3999999999999986
  9
$DIMLFAC
 40
1.0
  9
$DIMTOFL
 70
     0
  9
$DIMTVP
 40
0.0
  9
$DIMTIX
 70
     0
  9
$DIMSOXD
 70
     0
  9
$DIMSAH
 70
     0
  9
$DIMBLK1
  1

  9
$DIMBLK2
  1

  9
$DIMSTYLE
  2
STANDARD
  9
$DIMCLRD
 70
     0
  9
$DIMCLRE
 70
     0
  9
$DIMCLRT
 70
     0
  9
$DIMTFAC
 40
1.0
  9
$DIMGAP
 40
0.09
  9
$LUNITS
 70
     2
  9
$LUPREC
 70
     4
  9
$SKETCHINC
 40
0.1
  9
$FILLETRAD
 40
0.0
  9
$AUNITS
 70
     0
  9
$AUPREC
 70
     0
  9
$MENU
  1
.
  9
$ELEVATION
 40
0.0
  9
$PELEVATION
 40
0.0
  9
$THICKNESS
 40
0.0
  9
$LIMCHECK
 70
     0
  9
$BLIPMODE
 70
     0
  9
$CHAMFERA
 40
0.0
  9
$CHAMFERB
 40
0.0
  9
$SKPOLY
 70
     0
  9
$TDCREATE
 40
2458060.468368056230247
  9
$TDUPDATE
 40
2459864.4950694451108575
  9
$TDINDWG
 40
0.6311297454
  9
$TDUSRTIMER
 40
0.6311297454
  9
$USRTIMER
 70
     1
  9
$ANGBASE
 50
0.0
  9
$ANGDIR
 70
     0
  9
$PDMODE
 70
     0
  9
$PDSIZE
 40
0.3125
  9
$PLINEWID
 40
0.0
  9
$COORDS
 70
     1
  9
$SPLFRAME
 70
     0
  9
$SPLINETYPE
 70
     6
  9
$SPLINESEGS
 70
     8
  9
$ATTDIA
 70
     1
  9
$ATTREQ
 70
     1
  9
$HANDLING
 70
     1
  9
$HANDSEED
  5
11F95
  9
$SURFTAB1
 70
     6
  9
$SURFTAB2
 70
     6
  9
$SURFTYPE
 70
     6
  9
$SURFU
 70
     6
  9
$SURFV
 70
     6
  9
$UCSNAME
  2

  9
$UCSORG
 10
0.0
 20
0.0
 30
0.0
  9
$UCSXDIR
 10
1.0
 20
0.0
 30
0.0
  9
$UCSYDIR
 10
0.0
 20
1.0
 30
0.0
  9
$PUCSNAME
  2

  9
$PUCSORG
 10
0.0
 20
0.0
 30
0.0
  9
$PUCSXDIR
 10
1.0
 20
0.0
 30
0.0
  9
$PUCSYDIR
 10
0.0
 20
1.0
 30
0.0
  9
$USERI1
 70
     0
  9
$USERI2
 70
     0
  9
$USERI3
 70
     0
  9
$USERI4
 70
     0
  9
$USERI5
 70
     0
  9
$USERR1
 40
0.0
  9
$USERR2
 40
0.0
  9
$USERR3
 40
0.0
  9
$USERR4
 40
0.0
  9
$USERR5
 40
0.0
  9
$WORLDVIEW
 70
     1
  9
$SHADEDGE
 70
     3
  9
$SHADEDIF
 70
    70
  9
$TILEMODE
 70
     1
  9
$MAXACTVP
 70
    64
  9
$PLIMCHECK
 70
     0
  9
$PEXTMIN
 10
1.0000000000000000E+20
 20
1.0000000000000000E+20
 30
1.0000000000000000E+20
  9
$PEXTMAX
 10
-1.0000000000000000E+20
 20
-1.0000000000000000E+20
 30
-1.0000000000000000E+20
  9
$PLIMMIN
 10
0.0
 20
0.0
  9
$PLIMMAX
 10
12.0
 20
9.0
  9
$UNITMODE
 70
     0
  9
$VISRETAIN
 70
     1
  9
$PLINEGEN
 70
     0
  9
$PSLTSCALE
 70
     1
  0
ENDSEC
  0
SECTION
  2
TABLES
  0
TABLE
  2
VPORT
 70
     1
  0
VPORT
  2
*ACTIVE
 70
     0
 10
0.0
 20
0.0
 11
1.0
 21
1.0
 12
261.7914240712507876
 22
-15.9328900440463599
 13
0.0
 23
0.0
 14
1.0
 24
1.0
 15
0.0
 25
0.0
 16
0.0
 26
0.0
 36
202.37134017897489
 17
4161.556396484375
 27
226.1108322143554972
 37
0.0
 40
9.4861511323883487
 41
2.1471354166666661
 42
50.0
 43
0.0
 44
0.0
 50
0.0
 51
0.0
 71
     0
 72
   100
 73
     1
 74
     1
 75
     0
 76
     0
 77
     0
 78
     0
  0
ENDTAB
  0
TABLE
  2
LTYPE
 70
     2
  0
LTYPE
  2
CONTINUOUS
 70
     0
  3
Solid line
 72
    65
 73
     0
 40
0.0
  0
LTYPE
  2
PHANTOM2
 70
     0
  3
___ _ _ ___ _ _ ___ _ _ ___ _ _
 72
    65
 73
     6
 40
1.25
 49
0.625
 49
-0.125
 49
0.125
 49
-0.125
 49
0.125
 49
-0.125
  0
ENDTAB
  0
TABLE
  2
LAYER
 70
     2
  0
LAYER
  2
0
 70
     0
 62
   255
  6
CONTINUOUS
  0
LAYER
  2
DEFPOINTS
 70
     0
 62
     7
  6
CONTINUOUS
  0
ENDTAB
  0
TABLE
  2
STYLE
 70
     1
  0
STYLE
  2
STANDARD
 70
     0
 40
0.0
 41
0.8
 50
0.0
 71
     0
 42
0.2
  3
txt
  4

  0
ENDTAB
  0
TABLE
  2
VIEW
 70
     0
  0
ENDTAB
  0
TABLE
  2
UCS
 70
     0
  0
ENDTAB
  0
TABLE
  2
APPID
 70
     9
  0
APPID
  2
ACAD
 70
     0
  0
APPID
  2
ACAD_MLEADERVER
 70
     0
  0
APPID
  2
ACAD_EXEMPT_FROM_CAD_STANDARDS
 70
     0
  0
APPID
  2
ACAD_NAV_VCDISPLAY
 70
     0
  0
APPID
  2
ACAECLAYERSTANDARD
 70
     0
  0
APPID
  2
ACCMTRANSPARENCY
 70
     0
  0
APPID
  2
ACAD_DSTYLE_DIMJAG
 70
     0
  0
APPID
  2
ACAD_DSTYLE_DIMTALN
 70
     0
  0
APPID
  2
ACDBATTR
 70
     0
  0
ENDTAB
  0
TABLE
  2
DIMSTYLE
 70
     1
  0
DIMSTYLE
  2
STANDARD
 70
     0
  3

  4

  5

  6

  7

 40
1.0
 41
0.1875
 42
0.0625
 43
0.38
 44
0.125
 45
0.0
 46
0.0
 47
0.01
 48
0.01
140
0.15625
141
0.09
142
0.0
143
25.3999999999999986
144
1.0
145
0.0
146
1.0
147
0.09
 71
     1
 72
     0
 73
     1
 74
     1
 75
     0
 76
     0
 77
     0
 78
     4
170
     0
171
     2
172
     0
173
     0
174
     0
175
     0
176
     0
177
     0
178
     0
  0
ENDTAB
  0
ENDSEC
  0
SECTION
  2
BLOCKS
  0
BLOCK
  8
0
  2
$MODEL_SPACE
 70
     0
 10
0.0
 20
0.0
 30
0.0
  3
$MODEL_SPACE
  1

  0
ENDBLK
  5
21
  8
0
  0
BLOCK
 67
     1
  8
0
  2
$PAPER_SPACE
 70
     0
 10
0.0
 20
0.0
 30
0.0
  3
$PAPER_SPACE
  1

  0
ENDBLK
  5
1D
 67
     1
  8
0
  0
ENDSEC
  0
SECTION
  2
ENTITIES
  0
ATTDEF
  5
3930
  8
DEFPOINTS
 10
4433.1598642998687865
 20
208.8240384995403929
 30
0.0
 40
0.001
  1
K-4713T
  3

  2
MODELNUMBER
 70
     0
1001
ACDBATTR
1070
     0
1070
     1
  0
ATTDEF
  5
3931
  8
DEFPOINTS
 10
4433.1598642998687865
 20
208.822371832873813
 30
0.0
 40
0.001
  1
FRENCH CURVE
  3

  2
TRADENAME
 70
     0
1001
ACDBATTR
1070
     0
1070
     1
  0
ATTDEF
  5
3932
  8
DEFPOINTS
 10
4433.1598642998687865
 20
208.820705166207091
 30
0.0
 40
0.001
  1
TOILET SEAT
  3

  2
PRODUCT
 70
     0
1001
ACDBATTR
1070
     0
1070
     1
  0
ARC
  5
11D94
  8
0
 10
4411.4600850362985511
 20
209.9998363208424053
 30
0.0
 40
21.5833464094813685
 50
356.8637449068602905
 51
357.2292896340002244
  0
ARC
  5
11D95
  8
0
 10
4433.2106566645252315
 20
208.9334756390655912
 30
0.0
 40
0.1938307688393156
 50
127.4884898951285948
 51
173.1734364437863007
  0
ARC
  5
11D96
  8
0
 10
4432.8940065708111433
 20
209.3882230196946921
 30
0.0
 40
0.3606172215519079
 50
303.4326367049206965
 51
311.9152080823665187
  0
ARC
  5
11D97
  8
0
 10
4433.0923631157602358
 20
209.1775125483837883
 30
0.0
 40
0.0716397656627973
 50
306.4340118418031125
 51
67.3810666935575853
  0
ARC
  5
11D98
  8
0
 10
4430.7457827304288003
 20
199.8646870258857859
 30
0.0
 40
9.674776711929157
 50
75.7948753513111342
 51
84.3730691603186642
  0
ARC
  5
11D99
  8
0
 10
4431.7129245495507348
 20
209.3653745341152899
 30
0.0
 40
0.1288093823096914
 50
98.2680740585902441
 51
165.4520969074278014
  0
LINE
  5
11D9A
  8
0
 10
4431.6563692032850668
 20
208.8429028704038046
 30
0.0
 11
4431.588245057824679
 21
209.3977300794460916
 31
0.0
  0
ARC
  5
11D9B
  8
0
 10
4431.7192967268792927
 20
208.9129597064853954
 30
0.0
 40
0.0941691749307929
 50
228.068698137732099
 51
266.2008187109216237
  0
LINE
  5
11D9C
  8
0
 10
4413.8701919140521568
 20
210.1889974763020916
 30
0.0
 11
4414.0754827990040212
 21
210.1889974763020916
 31
0.0
  0
LINE
  5
11D9D
  8
0
 10
4413.5888453916522849
 20
209.1389974763029045
 30
0.0
 11
4430.2823036786858211
 21
209.1389974763029045
 31
0.0
  0
LINE
  5
11D9E
  8
0
 10
4413.8101919140508471
 20
210.2489974763020939
 30
0.0
 11
4413.8101919140508471
 21
210.2639974763029045
 31
0.0
  0
LINE
  5
11D9F
  8
0
 10
4413.8101919140508471
 20
210.2639974763029045
 30
0.0
 11
4413.8314759458708068
 21
210.3434305642718982
 31
0.0
  0
LINE
  5
11DA0
  8
0
 10
4413.886615992748375
 20
210.4085524359012993
 30
0.0
 11
4415.317075442389978
 21
211.0601316773228859
 31
0.0
  0
ARC
  5
11DA1
  8
0
 10
4415.6668994520778142
 20
176.3459109196029999
 30
0.0
 40
34.7245894785347318
 50
89.5858352565287106
 51
90.5096596041451278
  0
ARC
  5
11DA2
  8
0
 10
4415.6666818516787316
 20
176.0802355688063869
 30
0.0
 40
34.9902595027122203
 50
88.4006428388132264
 51
89.5886236081241663
  0
ARC
  5
11DA3
  8
0
 10
4415.7240093302953028
 20
178.1334163658287082
 30
0.0
 40
32.9362785327260283
 50
86.9030617002038639
 51
88.4006428388132264
  0
ARC
  5
11DA4
  8
0
 10
4415.879503848330387
 20
181.0073843736028039
 30
0.0
 40
30.0581071245490001
 50
86.6743214909225799
 51
86.9030617002038639
  0
ARC
  5
11DA5
  8
0
 10
4414.8250583089320571
 20
179.4253315359937915
 30
0.0
 40
31.6483070704795502
 50
88.8435193174915554
 51
89.0311043540323936
  0
ARC
  5
11DA6
  8
0
 10
4412.9709907895839933
 20
87.5813270582397507
 30
0.0
 40
123.5110237997163978
 50
88.6743185250074788
 51
88.8435193174915554
  0
ARC
  5
11DA7
  8
0
 10
4409.5763148550977348
 20
-59.1099393049807702
 30
0.0
 40
270.2415640834129249
 50
88.4896270148139763
 51
88.6743185250074788
  0
ARC
  5
11DA8
  8
0
 10
4432.711639280871168
 20
818.3219284354538559
 30
0.0
 40
607.4952562464359289
 50
268.4896270148140047
 51
268.6319799857895987
  0
ARC
  5
11DA9
  8
0
 10
4420.4655189227187293
 20
305.5241140841739025
 30
0.0
 40
94.5512379878386469
 50
268.6319799857895987
 51
269.8913346101896877
  0
ARC
  5
11DAA
  8
0
 10
4420.4178367387330582
 20
280.382855865174804
 30
0.0
 40
69.4099345525539349
 50
269.8913346101896877
 51
272.6881819112084031
  0
ARC
  5
11DAB
  8
0
 10
4421.6209095816775516
 20
285.0052399902252773
 30
0.0
 40
73.9844079043027989
 50
271.5895534739104278
 51
273.7341300615328237
  0
ARC
  5
11DAC
  8
0
 10
4424.3138254808527563
 20
239.1972474026526072
 30
0.0
 40
28.0998452222184802
 50
274.3379447174733059
 51
282.6688111693088103
  0
ARC
  5
11DAD
  8
0
 10
4431.0183505451623205
 20
209.0627679445017861
 30
0.0
 40
2.7722118015489379
 50
96.1655548352019736
 51
101.2704799833265952
  0
ARC
  5
11DAE
  8
0
 10
4430.7564096753103513
 20
211.4874802401236025
 30
0.0
 40
0.3333918542462114
 50
76.3712034032095062
 51
96.1642528442582147
  0
ARC
  5
11DAF
  8
0
 10
4428.6435260526186539
 20
205.1411517007366001
 30
0.0
 40
7.0210936067423821
 50
71.2428715202890857
 51
71.8128141454601234
  0
ARC
  5
11DB0
  8
0
 10
4430.8569323325982623
 20
211.6659942103786989
 30
0.0
 40
0.1310671926072168
 50
4.304618366993795
 51
70.2557333209009585
  0
ARC
  5
11DB1
  8
0
 10
4413.034310729200115
 20
210.9652470915860931
 30
0.0
 40
17.9673758913656911
 50
1.6637041300243789
 51
2.2665600728709232
  0
ARC
  5
11DB2
  8
0
 10
4431.2570212132513916
 20
211.5228300568014959
 30
0.0
 40
0.2653532411509881
 50
187.7832087831216086
 51
205.6630939693197035
  0
ARC
  5
11DB3
  8
0
 10
4434.8027972338049949
 20
213.3662887428966997
 30
0.0
 40
4.2615862864011858
 50
207.3575515901339941
 51
215.6110338705699974
  0
LINE
  5
11DB4
  8
0
 10
4431.4209242710339822
 20
210.6718148019147065
 30
0.0
 11
4431.6432720954026081
 21
208.8189974763029113
 31
0.0
  0
ARC
  5
11DB5
  8
0
 10
4430.9642012095137034
 20
210.6170056322980884
 30
0.0
 40
0.4600000000000001
 50
6.8430704940512106
 51
35.6110338705687397
  0
ARC
  5
11DB6
  8
0
 10
4413.8701919140521568
 20
210.2489974763020939
 30
0.0
 40
0.06
 50
179.9999999999951115
 51
270.0
  0
ARC
  5
11DB7
  8
0
 10
4413.92806852848571
 20
210.3175486597106953
 30
0.0
 40
0.1
 50
114.4894295347905029
 51
164.9999999697903945
  0
ARC
  5
11DB8
  8
0
 10
4415.358527978127313
 20
210.9691279011321967
 30
0.0
 40
0.1
 50
89.0311043540323936
 51
114.4894295347905029
  0
LINE
  5
11DB9
  8
0
 10
4413.8101919140508471
 20
210.2489974763020939
 30
0.0
 11
4413.9992356190077771
 21
210.2489974763020939
 31
0.0
  0
ARC
  5
11DBA
  8
0
 10
4414.0037984525488355
 20
210.1199968852940003
 30
0.0
 40
0.1290812609575884
 50
70.657338613824578
 51
92.0257439159505566
  0
ARC
  5
11DBB
  8
0
 10
4414.0213030834029269
 20
210.1947769718885866
 30
0.0
 40
0.0533661758275689
 50
16.9994711530898606
 51
61.7621611999845399
  0
ARC
  5
11DBC
  8
0
 10
4416.3953808676997141
 20
210.5411749004944966
 30
0.0
 40
2.3464773570718069
 50
188.1042937392728049
 51
190.8224897025428959
  0
ARC
  5
11DBD
  8
0
 10
4414.1957046916313629
 20
210.120669326581293
 30
0.0
 40
0.1069684338346974
 50
190.8224897025428959
 51
273.0745058497495279
  0
ARC
  5
11DBE
  8
0
 10
4424.4929345899590771
 20
-336.5077400456685268
 30
0.0
 40
546.6184853438655864
 50
90.595790805913424
 51
91.0788035068470236
  0
ARC
  5
11DBF
  8
0
 10
4513.0974825794346543
 20
-7895.3023934243874464
 30
0.0
 40
8105.9319881119326965
 50
90.5895500803213167
 51
90.6664813973423946
  0
ARC
  5
11DC0
  8
0
 10
4429.7171891163015971
 20
209.6626023544667135
 30
0.0
 40
0.5384640765455306
 50
40.1697293517623066
 51
92.655943014643924
  0
ARC
  5
11DC1
  8
0
 10
4386.651603407388393
 20
178.7698803764008915
 30
0.0
 40
53.5368555636589889
 50
34.794287168371298
 51
35.698812449900089
  0
ARC
  5
11DC2
  8
0
 10
4430.8201767217969973
 20
209.4679948635765072
 30
0.0
 40
0.2520234788421551
 50
216.0428488055380001
 51
282.8248561957539096
  0
ARC
  5
11DC3
  8
0
 10
4419.5907952395127722
 20
279.4535654750827121
 30
0.0
 40
71.1322359800986561
 50
279.1287045776866194
 51
279.704111541654072
  0
ARC
  5
11DC4
  8
0
 10
4414.5202384710519254
 20
208.1415872435349002
 30
0.0
 40
1.6215240817418339
 50
26.7819971153277514
 51
37.2291443032133031
  0
ARC
  5
11DC5
  8
0
 10
4416.0215277586321463
 20
208.8990078095648926
 30
0.0
 40
0.060010329383661
 50
206.4894443023983115
 51
269.0808775304299729
  0
ARC
  5
11DC6
  8
0
 10
4391.4430180016734084
 20
-1254.1973207968669612
 30
0.0
 40
1463.2427504359880004
 50
88.9442429379791122
 51
88.9754253919574438
  0
ARC
  5
11DC7
  8
0
 10
4391.4430180016734084
 20
-1254.1973207968669612
 30
0.0
 40
1463.2427504359880004
 50
89.0108159497835913
 51
89.037578731299007
  0
ARC
  5
11DC8
  8
0
 10
4413.7459951957089288
 20
-43.9550403510372902
 30
0.0
 40
252.7949819757203045
 50
88.1099359001775753
 51
88.9442429379791122
  0
ARC
  5
11DC9
  8
0
 10
4431.7690386086942453
 20
435.238319401173726
 30
0.0
 40
226.7428626001637042
 50
267.5518473194571243
 51
268.888001844380824
  0
ARC
  5
11DCA
  8
0
 10
4427.8391316622737577
 20
239.1122797448979043
 30
0.0
 40
30.5777397083107907
 50
269.1184502739254185
 51
270.985345270519872
  0
ARC
  5
11DCB
  8
0
 10
4428.3631907638909979
 20
208.5964154326271114
 30
0.0
 40
0.0573812513966862
 50
271.7738822807061183
 51
309.278652981280004
  0
ARC
  5
11DCC
  8
0
 10
4429.680881906671857
 20
206.98528712530711
 30
0.0
 40
2.023975126163934
 50
107.071057692383107
 51
129.2786529812788956
  0
ARC
  5
11DCD
  8
0
 10
4430.3781355092942249
 20
204.8466498114057117
 30
0.0
 40
4.2732465664341701
 50
93.8451917470076609
 51
107.5902317029571975
  0
ARC
  5
11DCE
  8
0
 10
4414.5326207362231798
 20
313.0859927027134972
 30
0.0
 40
105.1333930270851056
 50
278.5106032273255892
 51
278.8968709042583782
  0
ARC
  5
11DCF
  8
0
 10
4429.1558442317964364
 20
208.9378121203004071
 30
0.0
 40
0.0050011423206491
 50
5.8531831594721542
 51
59.4131457364665678
  0
ARC
  5
11DD0
  8
0
 10
4429.0561008122831481
 20
208.935928605013487
 30
0.0
 40
0.1047458389273092
 50
359.9023719916435766
 51
1.309370651495344
  0
ARC
  5
11DD1
  8
0
 10
4429.1658484719482658
 20
208.9357513813544074
 30
0.0
 40
0.0050019729549706
 50
180.014385322288291
 51
289.4977517590770049
  0
ARC
  5
11DD2
  8
0
 10
4430.2552848322657155
 20
205.5085279735089898
 30
0.0
 40
3.591211441607367
 50
98.3845032751442687
 51
107.6316816852312996
  0
ARC
  5
11DD3
  8
0
 10
4429.7308449450856642
 20
209.0662941210694896
 30
0.0
 40
0.0050003864774515
 50
279.0408495811781222
 51
359.9962088408215095
  0
ARC
  5
11DD4
  8
0
 10
4429.6940051716846938
 20
209.0663632950285091
 30
0.0
 40
0.041840217597046
 50
359.9048204042946963
 51
6.7848821769148842
  0
LINE
  5
11DD5
  8
0
 10
4429.3622294869692269
 20
208.9869258473250113
 30
0.0
 11
4429.3622828264524287
 21
208.971127820294214
 31
0.0
  0
LINE
  5
11DD6
  8
0
 10
4429.3622828264524287
 20
208.971127820294214
 30
0.0
 11
4429.5344078264515701
 21
209.0100630359611102
 31
0.0
  0
LINE
  5
11DD7
  8
0
 10
4429.5344078264515701
 20
209.0100630359611102
 30
0.0
 11
4429.5343727377421601
 21
209.0266361825185015
 31
0.0
  0
LINE
  5
11DD8
  8
0
 10
4430.4986197848511438
 20
208.8189974763029113
 30
0.0
 11
4430.5110135426066336
 21
209.1739082624883963
 31
0.0
  0
LINE
  5
11DD9
  8
0
 10
4430.4986197848511438
 20
208.8189974763029113
 30
0.0
 11
4433.0111050087944022
 21
208.8189974763029113
 31
0.0
  0
LINE
  5
11DDA
  8
0
 10
4413.5288453916518847
 20
209.2139974763028079
 30
0.0
 11
4413.5288453916518847
 21
209.1989974763029068
 31
0.0
  0
ARC
  5
11DDB
  8
0
 10
4431.6216427346307682
 20
209.2716289744521987
 30
0.0
 40
0.0329993373948055
 50
197.2553255375383969
 51
244.3962545951461891
  0
LINE
  5
11DDC
  8
0
 10
4413.6359233269940887
 20
209.6136177517632859
 30
0.0
 11
4413.5288453916518847
 21
209.2139974763028079
 31
0.0
  0
ARC
  5
11DDD
  8
0
 10
4414.1188876235701173
 20
209.4842078521741939
 30
0.0
 40
0.5000014338429543
 50
114.4885901057231052
 51
164.9999992973164069
  0
ARC
  5
11DDE
  8
0
 10
4415.8978131188368934
 20
205.5786512363964107
 30
0.0
 40
4.7916151625884051
 50
111.6048892270474937
 51
114.4885901057231052
  0
ARC
  5
11DDF
  8
0
 10
4413.5888453916522849
 20
209.1989974763029068
 30
0.0
 40
0.06
 50
180.0000000000048885
 51
270.0
  0
LINE
  5
11DE0
  8
0
 10
4430.0581983331594529
 20
209.8539954819210038
 30
0.0
 11
4430.5321258374360696
 21
209.1771568613673082
 31
0.0
  0
ARC
  5
11DE1
  8
0
 10
4441.9695750784267148
 20
-1005.1416585623600213
 30
0.0
 40
1215.2620469803071046
 50
90.5803061118646156
 51
90.8087895222916757
  0
ARC
  5
11DE2
  8
0
 10
4415.7440110592060591
 20
852.5905276228786533
 30
0.0
 40
642.6552428355537359
 50
270.3358639781915826
 51
270.8087895222917041
  0
ARC
  5
11DE3
  8
0
 10
4418.7754945803671944
 20
335.4489666886898931
 30
0.0
 40
125.5047967004001066
 50
269.0174493159676103
 51
270.3358639781915826
  0
ARC
  5
11DE4
  8
0
 10
4415.6918993520930599
 20
160.7526924589253952
 30
0.0
 40
49.2187457817323875
 50
88.9156286351490763
 51
92.0728711210308575
  0
ARC
  5
11DE5
  8
0
 10
4429.6661521647656627
 20
209.5794817994780033
 30
0.0
 40
0.4786000000000001
 50
35.0000000008194334
 51
90.5803061119167694
  0
ARC
  5
11DE6
  8
0
 10
4431.3534968691592439
 20
210.5025740646894974
 30
0.0
 40
0.1040681914025366
 50
40.0112725445066175
 51
83.9163349847992635
  0
ARC
  5
11DE7
  8
0
 10
4298.5736287203062602
 20
8756.1534535340069851
 30
0.0
 40
8546.5790666853536095
 50
270.8629087788979177
 51
270.890258437938428
  0
ARC
  5
11DE8
  8
0
 10
4335.2576199497070775
 20
7005.1071738747868949
 30
0.0
 40
6795.1867288152507172
 50
270.6870174186973941
 51
270.7759849502966745
  0
ARC
  5
11DE9
  8
0
 10
4419.545512902766859
 20
21.4585113925560087
 30
0.0
 40
188.9713282719112044
 50
90.8522281752760392
 51
91.7327502250742839
  0
LINE
  5
11DEA
  8
0
 10
4416.9768662533433599
 20
209.9589974763028977
 30
0.0
 11
4418.026114254517779
 21
209.9589974763028977
 31
0.0
  0
ARC
  5
11DEB
  8
0
 10
4416.8717121091076478
 20
210.0125469895048127
 30
0.0
 40
0.0453518050614556
 50
3.5103051279994668
 51
84.3172364277218236
  0
ARC
  5
11DEC
  8
0
 10
4418.1915402697659374
 20
210.0136037513827034
 30
0.0
 40
0.1057168924569416
 50
145.5469518265057047
 51
169.2462302057641921
  0
ARC
  5
11DED
  8
0
 10
4417.8536454422401221
 20
210.0440610489015967
 30
0.0
 40
0.2342804460637557
 50
351.731524789657783
 51
357.3745241912452002
  0
ARC
  5
11DEE
  8
0
 10
4416.9768662533433599
 20
210.0189974763030989
 30
0.0
 40
0.06
 50
183.5103051281392084
 51
269.9999999999478746
  0
ARC
  5
11DEF
  8
0
 10
4418.026114254517779
 20
210.0189974763030989
 30
0.0
 40
0.06
 50
270.0000000000521254
 51
351.7315247894950971
  0
LINE
  5
11DF0
  8
0
 10
4428.0785021411666094
 20
210.1039974763029079
 30
0.0
 11
4426.8807809963464024
 21
210.1039974763029079
 31
0.0
  0
ARC
  5
11DF1
  8
0
 10
4426.7999646066036803
 20
210.1344361874359947
 30
0.0
 40
0.0413800165636873
 50
6.7472304411349731
 51
60.4337727422229278
  0
ARC
  5
11DF2
  8
0
 10
4428.1526376345991594
 20
210.151343078427999
 30
0.0
 40
0.0332162928371109
 50
94.0967608596008063
 51
171.8592192421481002
  0
ARC
  5
11DF3
  8
0
 10
4428.2606374825718376
 20
210.1358939891003956
 30
0.0
 40
0.1423155207154213
 50
171.8592192421481002
 51
177.4525008813726004
  0
ARC
  5
11DF4
  8
0
 10
4428.0785021411666094
 20
210.1439974763023883
 30
0.0
 40
0.04
 50
269.999999999687418
 51
357.4525008821112237
  0
ARC
  5
11DF5
  8
0
 10
4426.8807809963464024
 20
210.1439974763023031
 30
0.0
 40
0.04
 50
186.7472304403335102
 51
270.0000000003126956
  0
LINE
  5
11DF6
  8
0
 10
4417.6175154697148173
 20
208.8189974763029113
 30
0.0
 11
4416.7478435572256785
 21
208.8189974763029113
 31
0.0
  0
LINE
  5
11DF7
  8
0
 10
4416.6353168456926142
 20
208.9194093454732126
 30
0.0
 11
4416.6222517206242628
 21
209.0687287278335873
 31
0.0
  0
LINE
  5
11DF8
  8
0
 10
4417.7270968865050236
 20
208.9194103445906876
 30
0.0
 11
4417.7463082712056348
 21
209.1389974763029045
 31
0.0
  0
ARC
  5
11DF9
  8
0
 10
4417.6175154697148173
 20
208.9289974763028965
 30
0.0
 40
0.11
 50
270.0
 51
354.9999999948004188
  0
ARC
  5
11DFA
  8
0
 10
4416.7463708661425699
 20
208.930604651304094
 30
0.0
 40
0.1116168908847024
 50
185.7565140016170915
 51
270.7559916007451761
  0
ARC
  5
11DFB
  8
0
 10
4416.5423713246864281
 20
209.0589171466999119
 30
0.0
 40
0.0804807106057626
 50
7.002474412375121
 51
84.2824671107278931
  0
LINE
  5
11DFC
  8
0
 10
4416.7551210904293839
 20
208.8189974763029113
 30
0.0
 11
4416.7558216411716785
 21
208.7789974763028908
 31
0.0
  0
LINE
  5
11DFD
  8
0
 10
4416.7558216411716785
 20
208.7789974763028908
 30
0.0
 11
4417.6065939289046582
 21
208.7789974763028908
 31
0.0
  0
LINE
  5
11DFE
  8
0
 10
4417.6065939289046582
 20
208.7789974763028908
 30
0.0
 11
4417.6078616641652843
 21
208.8189974763029113
 31
0.0
  0
LINE
  5
11DFF
  8
0
 10
4426.2816199207627506
 20
208.8789974763029136
 30
0.0
 11
4426.7568547686396414
 21
208.8789974763029136
 31
0.0
  0
ARC
  5
11E00
  8
0
 10
4426.0800759030216796
 20
209.1829184726531139
 30
0.0
 40
0.1553739035386627
 50
196.4201828610866016
 51
231.3813202815701118
  0
ARC
  5
11E01
  8
0
 10
4426.1900871034240481
 20
209.476755825348306
 30
0.0
 40
0.4639632741648601
 50
243.5046924683798011
 51
266.3503535450637969
  0
ARC
  5
11E02
  8
0
 10
4425.9990199074973134
 20
208.8536349584346112
 30
0.0
 40
0.2274304451024248
 50
42.5627725175218998
 51
98.599639831925785
  0
ARC
  5
11E03
  8
0
 10
4426.0742650707170469
 20
208.9482820173126925
 30
0.0
 40
0.1096174450244846
 50
8.4259474965981127
 51
32.6792405854530799
  0
ARC
  5
11E04
  8
0
 10
4427.0535465683624352
 20
208.9194428915899948
 30
0.0
 40
0.2203764359647996
 50
94.9497894271944745
 51
169.2870090064002113
  0
ARC
  5
11E05
  8
0
 10
4427.1185115326570667
 20
208.9736466689878114
 30
0.0
 40
0.2616963451538749
 50
167.5357384049951008
 51
179.1523556599115921
  0
ARC
  5
11E06
  8
0
 10
4426.7568547686396414
 20
208.9789974763029079
 30
0.0
 40
0.1
 50
270.0
 51
359.152355659909972
  0
ARC
  5
11E07
  8
0
 10
4426.2816199207627506
 20
208.9789974763027089
 30
0.0
 40
0.1
 50
188.4259474964788978
 51
270.0000000000521254
  0
ARC
  5
11E08
  8
0
 10
4426.7387540777262984
 20
208.9789974763027089
 30
0.0
 40
0.1
 50
269.9999999999478746
 51
349.2870090064993747
  0
ENDSEC
  0
EOF
