  0
SECTION
  2
HEADER
  9
$ACADVER
  1
AC1009
  9
$INSBASE
 10
141.7684745750474917
 20
-7.6306641789738094
 30
0.0
  9
$EXTMIN
 10
136.7293635729475056
 20
-7.6318313718688371
 30
-0.0000000349181948
  9
$EXTMAX
 10
142.7519637183698933
 20
-3.4991328102223842
 30
0.0000000814935746
  9
$LIMMIN
 10
0.0
 20
0.0
  9
$LIMMAX
 10
11.6929133858000007
 20
8.2677165353999982
  9
$ORTHOMODE
 70
     0
  9
$REGENMODE
 70
     1
  9
$FILLMODE
 70
     1
  9
$QTEXTMODE
 70
     0
  9
$MIRRTEXT
 70
     0
  9
$DRAGMODE
 70
     2
  9
$LTSCALE
 40
0.6431102362
  9
$OSMODE
 70
  4095
  9
$ATTMODE
 70
     1
  9
$TEXTSIZE
 40
0.2
  9
$TRACEWID
 40
0.05
  9
$TEXTSTYLE
  7
STANDARD
  9
$CLAYER
  8
0
  9
$CELTYPE
  6
BYLAYER
  9
$CECOLOR
 62
   256
  9
$DIMSCALE
 40
1.0
  9
$DIMASZ
 40
0.1875
  9
$DIMEXO
 40
0.0625
  9
$DIMDLI
 40
0.4443307087
  9
$DIMRND
 40
0.0
  9
$DIMDLE
 40
0.0
  9
$DIMEXE
 40
0.125
  9
$DIMTP
 40
0.01
  9
$DIMTM
 40
0.01
  9
$DIMTXT
 40
1.0
  9
$DIMCEN
 40
0.1052362205
  9
$DIMTSZ
 40
0.0
  9
$DIMTOL
 70
     1
  9
$DIMLIM
 70
     0
  9
$DIMTIH
 70
     1
  9
$DIMTOH
 70
     1
  9
$DIMSE1
 70
     0
  9
$DIMSE2
 70
     0
  9
$DIMTAD
 70
     0
  9
$DIMZIN
 70
     0
  9
$DIMBLK
  1

  9
$DIMASO
 70
     1
  9
$DIMSHO
 70
     1
  9
$DIMPOST
  1
\X
  9
$DIMAPOST
  1

  9
$DIMALT
 70
     1
  9
$DIMALTD
 70
     2
  9
$DIMALTF
 40
25.3999999999999986
  9
$DIMLFAC
 40
1.0
  9
$DIMTOFL
 70
     0
  9
$DIMTVP
 40
0.0
  9
$DIMTIX
 70
     0
  9
$DIMSOXD
 70
     0
  9
$DIMSAH
 70
     0
  9
$DIMBLK1
  1

  9
$DIMBLK2
  1

  9
$DIMSTYLE
  2
STANDARD
  9
$DIMCLRD
 70
     0
  9
$DIMCLRE
 70
     0
  9
$DIMCLRT
 70
     0
  9
$DIMTFAC
 40
1.0
  9
$DIMGAP
 40
0.09
  9
$LUNITS
 70
     2
  9
$LUPREC
 70
     4
  9
$SKETCHINC
 40
0.1
  9
$FILLETRAD
 40
0.0
  9
$AUNITS
 70
     0
  9
$AUPREC
 70
     0
  9
$MENU
  1
.
  9
$ELEVATION
 40
0.0
  9
$PELEVATION
 40
0.0
  9
$THICKNESS
 40
0.0
  9
$LIMCHECK
 70
     0
  9
$BLIPMODE
 70
     0
  9
$CHAMFERA
 40
0.0
  9
$CHAMFERB
 40
0.0
  9
$SKPOLY
 70
     0
  9
$TDCREATE
 40
2458172.4620254631154239
  9
$TDUPDATE
 40
2459066.7978125000372529
  9
$TDINDWG
 40
0.068049919
  9
$TDUSRTIMER
 40
0.068049919
  9
$USRTIMER
 70
     1
  9
$ANGBASE
 50
0.0
  9
$ANGDIR
 70
     0
  9
$PDMODE
 70
     0
  9
$PDSIZE
 40
0.3125
  9
$PLINEWID
 40
0.0
  9
$COORDS
 70
     1
  9
$SPLFRAME
 70
     0
  9
$SPLINETYPE
 70
     6
  9
$SPLINESEGS
 70
     8
  9
$ATTDIA
 70
     1
  9
$ATTREQ
 70
     1
  9
$HANDLING
 70
     1
  9
$HANDSEED
  5
2A91
  9
$SURFTAB1
 70
     6
  9
$SURFTAB2
 70
     6
  9
$SURFTYPE
 70
     6
  9
$SURFU
 70
     6
  9
$SURFV
 70
     6
  9
$UCSNAME
  2

  9
$UCSORG
 10
0.0
 20
0.0
 30
0.0
  9
$UCSXDIR
 10
1.0
 20
0.0
 30
0.0
  9
$UCSYDIR
 10
0.0
 20
1.0
 30
0.0
  9
$PUCSNAME
  2

  9
$PUCSORG
 10
0.0
 20
0.0
 30
0.0
  9
$PUCSXDIR
 10
1.0
 20
0.0
 30
0.0
  9
$PUCSYDIR
 10
0.0
 20
1.0
 30
0.0
  9
$USERI1
 70
     0
  9
$USERI2
 70
     0
  9
$USERI3
 70
     0
  9
$USERI4
 70
     0
  9
$USERI5
 70
     0
  9
$USERR1
 40
0.0
  9
$USERR2
 40
0.0
  9
$USERR3
 40
0.0
  9
$USERR4
 40
0.0
  9
$USERR5
 40
0.0
  9
$WORLDVIEW
 70
     1
  9
$SHADEDGE
 70
     3
  9
$SHADEDIF
 70
    70
  9
$TILEMODE
 70
     1
  9
$MAXACTVP
 70
    64
  9
$PLIMCHECK
 70
     0
  9
$PEXTMIN
 10
1.0000000000000000E+20
 20
1.0000000000000000E+20
 30
1.0000000000000000E+20
  9
$PEXTMAX
 10
-1.0000000000000000E+20
 20
-1.0000000000000000E+20
 30
-1.0000000000000000E+20
  9
$PLIMMIN
 10
0.0
 20
0.0
  9
$PLIMMAX
 10
12.0
 20
9.0
  9
$UNITMODE
 70
     0
  9
$VISRETAIN
 70
     1
  9
$PLINEGEN
 70
     0
  9
$PSLTSCALE
 70
     1
  0
ENDSEC
  0
SECTION
  2
TABLES
  0
TABLE
  2
VPORT
 70
     1
  0
VPORT
  2
*ACTIVE
 70
     0
 10
0.0
 20
0.0
 11
1.0
 21
1.0
 12
15.1295050455861002
 22
-10.8777562614234302
 13
0.0
 23
0.0
 14
1.0
 24
1.0
 15
0.0
 25
0.0
 16
0.0
 26
0.0
 36
30.6214257250603907
 17
124.6111586000725993
 27
5.3122741703778242
 37
0.0
 40
4.1670899505089771
 41
2.6486111111111108
 42
50.0
 43
0.0
 44
0.0
 50
0.0
 51
0.0
 71
     0
 72
   100
 73
     1
 74
     1
 75
     0
 76
     0
 77
     0
 78
     0
  0
ENDTAB
  0
TABLE
  2
LTYPE
 70
     2
  0
LTYPE
  2
CONTINUOUS
 70
     0
  3
Solid line
 72
    65
 73
     0
 40
0.0
  0
LTYPE
  2
PHANTOM2
 70
     0
  3
___ _ _ ___ _ _ ___ _ _ ___ _ _
 72
    65
 73
     6
 40
1.25
 49
0.625
 49
-0.125
 49
0.125
 49
-0.125
 49
0.125
 49
-0.125
  0
ENDTAB
  0
TABLE
  2
LAYER
 70
     2
  0
LAYER
  2
0
 70
     0
 62
   255
  6
CONTINUOUS
  0
LAYER
  2
DEFPOINTS
 70
     0
 62
     7
  6
CONTINUOUS
  0
ENDTAB
  0
TABLE
  2
STYLE
 70
     1
  0
STYLE
  2
STANDARD
 70
     0
 40
0.0
 41
0.8
 50
0.0
 71
     0
 42
0.2
  3
txt
  4

  0
ENDTAB
  0
TABLE
  2
VIEW
 70
     0
  0
ENDTAB
  0
TABLE
  2
UCS
 70
     0
  0
ENDTAB
  0
TABLE
  2
APPID
 70
     9
  0
APPID
  2
ACAD
 70
     0
  0
APPID
  2
ACAD_MLEADERVER
 70
     0
  0
APPID
  2
ACAD_EXEMPT_FROM_CAD_STANDARDS
 70
     0
  0
APPID
  2
ACAD_DSTYLE_DIMJAG
 70
     0
  0
APPID
  2
ACAD_DSTYLE_DIMTALN
 70
     0
  0
APPID
  2
ACAD_NAV_VCDISPLAY
 70
     0
  0
APPID
  2
ACAECLAYERSTANDARD
 70
     0
  0
APPID
  2
ACCMTRANSPARENCY
 70
     0
  0
APPID
  2
ACDBATTR
 70
     0
  0
ENDTAB
  0
TABLE
  2
DIMSTYLE
 70
     1
  0
DIMSTYLE
  2
STANDARD
 70
     0
  3

  4

  5

  6

  7

 40
1.0
 41
0.1875
 42
0.0625
 43
0.38
 44
0.125
 45
0.0
 46
0.0
 47
0.01
 48
0.01
140
0.15625
141
0.09
142
0.0
143
25.3999999999999986
144
1.0
145
0.0
146
1.0
147
0.09
 71
     1
 72
     0
 73
     1
 74
     1
 75
     0
 76
     0
 77
     0
 78
     4
170
     0
171
     2
172
     0
173
     0
174
     0
175
     0
176
     0
177
     0
178
     0
  0
ENDTAB
  0
ENDSEC
  0
SECTION
  2
BLOCKS
  0
BLOCK
  8
0
  2
$MODEL_SPACE
 70
     0
 10
0.0
 20
0.0
 30
0.0
  3
$MODEL_SPACE
  1

  0
ENDBLK
  5
21
  8
0
  0
BLOCK
 67
     1
  8
0
  2
$PAPER_SPACE
 70
     0
 10
0.0
 20
0.0
 30
0.0
  3
$PAPER_SPACE
  1

  0
ENDBLK
  5
1D
 67
     1
  8
0
  0
BLOCK
  8
0
  2
_FILLED
 70
     0
 10
0.0
 20
0.0
 30
0.0
  3
_FILLED
  1

  0
SOLID
  5
2149
  8
0
  6
BYBLOCK
 62
     0
 10
0.0
 20
0.0
 30
0.0
 11
-1.0
 21
0.1666666667
 31
0.0
 12
-1.0
 22
-0.1666666667
 32
0.0
 13
-1.0
 23
-0.1666666667
 33
0.0
  0
ENDBLK
  5
214A
  8
0
  6
BYBLOCK
 62
     0
  0
ENDSEC
  0
SECTION
  2
ENTITIES
  0
ATTDEF
  5
1FF9
  8
DEFPOINTS
 10
141.7686848243297106
 20
-7.6270745699830069
 30
0.0
 40
0.001
  1
K-454X-4V
  3

  2
MODELNUMBER
 70
     0
1001
ACDBATTR
1070
     0
1070
     1
  0
ATTDEF
  5
1FFA
  8
DEFPOINTS
 10
141.7686848243297106
 20
-7.6287412366496721
 30
0.0
 40
0.001
  1
MEMOIRS
  3

  2
TRADENAME
 70
     0
1001
ACDBATTR
1070
     0
1070
     1
  0
ATTDEF
  5
1FFB
  8
DEFPOINTS
 10
141.7686848243297106
 20
-7.6304079033163381
 30
0.0
 40
0.001
  1
BATHROOM SINK FAUCET
  3

  2
PRODUCT
 70
     0
1001
ACDBATTR
1070
     0
1070
     1
  0
LINE
  5
244C
  8
0
 10
142.320523949147514
 20
-3.4996332046738088
 30
0.0
 11
141.8284242328475102
 21
-3.4996332046738088
 31
0.0
  0
ARC
  5
244D
  8
0
 10
141.8250665862275071
 20
-3.5304509128015371
 30
0.0
 40
0.0310000794365234
 50
83.7820442843154751
 51
142.4988196188218978
  0
LINE
  5
244E
  8
0
 10
141.8004729584475001
 20
-3.5115787534738092
 30
0.0
 11
141.7337177137474953
 21
-3.600166116073809
 31
0.0
  0
ARC
  5
244F
  8
0
 10
141.7581492404464996
 20
-3.6185354214272918
 30
0.0
 40
0.0305668249575737
 50
143.0616320302108875
 51
195.8892952765849884
  0
ARC
  5
2450
  8
0
 10
138.8495209773539898
 20
-4.4696231757302511
 30
0.0
 40
3.0000228505319861
 50
2.127834349764028
 51
16.3141808675987399
  0
ARC
  5
2451
  8
0
 10
142.323812060661993
 20
-3.5306156163221001
 30
0.0
 40
0.0311564039785726
 50
37.6625406694300224
 51
96.0580288291672275
  0
LINE
  5
2452
  8
0
 10
142.3484761920475137
 20
-3.5115787538738079
 30
0.0
 11
142.4148300787936137
 21
-3.5996807296750459
 31
0.0
  0
ARC
  5
2453
  8
0
 10
142.3907407365140045
 20
-3.6185724797372369
 30
0.0
 40
0.030613634738106
 50
344.2053124739625218
 51
38.1048499208198308
  0
ARC
  5
2454
  8
0
 10
145.5151364916673913
 20
-4.5023744790684104
 30
0.0
 40
3.2163780204471171
 50
164.2053124739626071
 51
178.5279183238025098
  0
ARC
  5
2455
  8
0
 10
142.2698259681610864
 20
-4.4192486983443269
 30
0.0
 40
0.0299981578549498
 50
269.9976390518265816
 51
359.049692955186174
  0
LINE
  5
2456
  8
0
 10
142.2698259681610864
 20
-4.4492468561992773
 30
0.0
 11
142.1318719884880011
 21
-4.449246809963352
 31
0.0
  0
LINE
  5
2457
  8
0
 10
142.1318717934474876
 20
-5.0690816124738101
 30
0.0
 11
142.1318720137475111
 21
-4.3738802535738088
 31
0.0
  0
ARC
  5
2458
  8
0
 10
142.1074083110322874
 20
-4.3736442062241458
 30
0.0
 40
0.0244648401201385
 50
359.4475084119242183
 51
23.6876029350331194
  0
ARC
  5
2459
  8
0
 10
142.1157571629547078
 20
-4.3741283204269532
 30
0.0
 40
0.0174325207970789
 50
36.2697172649398283
 51
52.9503729863695014
  0
ARC
  5
245A
  8
0
 10
142.116891055095806
 20
-4.3813715733385301
 30
0.0
 40
0.0231382140615818
 50
66.1133714221046773
 51
90.6371402381017646
  0
LINE
  5
245B
  8
0
 10
142.1166337589475859
 20
-4.3582347898833538
 30
0.0
 11
141.4203184122474966
 21
-4.3582347898833538
 31
0.0
  0
ARC
  5
245C
  8
0
 10
141.4203184807601019
 20
-4.3826303461101714
 30
0.0
 40
0.024395556226913
 50
90.0001609098358983
 51
113.2468934052811989
  0
ARC
  5
245D
  8
0
 10
141.4211942812777068
 20
-4.374130665389294
 30
0.0
 40
0.0174350450914548
 50
127.0490194767080965
 51
143.7305057719123909
  0
ARC
  5
245E
  8
0
 10
141.4322425457490908
 20
-4.374198547320689
 30
0.0
 40
0.0271672289330715
 50
157.5325776940532023
 51
179.3367629786274904
  0
LINE
  5
245F
  8
0
 10
141.4050771369475115
 20
-4.3738840754738089
 30
0.0
 11
141.4050773693319059
 21
-5.0690350387066534
 31
0.0
  0
ARC
  5
2460
  8
0
 10
141.4291542442435912
 20
-5.069314886604027
 30
0.0
 40
0.0240780109819361
 50
179.4449072825638893
 51
203.9011316010065968
  0
ARC
  5
2461
  8
0
 10
141.4212271619473995
 20
-5.0687193599738709
 30
0.0
 40
0.0174803279999193
 50
216.3096818524408036
 51
233.2698311443155887
  0
ARC
  5
2462
  8
0
 10
141.4201623283848051
 20
-5.0619552257475862
 30
0.0
 40
0.0227972343610842
 50
245.6783813957513871
 51
270.9134199912865029
  0
LINE
  5
2463
  8
0
 10
141.4205257507474869
 20
-5.0847495631738093
 30
0.0
 11
142.1163349456799949
 21
-5.0847495687738089
 31
0.0
  0
ARC
  5
2464
  8
0
 10
142.1166501438169973
 20
-5.0613074094698121
 30
0.0
 40
0.023444278251972
 50
269.2296597068332176
 51
293.9739400624301879
  0
ARC
  5
2465
  8
0
 10
142.1157200952575863
 20
-5.0687174803668666
 30
0.0
 40
0.0174829653368459
 50
306.7314536434996057
 51
323.6890304611167153
  0
ARC
  5
2466
  8
0
 10
142.1070998059057899
 20
-5.0691712612343141
 30
0.0
 40
0.0247721497587118
 50
336.4465440422355869
 51
0.2073500635772376
  0
LINE
  5
2467
  8
0
 10
141.5116953355475005
 20
-4.4646712461738094
 30
0.0
 11
142.0252538145475114
 21
-4.4646712461738094
 31
0.0
  0
LINE
  5
2468
  8
0
 10
142.0252538145475114
 20
-4.4646712461738094
 30
0.0
 11
142.0252538145475114
 21
-4.9782297251738088
 31
0.0
  0
LINE
  5
2469
  8
0
 10
142.0252538145475114
 20
-4.9782297251738088
 30
0.0
 11
141.5116953355475005
 21
-4.9782297251738088
 31
0.0
  0
LINE
  5
246A
  8
0
 10
141.5116953355475005
 20
-4.9782297251738088
 30
0.0
 11
141.5116953355475005
 21
-4.4646712461738094
 31
0.0
  0
LINE
  5
246B
  8
0
 10
141.5116953355475005
 20
-4.4646712461738094
 30
0.0
 11
141.4087822626206901
 21
-4.361886377325022
 31
0.0
  0
LINE
  5
246C
  8
0
 10
142.0252538145475114
 20
-4.4646712461738094
 30
0.0
 11
142.1282356905387871
 21
-4.3619554353673351
 31
0.0
  0
LINE
  5
246D
  8
0
 10
142.0252538145475114
 20
-4.9782297251738088
 30
0.0
 11
142.1279311932945006
 21
-5.0812292013396361
 31
0.0
  0
LINE
  5
246E
  8
0
 10
141.5116953355475005
 20
-4.9782297251738088
 30
0.0
 11
141.4088214308214049
 21
-5.0810343793491031
 31
0.0
  0
ARC
  5
246F
  8
0
 10
133.7103418044592047
 20
-195.4528726574027075
 30
0.0
 40
191.1407070937283947
 50
87.6928251632296849
 51
88.7420157079505287
  0
ARC
  5
2470
  8
0
 10
137.8712803616382985
 20
-5.574287657691646
 30
0.0
 40
1.2165699620034149
 50
91.7744737910644943
 51
158.613964044421806
  0
LINE
  5
2471
  8
0
 10
136.7384776705418972
 20
-5.1306655938877048
 30
0.0
 11
137.590870523547494
 21
-5.5202710898738081
 31
0.0
  0
ARC
  5
2472
  8
0
 10
138.1786086720624951
 20
-5.7326150502370057
 30
0.0
 40
0.6249208659682722
 50
114.9203591087652967
 51
160.1357150918408081
  0
ARC
  5
2473
  8
0
 10
138.1787956036195908
 20
-5.733017385392901
 30
0.0
 40
0.6253645065713713
 50
89.0058447184865855
 51
114.9203591087652967
  0
ARC
  5
2474
  8
0
 10
5.1511115429114218
 20
-7671.6983630821496263
 30
0.0
 40
7667.7448396517293077
 50
88.9941662723200437
 51
89.0058447184865855
  0
ARC
  5
2475
  8
0
 10
186.8999646689184999
 20
2680.2834428107689746
 30
0.0
 40
2685.8323177924871743
 50
268.9941662723200011
 51
269.005833733887016
  0
ARC
  5
2476
  8
0
 10
140.2843196323871098
 20
-5.9944368274989772
 30
0.0
 40
0.8499978187978001
 50
7.2626309618367308
 51
89.000161891989336
  0
ARC
  5
2477
  8
0
 10
138.4494609232475
 20
-6.230664178973818
 30
0.0
 40
2.6999999999999842
 50
330.2447340397001767
 51
7.3130000733504614
  0
LINE
  5
2478
  8
0
 10
140.7934745750474974
 20
-7.5706641790391931
 30
0.0
 11
140.7934745750474974
 21
-7.6306641789738094
 31
0.0
  0
LINE
  5
2479
  8
0
 10
140.7934745750474974
 20
-7.6306641789738094
 30
0.0
 11
142.743474575047486
 21
-7.6306641789738094
 31
0.0
  0
LINE
  5
247A
  8
0
 10
142.743474575047486
 20
-7.6306641789738094
 30
0.0
 11
142.743474575047486
 21
-7.5706641789738081
 31
0.0
  0
ARC
  5
247B
  8
0
 10
153.7196284898105034
 20
-4.9749464907625693
 30
0.0
 40
11.2789053137908493
 50
177.9387658077814081
 51
193.3052642580659892
  0
ARC
  5
247C
  8
0
 10
142.388022288575911
 20
-4.5680784275366566
 30
0.0
 40
0.0600090847736726
 50
358.860613160135415
 51
87.4916728551461631
  0
LINE
  5
247D
  8
0
 10
142.3906485612475024
 20
-4.5081268391738094
 30
0.0
 11
142.1318991864474981
 21
-4.4973221259738088
 31
0.0
  0
LINE
  5
247E
  8
0
 10
141.7275827842811111
 20
-3.6183852699078329
 30
0.0
 11
142.4213537988298981
 21
-3.618385269907832
 31
0.0
  0
ARC
  5
247F
  8
0
 10
141.3775367601170956
 20
-4.9658779515591851
 30
0.0
 40
0.1564437357710037
 50
290.0821167369120985
 51
310.5271395434161832
  0
ARC
  5
2480
  8
0
 10
141.4379373885070947
 20
-5.1310901899817658
 30
0.0
 40
0.0194633977810799
 50
110.082116736912198
 51
180.4548184990657944
  0
LINE
  5
2481
  8
0
 10
141.4184745750474974
 20
-5.267221659373809
 30
0.0
 11
141.4184746039474874
 21
-5.1312446903738094
 31
0.0
  0
LINE
  5
2482
  8
0
 10
142.142474575047487
 20
-5.267221659373809
 30
0.0
 11
141.3944745750474965
 21
-5.267221659373809
 31
0.0
  0
LINE
  5
2483
  8
0
 10
141.3944745750474965
 20
-5.267221659373809
 30
0.0
 11
141.3944745750474965
 21
-5.2908216593738091
 31
0.0
  0
LINE
  5
2484
  8
0
 10
141.3944745750474965
 20
-5.2908216593738091
 30
0.0
 11
142.142474575047487
 21
-5.2908216593738091
 31
0.0
  0
LINE
  5
2485
  8
0
 10
142.142474575047487
 20
-5.2908216593738091
 30
0.0
 11
142.142474575047487
 21
-5.267221659373809
 31
0.0
  0
ARC
  5
2486
  8
0
 10
141.4348720131474977
 20
-5.320821659373804
 30
0.0
 40
0.0299999999999951
 50
95.3609237067960862
 51
158.5650400141057048
  0
ARC
  5
2487
  8
0
 10
135.4100866148370983
 20
-5.1016496184736839
 30
0.0
 40
6.0004737825914898
 50
336.7549687739938804
 51
358.0115112334174796
  0
LINE
  5
2488
  8
0
 10
140.8700853914475033
 20
-7.5208216593738086
 30
0.0
 11
142.6668637586475086
 21
-7.5208216593738086
 31
0.0
  0
ARC
  5
2489
  8
0
 10
142.6668637586475086
 20
-7.534601187034899
 30
0.0
 40
0.0137795276610904
 50
22.2861506964858016
 51
90.0
  0
ARC
  5
248A
  8
0
 10
142.5054824547046053
 20
-7.6007429179904422
 30
0.0
 40
0.188188970742864
 50
359.9999995483756834
 51
22.2861506964858016
  0
LINE
  5
248B
  8
0
 10
142.6936714254474907
 20
-7.6007429194738094
 30
0.0
 11
142.6936714252115905
 21
-7.6306641789738103
 31
0.0
  0
ARC
  5
248C
  8
0
 10
140.8700853911851993
 20
-7.5346011866017237
 30
0.0
 40
0.0137795272279147
 50
89.9999989092861057
 51
157.7138629555861087
  0
ARC
  5
248D
  8
0
 10
141.031466908223905
 20
-7.6007429599819618
 30
0.0
 40
0.1881891835763454
 50
157.7138629555861087
 51
179.9999875756145116
  0
LINE
  5
248E
  8
0
 10
140.8432777246474927
 20
-7.6007429191738094
 30
0.0
 11
140.843277718159186
 21
-7.6306641789738094
 31
0.0
  0
ARC
  5
248F
  8
0
 10
141.0227166140049917
 20
-4.6355065079537834
 30
0.0
 40
0.9787450686004859
 50
292.4426603378037157
 51
312.6682751935235842
  0
ARC
  5
2490
  8
0
 10
141.9615826317049994
 20
-5.6540769030856728
 30
0.0
 40
0.406518461934777
 50
123.6882007203928993
 51
132.6682751935236979
  0
ARC
  5
2491
  8
0
 10
141.7684746271870893
 20
-5.4006731161185106
 30
0.0
 40
0.09081484242637
 50
69.1139080509272361
 51
110.886318288860096
  0
ARC
  5
2492
  8
0
 10
141.5922327726075878
 20
-5.6287779400797211
 30
0.0
 40
0.3761127161693317
 50
47.7520913241026292
 51
56.3120256193894377
  0
ARC
  5
2493
  8
0
 10
142.5562621286167087
 20
-4.5673865495297159
 30
0.0
 40
1.0577297728025621
 50
227.7520913241027927
 51
246.9708358396939047
  0
ARC
  5
2494
  8
0
 10
142.1020771369475142
 20
-5.3208216593738022
 30
0.0
 40
0.0299999999999924
 50
21.4349599858895097
 51
84.6390762932038996
  0
ARC
  5
2495
  8
0
 10
148.1263921195545095
 20
-5.1017549132209163
 30
0.0
 40
5.9999999972307396
 50
181.9876397527278868
 51
203.2458802421174084
  0
LINE
  5
2496
  8
0
 10
142.6134745750474906
 20
-7.4698216593738103
 30
0.0
 11
142.6134745750474906
 21
-7.5208216593738104
 31
0.0
  0
LINE
  5
2497
  8
0
 10
140.9234745750474929
 20
-7.4698216593738103
 30
0.0
 11
140.9234745750474929
 21
-7.5208216593738086
 31
0.0
  0
LINE
  5
2498
  8
0
 10
140.9234745750474929
 20
-7.4698216593738103
 30
0.0
 11
142.6134745750474906
 21
-7.4698216593738103
 31
0.0
  0
LINE
  5
2499
  8
0
 10
141.4050771918475107
 20
-4.5396080566738091
 30
0.0
 11
139.767277686743796
 21
-4.4953550176233099
 31
0.0
  0
LINE
  5
249A
  8
0
 10
139.767277686743796
 20
-4.4953550176233099
 30
0.0
 11
137.9044527017202029
 21
-4.4501240371914372
 31
0.0
  0
ARC
  5
249B
  8
0
 10
137.8763973405928027
 20
-5.6055760564235282
 30
0.0
 40
1.1557925731010299
 50
88.6090828753392259
 51
157.4745552019213051
  0
ARC
  5
249C
  8
0
 10
138.2023171262906942
 20
-5.8430450847736246
 30
0.0
 40
0.8079584481562307
 50
112.8389985061840974
 51
152.6423641623437959
  0
ARC
  5
249D
  8
0
 10
138.1652750396918066
 20
-5.7550930683236761
 30
0.0
 40
0.7125243170645974
 50
87.9487889727931957
 51
112.8389985061841969
  0
ARC
  5
249E
  8
0
 10
139.7189786571429124
 20
37.6254386423695806
 30
0.0
 40
42.6958219591222274
 50
267.9487889727932952
 51
270.0461261023642123
  0
ARC
  5
249F
  8
0
 10
139.7654938442117896
 20
-20.1536319918723805
 30
0.0
 40
15.0832673987012207
 50
87.9684267389563672
 51
90.046126102364255
  0
ARC
  5
24A0
  8
0
 10
140.3020014346543007
 20
-5.9228501039272361
 30
0.0
 40
0.8430067544817996
 50
354.0431578297767032
 51
90.1225120134040338
  0
LINE
  5
24A1
  8
0
 10
136.8532450496475121
 20
-5.183122628873809
 30
0.0
 11
136.8262656669716932
 21
-5.2421490882208728
 31
0.0
  0
LINE
  5
24A2
  8
0
 10
136.8171706809474983
 20
-5.2379920184738094
 30
0.0
 11
137.4538197037475129
 21
-5.5289869012738091
 31
0.0
  0
LINE
  5
24A3
  8
0
 10
137.4717041004495002
 20
-5.4658033720694217
 30
0.0
 11
137.4447247177475049
 21
-5.5248298314738093
 31
0.0
  0
LINE
  5
24A4
  8
0
 10
137.4538197037475129
 20
-5.5289869012738091
 30
0.0
 11
137.4018563318763881
 21
-5.6426742266870384
 31
0.0
  0
LINE
  5
24A5
  8
0
 10
137.4018563318763881
 20
-5.6426742266870384
 30
0.0
 11
136.7652073090247882
 21
-5.3516793440234514
 31
0.0
  0
LINE
  5
24A6
  8
0
 10
136.7652073090247882
 20
-5.3516793440234514
 30
0.0
 11
136.8171706809710884
 21
-5.2379920184846123
 31
0.0
  0
LINE
  5
24A7
  8
0
 10
136.8552476708449888
 20
-5.3928343345793008
 30
0.0
 11
136.8424023253186022
 21
-5.4209378414063067
 31
0.0
  0
LINE
  5
24A8
  8
0
 10
136.8424023253186022
 20
-5.4209378414063067
 30
0.0
 11
137.2989706242003081
 21
-5.6296227436146786
 31
0.0
  0
LINE
  5
24A9
  8
0
 10
137.2989706242003081
 20
-5.6296227436146786
 30
0.0
 11
137.3118159700474905
 21
-5.6015192361738091
 31
0.0
  0
LINE
  5
24AA
  8
0
 10
142.118474575047486
 20
-5.267221659373809
 30
0.0
 11
142.118474575047486
 21
-5.1312554428738091
 31
0.0
  0
ARC
  5
24AB
  8
0
 10
142.0987724638789018
 20
-5.1312554428738082
 30
0.0
 40
0.0197021111685771
 50
0.0000000000013231
 51
62.574006425615579
  0
ARC
  5
24AC
  8
0
 10
142.1604056741450108
 20
-4.9651243650332102
 30
0.0
 40
0.1576617558388633
 50
229.3668399222760002
 51
250.5270642078087064
  0
ARC
  5
24AD
  8
0
 10
137.895874969726691
 20
-32.7137393413237234
 30
0.0
 40
28.3555066115679111
 50
89.9781593287869867
 51
90.1258167093942291
  0
LINE
  5
24AE
  8
0
 10
142.168569063247503
 20
-4.4492468222625501
 30
0.0
 11
142.168569063247503
 21
-4.4988533663959718
 31
0.0
  0
ENDSEC
  0
EOF
