  0
SECTION
  2
HEADER
  9
$ACADVER
  1
AC1009
  9
$INSBASE
 10
3330.4348582087418436
 20
195.8161263205093974
 30
0.0
  9
$EXTMIN
 10
3328.2104485675640717
 20
192.548408771505791
 30
0.0
  9
$EXTMAX
 10
3332.6592678499209796
 20
199.0838430483896957
 30
0.0
  9
$LIMMIN
 10
0.0
 20
0.0
  9
$LIMMAX
 10
11.6929133858000007
 20
8.2677165353999982
  9
$ORTHOMODE
 70
     0
  9
$REGENMODE
 70
     1
  9
$FILLMODE
 70
     1
  9
$QTEXTMODE
 70
     0
  9
$MIRRTEXT
 70
     0
  9
$DRAGMODE
 70
     2
  9
$LTSCALE
 40
0.6431102362
  9
$OSMODE
 70
  4095
  9
$ATTMODE
 70
     1
  9
$TEXTSIZE
 40
0.2
  9
$TRACEWID
 40
0.05
  9
$TEXTSTYLE
  7
STANDARD
  9
$CLAYER
  8
0
  9
$CELTYPE
  6
BYLAYER
  9
$CECOLOR
 62
   256
  9
$DIMSCALE
 40
1.0
  9
$DIMASZ
 40
0.1875
  9
$DIMEXO
 40
0.0625
  9
$DIMDLI
 40
0.4443307087
  9
$DIMRND
 40
0.0
  9
$DIMDLE
 40
0.0
  9
$DIMEXE
 40
0.125
  9
$DIMTP
 40
0.01
  9
$DIMTM
 40
0.01
  9
$DIMTXT
 40
2.0
  9
$DIMCEN
 40
0.1052362205
  9
$DIMTSZ
 40
0.0
  9
$DIMTOL
 70
     1
  9
$DIMLIM
 70
     0
  9
$DIMTIH
 70
     1
  9
$DIMTOH
 70
     1
  9
$DIMSE1
 70
     0
  9
$DIMSE2
 70
     0
  9
$DIMTAD
 70
     0
  9
$DIMZIN
 70
     0
  9
$DIMBLK
  1

  9
$DIMASO
 70
     1
  9
$DIMSHO
 70
     1
  9
$DIMPOST
  1
\X
  9
$DIMAPOST
  1

  9
$DIMALT
 70
     1
  9
$DIMALTD
 70
     2
  9
$DIMALTF
 40
25.3999999999999986
  9
$DIMLFAC
 40
1.0
  9
$DIMTOFL
 70
     0
  9
$DIMTVP
 40
0.0
  9
$DIMTIX
 70
     0
  9
$DIMSOXD
 70
     0
  9
$DIMSAH
 70
     0
  9
$DIMBLK1
  1

  9
$DIMBLK2
  1

  9
$DIMSTYLE
  2
STANDARD
  9
$DIMCLRD
 70
     0
  9
$DIMCLRE
 70
     0
  9
$DIMCLRT
 70
     0
  9
$DIMTFAC
 40
1.0
  9
$DIMGAP
 40
0.09
  9
$LUNITS
 70
     2
  9
$LUPREC
 70
     4
  9
$SKETCHINC
 40
0.1
  9
$FILLETRAD
 40
0.0
  9
$AUNITS
 70
     0
  9
$AUPREC
 70
     0
  9
$MENU
  1
.
  9
$ELEVATION
 40
0.0
  9
$PELEVATION
 40
0.0
  9
$THICKNESS
 40
0.0
  9
$LIMCHECK
 70
     0
  9
$BLIPMODE
 70
     0
  9
$CHAMFERA
 40
0.0
  9
$CHAMFERB
 40
0.0
  9
$SKPOLY
 70
     0
  9
$TDCREATE
 40
2458060.468368056230247
  9
$TDUPDATE
 40
2459562.7466435190290213
  9
$TDINDWG
 40
0.4275880787
  9
$TDUSRTIMER
 40
0.4275880787
  9
$USRTIMER
 70
     1
  9
$ANGBASE
 50
0.0
  9
$ANGDIR
 70
     0
  9
$PDMODE
 70
     0
  9
$PDSIZE
 40
0.3125
  9
$PLINEWID
 40
0.0
  9
$COORDS
 70
     1
  9
$SPLFRAME
 70
     0
  9
$SPLINETYPE
 70
     6
  9
$SPLINESEGS
 70
     8
  9
$ATTDIA
 70
     1
  9
$ATTREQ
 70
     1
  9
$HANDLING
 70
     1
  9
$HANDSEED
  5
884A
  9
$SURFTAB1
 70
     6
  9
$SURFTAB2
 70
     6
  9
$SURFTYPE
 70
     6
  9
$SURFU
 70
     6
  9
$SURFV
 70
     6
  9
$UCSNAME
  2

  9
$UCSORG
 10
0.0
 20
0.0
 30
0.0
  9
$UCSXDIR
 10
1.0
 20
0.0
 30
0.0
  9
$UCSYDIR
 10
0.0
 20
1.0
 30
0.0
  9
$PUCSNAME
  2

  9
$PUCSORG
 10
0.0
 20
0.0
 30
0.0
  9
$PUCSXDIR
 10
1.0
 20
0.0
 30
0.0
  9
$PUCSYDIR
 10
0.0
 20
1.0
 30
0.0
  9
$USERI1
 70
     0
  9
$USERI2
 70
     0
  9
$USERI3
 70
     0
  9
$USERI4
 70
     0
  9
$USERI5
 70
     0
  9
$USERR1
 40
0.0
  9
$USERR2
 40
0.0
  9
$USERR3
 40
0.0
  9
$USERR4
 40
0.0
  9
$USERR5
 40
0.0
  9
$WORLDVIEW
 70
     1
  9
$SHADEDGE
 70
     3
  9
$SHADEDIF
 70
    70
  9
$TILEMODE
 70
     1
  9
$MAXACTVP
 70
    64
  9
$PLIMCHECK
 70
     0
  9
$PEXTMIN
 10
1.0000000000000000E+20
 20
1.0000000000000000E+20
 30
1.0000000000000000E+20
  9
$PEXTMAX
 10
-1.0000000000000000E+20
 20
-1.0000000000000000E+20
 30
-1.0000000000000000E+20
  9
$PLIMMIN
 10
0.0
 20
0.0
  9
$PLIMMAX
 10
12.0
 20
9.0
  9
$UNITMODE
 70
     0
  9
$VISRETAIN
 70
     1
  9
$PLINEGEN
 70
     0
  9
$PSLTSCALE
 70
     1
  0
ENDSEC
  0
SECTION
  2
TABLES
  0
TABLE
  2
VPORT
 70
     1
  0
VPORT
  2
*ACTIVE
 70
     0
 10
0.0
 20
0.0
 11
1.0
 21
1.0
 12
256.8672572790641198
 22
-0.4729774267509371
 13
0.0
 23
0.0
 14
1.0
 24
1.0
 15
0.0
 25
0.0
 16
0.0
 26
0.0
 36
95.5902297660485658
 17
3089.811279296875
 27
197.161570589386713
 37
0.0
 40
71.1154162867355097
 41
2.000833333333333
 42
50.0
 43
0.0
 44
0.0
 50
0.0
 51
0.0
 71
     0
 72
   100
 73
     1
 74
     1
 75
     0
 76
     0
 77
     0
 78
     0
  0
ENDTAB
  0
TABLE
  2
LTYPE
 70
     2
  0
LTYPE
  2
CONTINUOUS
 70
     0
  3
Solid line
 72
    65
 73
     0
 40
0.0
  0
LTYPE
  2
PHANTOM2
 70
     0
  3
___ _ _ ___ _ _ ___ _ _ ___ _ _
 72
    65
 73
     6
 40
1.25
 49
0.625
 49
-0.125
 49
0.125
 49
-0.125
 49
0.125
 49
-0.125
  0
ENDTAB
  0
TABLE
  2
LAYER
 70
     2
  0
LAYER
  2
0
 70
     0
 62
   255
  6
CONTINUOUS
  0
LAYER
  2
DEFPOINTS
 70
     0
 62
     7
  6
CONTINUOUS
  0
ENDTAB
  0
TABLE
  2
STYLE
 70
     1
  0
STYLE
  2
STANDARD
 70
     0
 40
0.0
 41
0.8
 50
0.0
 71
     0
 42
0.2
  3
txt
  4

  0
ENDTAB
  0
TABLE
  2
VIEW
 70
     0
  0
ENDTAB
  0
TABLE
  2
UCS
 70
     0
  0
ENDTAB
  0
TABLE
  2
APPID
 70
     9
  0
APPID
  2
ACAD
 70
     0
  0
APPID
  2
ACAD_MLEADERVER
 70
     0
  0
APPID
  2
ACAD_EXEMPT_FROM_CAD_STANDARDS
 70
     0
  0
APPID
  2
ACAD_NAV_VCDISPLAY
 70
     0
  0
APPID
  2
ACAECLAYERSTANDARD
 70
     0
  0
APPID
  2
ACCMTRANSPARENCY
 70
     0
  0
APPID
  2
ACAD_DSTYLE_DIMJAG
 70
     0
  0
APPID
  2
ACAD_DSTYLE_DIMTALN
 70
     0
  0
APPID
  2
ACDBATTR
 70
     0
  0
ENDTAB
  0
TABLE
  2
DIMSTYLE
 70
     1
  0
DIMSTYLE
  2
STANDARD
 70
     0
  3

  4

  5

  6

  7

 40
1.0
 41
0.1875
 42
0.0625
 43
0.38
 44
0.125
 45
0.0
 46
0.0
 47
0.01
 48
0.01
140
0.15625
141
0.09
142
0.0
143
25.3999999999999986
144
1.0
145
0.0
146
1.0
147
0.09
 71
     1
 72
     0
 73
     1
 74
     1
 75
     0
 76
     0
 77
     0
 78
     4
170
     0
171
     2
172
     0
173
     0
174
     0
175
     0
176
     0
177
     0
178
     0
  0
ENDTAB
  0
ENDSEC
  0
SECTION
  2
BLOCKS
  0
BLOCK
  8
0
  2
$MODEL_SPACE
 70
     0
 10
0.0
 20
0.0
 30
0.0
  3
$MODEL_SPACE
  1

  0
ENDBLK
  5
21
  8
0
  0
BLOCK
 67
     1
  8
0
  2
$PAPER_SPACE
 70
     0
 10
0.0
 20
0.0
 30
0.0
  3
$PAPER_SPACE
  1

  0
ENDBLK
  5
1D
 67
     1
  8
0
  0
BLOCK
  8
0
  2
_FILLED
 70
     0
 10
0.0
 20
0.0
 30
0.0
  3
_FILLED
  1

  0
SOLID
  5
7FAE
  8
0
  6
BYBLOCK
 62
     0
 10
0.0
 20
0.0
 30
0.0
 11
-1.0
 21
0.1666666667
 31
0.0
 12
-1.0
 22
-0.1666666667
 32
0.0
 13
-1.0
 23
-0.1666666667
 33
0.0
  0
ENDBLK
  5
7FAF
  8
0
  6
BYBLOCK
 62
     0
  0
ENDSEC
  0
SECTION
  2
ENTITIES
  0
ATTDEF
  5
3930
  8
DEFPOINTS
 10
3330.437538422230773
 20
195.8203806580405058
 30
0.0
 40
0.001
  1
K-45367T-4
  3

  2
MODELNUMBER
 70
     0
1001
ACDBATTR
1070
     0
1070
     1
  0
ATTDEF
  5
3931
  8
DEFPOINTS
 10
3330.437538422230773
 20
195.8187139913738122
 30
0.0
 40
0.001
  1
OBLA
  3

  2
TRADENAME
 70
     0
1001
ACDBATTR
1070
     0
1070
     1
  0
ATTDEF
  5
3932
  8
DEFPOINTS
 10
3330.437538422230773
 20
195.8170473247070902
 30
0.0
 40
0.001
  1
VALVE TRIM
  3

  2
PRODUCT
 70
     0
1001
ACDBATTR
1070
     0
1070
     1
  0
ARC
  5
86AB
  8
0
 10
3328.3670843256850276
 20
198.9272072902745094
 30
0.0
 40
0.1566357581152667
 50
89.9102025821705269
 51
180.0897974950943023
  0
LINE
  5
86AC
  8
0
 10
3328.2104487599431195
 20
198.9269618011113891
 30
0.0
 11
3328.2104487599431195
 21
192.7052908399114131
 31
0.0
  0
ARC
  5
86AD
  8
0
 10
3328.4002273107639667
 20
192.7381894639291033
 30
0.0
 40
0.1375049934069002
 50
180.0149581214529064
 51
269.9860810399106867
  0
ARC
  5
86AE
  8
0
 10
3328.3670843256900298
 20
192.705045350758013
 30
0.0
 40
0.1566357581252461
 50
179.9102025345254958
 51
270.0897974666568189
  0
LINE
  5
86AF
  8
0
 10
3328.2627223220429187
 20
192.7381535657114
 30
0.0
 11
3328.262725441143175
 21
198.8940990710113965
 31
0.0
  0
ARC
  5
86B0
  8
0
 10
3328.4002210042431216
 20
198.8940702020769038
 30
0.0
 40
0.137495566131361
 50
90.0113480558642607
 51
179.9879700257590969
  0
LINE
  5
86B1
  8
0
 10
3328.4001937707430443
 20
192.6006868739113997
 30
0.0
 11
3332.4695226424428256
 21
192.6006844719113928
 31
0.0
  0
LINE
  5
86B2
  8
0
 10
3328.3673298147427886
 20
192.5484097851114029
 30
0.0
 11
3329.8766378479422201
 21
192.5484097850439866
 31
0.0
  0
LINE
  5
86B3
  8
0
 10
3329.995199246141965
 20
192.558743091754792
 30
0.0
 11
3330.1658557541418304
 21
192.558743091754792
 31
0.0
  0
LINE
  5
86B4
  8
0
 10
3330.2645753355418492
 20
192.5484097851073955
 30
0.0
 11
3330.6051410820418823
 21
192.5484097851073955
 31
0.0
  0
ARC
  5
86B5
  8
0
 10
3329.9913746233592065
 20
191.9004604924533055
 30
0.0
 40
0.6582937097961017
 50
89.6671151898856209
 51
94.6638943625368086
  0
ARC
  5
86B6
  8
0
 10
3329.87673531172004
 20
192.9812833163597077
 30
0.0
 40
0.4328735422879386
 50
269.9870995508878764
 51
271.500496839283926
  0
ARC
  5
86B7
  8
0
 10
3329.8793419551211628
 20
192.8860449353122988
 30
0.0
 40
0.3375995806482334
 50
271.4815101504929089
 51
273.2224707460542845
  0
ARC
  5
86B8
  8
0
 10
3329.8925239770760527
 20
192.6768529812794952
 30
0.0
 40
0.1280050764648203
 50
272.5949801981391829
 51
278.7166763510172132
  0
ARC
  5
86B9
  8
0
 10
3329.9082926135138223
 20
192.5722621919549908
 30
0.0
 40
0.0222341843465229
 50
279.3971899527815026
 51
286.4900502584036985
  0
ARC
  5
86BA
  8
0
 10
3329.9131089843531299
 20
192.5559321819789886
 30
0.0
 40
0.0052087497747199
 50
286.6768888146816039
 51
298.0767807631029882
  0
ARC
  5
86BB
  8
0
 10
3329.9125843412480208
 20
192.5554915859351865
 30
0.0
 40
0.005111070188107
 50
305.612305437407997
 51
318.9079625509803009
  0
ARC
  5
86BC
  8
0
 10
3329.9191367005591928
 20
192.5498123340331063
 30
0.0
 40
0.0035600497630966
 50
115.036767411425302
 51
139.3340970486709125
  0
ARC
  5
86BD
  8
0
 10
3329.9243272631460968
 20
192.5384714575492922
 30
0.0
 40
0.0160322326708867
 50
102.5876744216504051
 51
114.6914746241528036
  0
ARC
  5
86BE
  8
0
 10
3329.9479461081527916
 20
192.4264569070456901
 30
0.0
 40
0.1305087890325373
 50
94.4374870736270111
 51
101.990350093316593
  0
ARC
  5
86BF
  8
0
 10
3330.1696803769268627
 20
191.9004604924533055
 30
0.0
 40
0.6582937097961017
 50
85.3361056374632057
 51
90.3328848101143933
  0
ARC
  5
86C0
  8
0
 10
3330.2640070181619194
 20
192.7077339034549084
 30
0.0
 40
0.1593251319490893
 50
265.8883841652220212
 51
270.2043761457367737
  0
ARC
  5
86C1
  8
0
 10
3330.2555331188318632
 20
192.5905703986996116
 30
0.0
 40
0.0418556307244436
 50
260.2127920798172909
 51
265.9588909330366278
  0
ARC
  5
86C2
  8
0
 10
3330.249137152217827
 20
192.5539389696471915
 30
0.0
 40
0.0046707100306818
 50
241.7472642784690038
 51
261.1441591386969776
  0
ARC
  5
86C3
  8
0
 10
3330.2017298468158515
 20
192.505943286798697
 30
0.0
 40
0.0629943601731358
 50
44.1542605996247488
 51
45.845740409468263
  0
ARC
  5
86C4
  8
0
 10
3330.2373853523918115
 20
192.5438733704237109
 30
0.0
 40
0.0109756233710896
 50
41.4555402719010715
 51
56.6144414293022535
  0
ARC
  5
86C5
  8
0
 10
3330.2367277371399723
 20
192.5384714575492922
 30
0.0
 40
0.0160322326708867
 50
65.3085253758471254
 51
77.4123255783495239
  0
ARC
  5
86C6
  8
0
 10
3330.2131088921319133
 20
192.4264569070456901
 30
0.0
 40
0.1305087890325373
 50
78.0096499066834212
 51
85.5625129263730031
  0
LINE
  5
86C7
  8
0
 10
3328.3673298147427886
 20
199.0838428559113993
 30
0.0
 11
3332.5023866027431723
 21
199.0838428559113993
 31
0.0
  0
LINE
  5
86C8
  8
0
 10
3332.469522646842961
 20
199.03156576721139
 30
0.0
 11
3328.4001937717430337
 21
199.0315657655114023
 31
0.0
  0
ARC
  5
86C9
  8
0
 10
3332.5026320918000238
 20
198.9272072902745094
 30
0.0
 40
0.1566357581152667
 50
359.9102025049056124
 51
90.0897974178294874
  0
LINE
  5
86CA
  8
0
 10
3332.6592676575419318
 20
198.9269618011113891
 30
0.0
 11
3332.6592676575419318
 21
192.7052908399114131
 31
0.0
  0
ARC
  5
86CB
  8
0
 10
3332.4694891021099465
 20
192.7381894658402075
 30
0.0
 40
0.1375049980194246
 50
270.0139756341108068
 51
359.9850410827312999
  0
ARC
  5
86CC
  8
0
 10
3332.502632091795931
 20
192.705045350758013
 30
0.0
 40
0.1566357581252461
 50
269.9102025333431811
 51
0.0897974654745523
  0
LINE
  5
86CD
  8
0
 10
3332.6069940954430422
 20
192.7381535657114
 30
0.0
 11
3332.6069909763427859
 21
198.8940990710113965
 31
0.0
  0
ARC
  5
86CE
  8
0
 10
3332.4694954103388227
 20
198.8940702008738128
 30
0.0
 40
0.1374955690352453
 50
0.0120304753261521
 51
89.9886502760358269
  0
LINE
  5
86CF
  8
0
 10
3332.5023866028418524
 20
192.5484097851114029
 30
0.0
 11
3330.9930785696428757
 21
192.5484097850439866
 31
0.0
  0
LINE
  5
86D0
  8
0
 10
3330.8745171714422213
 20
192.558743091754792
 30
0.0
 11
3330.7038606634428106
 21
192.558743091754792
 31
0.0
  0
ARC
  5
86D1
  8
0
 10
3330.8783417942267988
 20
191.9004604924533055
 30
0.0
 40
0.6582937097961017
 50
85.3361056374632057
 51
90.3328848101143933
  0
ARC
  5
86D2
  8
0
 10
3330.9929811058659652
 20
192.9812833163597077
 30
0.0
 40
0.4328735422879386
 50
268.499503160716074
 51
270.0129004491121236
  0
ARC
  5
86D3
  8
0
 10
3330.990374462463933
 20
192.8860449353122988
 30
0.0
 40
0.3375995806482334
 50
266.7775292539457155
 51
268.5184898495070911
  0
ARC
  5
86D4
  8
0
 10
3330.9771924405099526
 20
192.6768529812794952
 30
0.0
 40
0.1280050764648203
 50
261.2833236489827868
 51
267.4050198018608171
  0
ARC
  5
86D5
  8
0
 10
3330.961423804072183
 20
192.5722621919549908
 30
0.0
 40
0.0222341843465229
 50
253.5099497415963867
 51
260.6028100472184974
  0
ARC
  5
86D6
  8
0
 10
3330.9566074332319658
 20
192.5559321819789886
 30
0.0
 40
0.0052087497747199
 50
241.9232192368970118
 51
253.3231111853183961
  0
ARC
  5
86D7
  8
0
 10
3330.957132076337075
 20
192.5554915859351865
 30
0.0
 40
0.005111070188107
 50
221.0920374490196991
 51
234.387694562592003
  0
ARC
  5
86D8
  8
0
 10
3330.9505797170259029
 20
192.5498123340331063
 30
0.0
 40
0.0035600497630966
 50
40.6659029513290591
 51
64.9632325885746269
  0
ARC
  5
86D9
  8
0
 10
3330.9453891544399085
 20
192.5384714575492922
 30
0.0
 40
0.0160322326708867
 50
65.3085253758471254
 51
77.4123255783495239
  0
ARC
  5
86DA
  8
0
 10
3330.9217703094318495
 20
192.4264569070456901
 30
0.0
 40
0.1305087890325373
 50
78.0096499066834212
 51
85.5625129263730031
  0
ARC
  5
86DB
  8
0
 10
3330.7000360406591426
 20
191.9004604924533055
 30
0.0
 40
0.6582937097961017
 50
89.6671151898856209
 51
94.6638943625368086
  0
ARC
  5
86DC
  8
0
 10
3330.6057093994231764
 20
192.7077339034549084
 30
0.0
 40
0.1593251319490893
 50
269.7956238542632263
 51
274.1116158347779788
  0
ARC
  5
86DD
  8
0
 10
3330.614183298754142
 20
192.5905703986996116
 30
0.0
 40
0.0418556307244436
 50
274.0411090669633722
 51
279.7872079201827091
  0
ARC
  5
86DE
  8
0
 10
3330.6205792653668141
 20
192.5539389696471915
 30
0.0
 40
0.0046707100306818
 50
278.8558408613030224
 51
298.2527357215309962
  0
ARC
  5
86DF
  8
0
 10
3330.6679865707687895
 20
192.505943286798697
 30
0.0
 40
0.0629943601731358
 50
134.1542595905316944
 51
135.8457394003752086
  0
ARC
  5
86E0
  8
0
 10
3330.6323310651928296
 20
192.5438733704237109
 30
0.0
 40
0.0109756233710896
 50
123.3855585706976967
 51
138.5444597280989001
  0
ARC
  5
86E1
  8
0
 10
3330.6329886804451235
 20
192.5384714575492922
 30
0.0
 40
0.0160322326708867
 50
102.5876744216504051
 51
114.6914746241528036
  0
ARC
  5
86E2
  8
0
 10
3330.6566075254531825
 20
192.4264569070456901
 30
0.0
 40
0.1305087890325373
 50
94.4374870736270111
 51
101.990350093316593
  0
ARC
  5
86F9
  8
0
 10
3330.4348582087927753
 20
195.7076500453009089
 30
0.0
 40
0.9545158506895338
 50
180.5000000030285889
 51
359.4999999919132279
  0
LINE
  5
86FA
  8
0
 10
3329.4803787031428328
 20
195.6993204287956019
 30
0.0
 11
3329.4702924380799232
 21
196.8594012491954004
 31
0.0
  0
LINE
  5
86FB
  8
0
 10
3331.3994115625628183
 20
196.8594054953327088
 30
0.0
 11
3331.3893377144431724
 21
195.699320428794806
 31
0.0
  0
ARC
  5
86FC
  8
0
 10
3330.4348520002431542
 20
196.8594389431113996
 30
0.0
 40
0.9645595628999998
 50
359.9980131693001226
 51
180.0022390553995137
  0
ARC
  5
86FD
  8
0
 10
3330.4348585771431317
 20
196.8594329944614003
 30
0.0
 40
0.9842523369000865
 50
348.0093881879548121
 51
191.9873988317235103
  0
ARC
  5
86FE
  8
0
 10
3330.4348520002431542
 20
196.8594389431113996
 30
0.0
 40
0.994088279715415
 50
345.4938690719437773
 51
194.5067585514721031
  0
ENDSEC
  0
EOF
