  0
SECTION
  2
HEADER
  9
$ACADVER
  1
AC1009
  9
$INSBASE
 10
7048.1652996055199765
 20
1450.6362581077460163
 30
0.0
  9
$EXTMIN
 10
7038.9920712590201219
 20
1438.0988565329460016
 30
0.0
  9
$EXTMAX
 10
7048.1765691073469497
 20
1458.716966769246028
 30
0.0
  9
$LIMMIN
 10
0.0
 20
0.0
  9
$LIMMAX
 10
11.6929133858000007
 20
8.2677165353999982
  9
$ORTHOMODE
 70
     0
  9
$REGENMODE
 70
     1
  9
$FILLMODE
 70
     1
  9
$QTEXTMODE
 70
     0
  9
$MIRRTEXT
 70
     0
  9
$DRAGMODE
 70
     2
  9
$LTSCALE
 40
0.6431102362
  9
$OSMODE
 70
  4063
  9
$ATTMODE
 70
     1
  9
$TEXTSIZE
 40
0.2
  9
$TRACEWID
 40
0.05
  9
$TEXTSTYLE
  7
STANDARD
  9
$CLAYER
  8
0
  9
$CELTYPE
  6
BYLAYER
  9
$CECOLOR
 62
   256
  9
$DIMSCALE
 40
1.0
  9
$DIMASZ
 40
0.1875
  9
$DIMEXO
 40
0.0625
  9
$DIMDLI
 40
0.4443307087
  9
$DIMRND
 40
0.0
  9
$DIMDLE
 40
0.0
  9
$DIMEXE
 40
0.125
  9
$DIMTP
 40
0.01
  9
$DIMTM
 40
0.01
  9
$DIMTXT
 40
2.0
  9
$DIMCEN
 40
0.1052362205
  9
$DIMTSZ
 40
0.0
  9
$DIMTOL
 70
     1
  9
$DIMLIM
 70
     0
  9
$DIMTIH
 70
     1
  9
$DIMTOH
 70
     1
  9
$DIMSE1
 70
     0
  9
$DIMSE2
 70
     0
  9
$DIMTAD
 70
     0
  9
$DIMZIN
 70
     0
  9
$DIMBLK
  1

  9
$DIMASO
 70
     1
  9
$DIMSHO
 70
     1
  9
$DIMPOST
  1
\X
  9
$DIMAPOST
  1

  9
$DIMALT
 70
     1
  9
$DIMALTD
 70
     2
  9
$DIMALTF
 40
25.3999999999999986
  9
$DIMLFAC
 40
1.0
  9
$DIMTOFL
 70
     0
  9
$DIMTVP
 40
0.0
  9
$DIMTIX
 70
     0
  9
$DIMSOXD
 70
     0
  9
$DIMSAH
 70
     0
  9
$DIMBLK1
  1

  9
$DIMBLK2
  1

  9
$DIMSTYLE
  2
STANDARD
  9
$DIMCLRD
 70
     0
  9
$DIMCLRE
 70
     0
  9
$DIMCLRT
 70
     0
  9
$DIMTFAC
 40
1.0
  9
$DIMGAP
 40
0.09
  9
$LUNITS
 70
     2
  9
$LUPREC
 70
     4
  9
$SKETCHINC
 40
0.1
  9
$FILLETRAD
 40
0.0
  9
$AUNITS
 70
     0
  9
$AUPREC
 70
     0
  9
$MENU
  1
.
  9
$ELEVATION
 40
0.0
  9
$PELEVATION
 40
0.0
  9
$THICKNESS
 40
0.0
  9
$LIMCHECK
 70
     0
  9
$BLIPMODE
 70
     0
  9
$CHAMFERA
 40
0.0
  9
$CHAMFERB
 40
0.0
  9
$SKPOLY
 70
     0
  9
$TDCREATE
 40
2458060.468368056230247
  9
$TDUPDATE
 40
2459480.6017476851120591
  9
$TDINDWG
 40
0.4008172454
  9
$TDUSRTIMER
 40
0.4008172454
  9
$USRTIMER
 70
     1
  9
$ANGBASE
 50
0.0
  9
$ANGDIR
 70
     0
  9
$PDMODE
 70
     0
  9
$PDSIZE
 40
0.3125
  9
$PLINEWID
 40
0.0
  9
$COORDS
 70
     1
  9
$SPLFRAME
 70
     0
  9
$SPLINETYPE
 70
     6
  9
$SPLINESEGS
 70
     8
  9
$ATTDIA
 70
     1
  9
$ATTREQ
 70
     1
  9
$HANDLING
 70
     1
  9
$HANDSEED
  5
E135
  9
$SURFTAB1
 70
     6
  9
$SURFTAB2
 70
     6
  9
$SURFTYPE
 70
     6
  9
$SURFU
 70
     6
  9
$SURFV
 70
     6
  9
$UCSNAME
  2

  9
$UCSORG
 10
0.0
 20
0.0
 30
0.0
  9
$UCSXDIR
 10
1.0
 20
0.0
 30
0.0
  9
$UCSYDIR
 10
0.0
 20
1.0
 30
0.0
  9
$PUCSNAME
  2

  9
$PUCSORG
 10
0.0
 20
0.0
 30
0.0
  9
$PUCSXDIR
 10
1.0
 20
0.0
 30
0.0
  9
$PUCSYDIR
 10
0.0
 20
1.0
 30
0.0
  9
$USERI1
 70
     0
  9
$USERI2
 70
     0
  9
$USERI3
 70
     0
  9
$USERI4
 70
     0
  9
$USERI5
 70
     0
  9
$USERR1
 40
0.0
  9
$USERR2
 40
0.0
  9
$USERR3
 40
0.0
  9
$USERR4
 40
0.0
  9
$USERR5
 40
0.0
  9
$WORLDVIEW
 70
     1
  9
$SHADEDGE
 70
     3
  9
$SHADEDIF
 70
    70
  9
$TILEMODE
 70
     1
  9
$MAXACTVP
 70
    64
  9
$PLIMCHECK
 70
     0
  9
$PEXTMIN
 10
1.0000000000000000E+20
 20
1.0000000000000000E+20
 30
1.0000000000000000E+20
  9
$PEXTMAX
 10
-1.0000000000000000E+20
 20
-1.0000000000000000E+20
 30
-1.0000000000000000E+20
  9
$PLIMMIN
 10
0.0
 20
0.0
  9
$PLIMMAX
 10
12.0
 20
9.0
  9
$UNITMODE
 70
     0
  9
$VISRETAIN
 70
     1
  9
$PLINEGEN
 70
     0
  9
$PSLTSCALE
 70
     1
  0
ENDSEC
  0
SECTION
  2
TABLES
  0
TABLE
  2
VPORT
 70
     1
  0
VPORT
  2
*ACTIVE
 70
     0
 10
0.0
 20
0.0
 11
1.0
 21
1.0
 12
2228.2859803394339906
 22
1200.5992873835180035
 13
0.0
 23
0.0
 14
1.0
 24
1.0
 15
0.0
 25
0.0
 16
0.0
 26
0.0
 36
9.5192988075487186
 17
4815.2983398437490905
 27
247.8086242675780966
 37
0.0
 40
20.7747034786009408
 41
2.0798479087452471
 42
50.0
 43
0.0
 44
0.0
 50
0.0
 51
0.0
 71
     0
 72
   100
 73
     1
 74
     1
 75
     0
 76
     0
 77
     0
 78
     0
  0
ENDTAB
  0
TABLE
  2
LTYPE
 70
     2
  0
LTYPE
  2
CONTINUOUS
 70
     0
  3
Solid line
 72
    65
 73
     0
 40
0.0
  0
LTYPE
  2
PHANTOM2
 70
     0
  3
___ _ _ ___ _ _ ___ _ _ ___ _ _
 72
    65
 73
     6
 40
1.25
 49
0.625
 49
-0.125
 49
0.125
 49
-0.125
 49
0.125
 49
-0.125
  0
ENDTAB
  0
TABLE
  2
LAYER
 70
     2
  0
LAYER
  2
0
 70
     0
 62
   255
  6
CONTINUOUS
  0
LAYER
  2
DEFPOINTS
 70
     0
 62
     7
  6
CONTINUOUS
  0
ENDTAB
  0
TABLE
  2
STYLE
 70
     1
  0
STYLE
  2
STANDARD
 70
     0
 40
0.0
 41
0.8
 50
0.0
 71
     0
 42
0.2
  3
txt
  4

  0
ENDTAB
  0
TABLE
  2
VIEW
 70
     0
  0
ENDTAB
  0
TABLE
  2
UCS
 70
     0
  0
ENDTAB
  0
TABLE
  2
APPID
 70
    10
  0
APPID
  2
ACAD
 70
     0
  0
APPID
  2
ACAD_MLEADERVER
 70
     0
  0
APPID
  2
ACAD_EXEMPT_FROM_CAD_STANDARDS
 70
     0
  0
APPID
  2
ACAD_NAV_VCDISPLAY
 70
     0
  0
APPID
  2
ACAECLAYERSTANDARD
 70
     0
  0
APPID
  2
ACCMTRANSPARENCY
 70
     0
  0
APPID
  2
ACAD_DSTYLE_DIMJAG
 70
     0
  0
APPID
  2
ACAD_DSTYLE_DIMTALN
 70
     0
  0
APPID
  2
ACDBATTR
 70
     0
  0
APPID
  2
ACADANNOTATIVE
 70
     0
  0
ENDTAB
  0
TABLE
  2
DIMSTYLE
 70
     2
  0
DIMSTYLE
  2
STANDARD
 70
     0
  3

  4

  5

  6

  7

 40
1.0
 41
0.1875
 42
0.0625
 43
0.38
 44
0.125
 45
0.0
 46
0.0
 47
0.01
 48
0.01
140
0.15625
141
0.09
142
0.0
143
25.3999999999999986
144
1.0
145
0.0
146
1.0
147
0.09
 71
     1
 72
     0
 73
     1
 74
     1
 75
     0
 76
     0
 77
     0
 78
     4
170
     0
171
     2
172
     0
173
     0
174
     0
175
     0
176
     0
177
     0
178
     0
  0
ENDTAB
  0
ENDSEC
  0
SECTION
  2
BLOCKS
  0
BLOCK
  8
0
  2
$MODEL_SPACE
 70
     0
 10
0.0
 20
0.0
 30
0.0
  3
$MODEL_SPACE
  1

  0
ENDBLK
  5
21
  8
0
  0
BLOCK
 67
     1
  8
0
  2
$PAPER_SPACE
 70
     0
 10
0.0
 20
0.0
 30
0.0
  3
$PAPER_SPACE
  1

  0
ENDBLK
  5
1D
 67
     1
  8
0
  0
BLOCK
  8
0
  2
_FILLED
 70
     0
 10
0.0
 20
0.0
 30
0.0
  3
_FILLED
  1

  0
SOLID
  5
DF7B
  8
0
  6
BYBLOCK
 62
     0
 10
0.0
 20
0.0
 30
0.0
 11
-1.0
 21
0.1666666667
 31
0.0
 12
-1.0
 22
-0.1666666667
 32
0.0
 13
-1.0
 23
-0.1666666667
 33
0.0
  0
ENDBLK
  5
DF7C
  8
0
  6
BYBLOCK
 62
     0
  0
ENDSEC
  0
SECTION
  2
ENTITIES
  0
ATTDEF
  5
3930
  8
DEFPOINTS
 10
7048.16590244067811
 20
1450.640052992308938
 30
0.0
 40
0.001
  1
K-45132T
  3

  2
MODELNUMBER
 70
     0
1001
ACDBATTR
1070
     0
1070
     1
  0
ATTDEF
  5
3931
  8
DEFPOINTS
 10
7048.16590244067811
 20
1450.6383863256419318
 30
0.0
 40
0.001
  1
STILLNESS
  3

  2
TRADENAME
 70
     0
1001
ACDBATTR
1070
     0
1070
     1
  0
ATTDEF
  5
3932
  8
DEFPOINTS
 10
7048.16590244067811
 20
1450.6367196589760624
 30
0.0
 40
0.001
  1
HOTELIER
  3

  2
PRODUCT
 70
     0
1001
ACDBATTR
1070
     0
1070
     1
  0
LINE
  5
E011
  8
0
  6
CONTINUOUS
 10
7039.0935417421196689
 20
1458.0398014149459414
 30
0.0
 11
7039.082176579319821
 21
1458.0201163755459675
 31
0.0
  0
LINE
  5
E012
  8
0
  6
CONTINUOUS
 10
7039.082176579319821
 20
1456.9335022023460624
 30
0.0
 11
7039.0708114165208826
 21
1456.9138171629460885
 31
0.0
  0
LINE
  5
E013
  8
0
  6
CONTINUOUS
 10
7048.1652996055199765
 20
1442.5555494464460935
 30
0.0
 11
7047.9094090543194397
 21
1442.5555494464460935
 31
0.0
  0
ARC
  5
E014
  8
0
  6
CONTINUOUS
 10
7047.9094090543194397
 20
1442.5752494464459232
 30
0.0
 40
0.0197
 50
180.0
 51
270.0
  0
LINE
  5
E015
  8
0
  6
CONTINUOUS
 10
7044.8040791330204229
 20
1457.4768092889460149
 30
0.0
 11
7044.2410870071198588
 21
1456.9138171629460885
 31
0.0
  0
LINE
  5
E016
  8
0
  6
CONTINUOUS
 10
7045.3670712590210314
 20
1443.2327148007459527
 30
0.0
 11
7047.7479767708200598
 21
1443.2327148007459527
 31
0.0
  0
LINE
  5
E017
  8
0
  6
CONTINUOUS
 10
7038.9920712590201219
 20
1458.0004014149460545
 30
0.0
 11
7038.9920712590201219
 21
1456.9532171629459754
 31
0.0
  0
ARC
  5
E018
  8
0
  6
CONTINUOUS
 10
7039.0314712590188719
 20
1458.0004014149460545
 30
0.0
 40
0.0394
 50
90.0
 51
180.0
  0
ARC
  5
E019
  8
0
  6
CONTINUOUS
 10
7039.0314712590188719
 20
1456.9532171629459754
 30
0.0
 40
0.0394
 50
180.0
 51
270.0
  0
LINE
  5
E01A
  8
0
  6
CONTINUOUS
 10
7039.0708114165208826
 20
1456.9138171629460885
 30
0.0
 11
7039.0708114165208826
 21
1458.0398014149459414
 31
0.0
  0
LINE
  5
E01B
  8
0
  6
CONTINUOUS
 10
7039.082176579319821
 20
1458.0201163755459675
 30
0.0
 11
7039.082176579319821
 21
1456.9335022023460624
 31
0.0
  0
LINE
  5
E01C
  8
0
  6
CONTINUOUS
 10
7039.0935417421196689
 20
1458.0398014149459414
 30
0.0
 11
7039.0935417421196689
 21
1456.9138171629460885
 31
0.0
  0
LINE
  5
E01D
  8
0
  6
CONTINUOUS
 10
7045.3670712590210314
 20
1444.358699052746033
 30
0.0
 11
7047.88970905431961
 21
1444.358699052746033
 31
0.0
  0
LINE
  5
E01E
  8
0
  6
CONTINUOUS
 10
7047.2950351994204539
 20
1456.5791714936460721
 30
0.0
 11
7047.2903995258202485
 21
1456.5743491283460571
 31
0.0
  0
LINE
  5
E01F
  8
0
  6
CONTINUOUS
 10
7047.2676618102195789
 20
1456.5516124385460444
 30
0.0
 11
7047.2903993928202908
 21
1456.5743500211460741
 31
0.0
  0
LINE
  5
E020
  8
0
  6
CONTINUOUS
 10
7048.1652996055199765
 20
1445.0358644070458922
 30
0.0
 11
7047.9094090543194397
 21
1445.0358644070458922
 31
0.0
  0
LINE
  5
E021
  8
0
  6
CONTINUOUS
 10
7045.3670712590210314
 20
1443.2327148007459527
 30
0.0
 11
7044.8040791330204229
 21
1443.7957069267461065
 31
0.0
  0
LINE
  5
E022
  8
0
  6
CONTINUOUS
 10
7044.2410870071198588
 20
1456.9138171629460885
 30
0.0
 11
7044.2410870071198588
 21
1439.9374392102461115
 31
0.0
  0
LINE
  5
E023
  8
0
  6
CONTINUOUS
 10
7039.0935417421196689
 20
1456.9138171629460885
 30
0.0
 11
7039.082176579319821
 21
1456.9335022023460624
 31
0.0
  0
LINE
  5
E024
  8
0
  6
CONTINUOUS
 10
7039.082176579319821
 20
1458.0201163755459675
 30
0.0
 11
7039.0708114165208826
 21
1458.0398014149459414
 31
0.0
  0
LINE
  5
E025
  8
0
  6
CONTINUOUS
 10
7045.3670712590210314
 20
1456.9138171629460885
 30
0.0
 11
7045.3670712590210314
 21
1444.358699052746033
 31
0.0
  0
LINE
  5
E026
  8
0
  6
CONTINUOUS
 10
7045.3670712590210314
 20
1443.2327148007459527
 30
0.0
 11
7045.3670712590210314
 21
1439.9374392102461115
 31
0.0
  0
LINE
  5
E027
  8
0
  6
CONTINUOUS
 10
7046.6101814952198765
 20
1456.716966769246028
 30
0.0
 11
7046.6101814952198765
 21
1456.9138171629460885
 31
0.0
  0
LINE
  5
E028
  8
0
  6
CONTINUOUS
 10
7046.6338035425187627
 20
1456.6618486590459725
 30
0.0
 11
7046.6338035425187627
 21
1456.716966769246028
 31
0.0
  0
LINE
  5
E029
  8
0
  6
CONTINUOUS
 10
7046.633989208418825
 20
1456.6618486590459725
 30
0.0
 11
7046.633989208418825
 21
1456.5791714936460721
 31
0.0
  0
LINE
  5
E02A
  8
0
  6
CONTINUOUS
 10
7046.7403577271197719
 20
1456.5791714936460721
 30
0.0
 11
7046.7403577271197719
 21
1456.6618486590459725
 31
0.0
  0
LINE
  5
E02B
  8
0
  6
CONTINUOUS
 10
7046.7896550757195655
 20
1456.6618486590459725
 30
0.0
 11
7046.7896550757195655
 21
1456.5791714936460721
 31
0.0
  0
LINE
  5
E02C
  8
0
  6
CONTINUOUS
 10
7046.8542759834199387
 20
1456.4964943283459888
 30
0.0
 11
7046.8542759834199387
 21
1456.5516124385460444
 31
0.0
  0
LINE
  5
E02D
  8
0
  6
CONTINUOUS
 10
7046.8818350385199665
 20
1456.5516124385460444
 30
0.0
 11
7046.8818350385199665
 21
1456.4964943283459888
 31
0.0
  0
LINE
  5
E02E
  8
0
  6
CONTINUOUS
 10
7047.0471893693202219
 20
1456.4964943283459888
 30
0.0
 11
7047.0471893693202219
 21
1456.5516124385460444
 31
0.0
  0
LINE
  5
E02F
  8
0
  6
CONTINUOUS
 10
7047.0630109421208545
 20
1456.5791714936460721
 30
0.0
 11
7047.0630109421208545
 21
1456.6618486590459725
 31
0.0
  0
LINE
  5
E030
  8
0
  6
CONTINUOUS
 10
7047.0747484244202496
 20
1456.5516124385460444
 30
0.0
 11
7047.0747484244202496
 21
1456.4964943283459888
 31
0.0
  0
LINE
  5
E031
  8
0
  6
CONTINUOUS
 10
7047.1201780712208347
 20
1456.6618486590459725
 30
0.0
 11
7047.1201780712208347
 21
1456.5791714936460721
 31
0.0
  0
LINE
  5
E032
  8
0
  6
CONTINUOUS
 10
7047.2871654190203117
 20
1456.5791714936460721
 30
0.0
 11
7047.2871654190203117
 21
1456.6618486590459725
 31
0.0
  0
LINE
  5
E033
  8
0
  6
CONTINUOUS
 10
7047.2950351994204539
 20
1456.6618486590459725
 30
0.0
 11
7047.2950351994204539
 21
1456.5791714936460721
 31
0.0
  0
LINE
  5
E034
  8
0
  6
CONTINUOUS
 10
7047.2952208653214257
 20
1456.716966769246028
 30
0.0
 11
7047.2952208653214257
 21
1456.6618486590459725
 31
0.0
  0
LINE
  5
E035
  8
0
  6
CONTINUOUS
 10
7047.3188429126212213
 20
1456.716966769246028
 30
0.0
 11
7047.3188429126212213
 21
1456.9138171629460885
 31
0.0
  0
LINE
  5
E036
  8
0
  6
CONTINUOUS
 10
7047.88970905431961
 20
1458.6972747854460977
 30
0.0
 11
7047.88970905431961
 21
1456.2563437923458878
 31
0.0
  0
LINE
  5
E037
  8
0
  6
CONTINUOUS
 10
7047.88970905431961
 20
1445.0161644070460625
 30
0.0
 11
7047.88970905431961
 21
1442.5752494464459232
 31
0.0
  0
ARC
  5
E038
  8
0
  6
CONTINUOUS
 10
7047.9094090543194397
 20
1445.0161644070460625
 30
0.0
 40
0.0197
 50
90.0
 51
180.0
  0
LINE
  5
E039
  8
0
  6
CONTINUOUS
 10
7045.3670712590210314
 20
1444.358699052746033
 30
0.0
 11
7044.8040791330204229
 21
1443.7957069267461065
 31
0.0
  0
LINE
  5
E03A
  8
0
  6
CONTINUOUS
 10
7048.1652996055199765
 20
1442.5555494464460935
 30
0.0
 11
7048.1652996055199765
 21
1445.0358644070458922
 31
0.0
  0
LINE
  5
E03B
  8
0
  6
CONTINUOUS
 10
7048.1652996055199765
 20
1456.2366588099459932
 30
0.0
 11
7048.1652996055199765
 21
1458.7169597678459922
 31
0.0
  0
LINE
  5
E03C
  8
0
  6
CONTINUOUS
 10
7045.3670712590210314
 20
1456.9138171629460885
 30
0.0
 11
7044.8040791330204229
 21
1457.4768092889460149
 31
0.0
  0
LINE
  5
E03D
  8
0
  6
CONTINUOUS
 10
7048.1652996055199765
 20
1456.2366518086460019
 30
0.0
 11
7047.9093940937200387
 21
1456.2366518086460019
 31
0.0
  0
LINE
  5
E03E
  8
0
  6
CONTINUOUS
 10
7046.8542759834199387
 20
1456.4964943283459888
 30
0.0
 11
7047.0747484244202496
 21
1456.4964943283459888
 31
0.0
  0
LINE
  5
E03F
  8
0
  6
CONTINUOUS
 10
7046.6613720576197011
 20
1456.5516124385460444
 30
0.0
 11
7047.2676523502195778
 21
1456.5516124385460444
 31
0.0
  0
LINE
  5
E040
  8
0
  6
CONTINUOUS
 10
7046.7403577271197719
 20
1456.5791714936460721
 30
0.0
 11
7046.7896550757195655
 21
1456.5791714936460721
 31
0.0
  0
LINE
  5
E041
  8
0
  6
CONTINUOUS
 10
7047.0630109421208545
 20
1456.5791714936460721
 30
0.0
 11
7047.1201780713199696
 21
1456.5791714936460721
 31
0.0
  0
LINE
  5
E042
  8
0
  6
CONTINUOUS
 10
7047.2871654190203117
 20
1456.5791714936460721
 30
0.0
 11
7047.2950351994204539
 21
1456.5791714936460721
 31
0.0
  0
LINE
  5
E043
  8
0
  6
CONTINUOUS
 10
7046.6338035425187627
 20
1456.6618486590459725
 30
0.0
 11
7046.7403577271197719
 21
1456.6618486590459725
 31
0.0
  0
LINE
  5
E044
  8
0
  6
CONTINUOUS
 10
7046.7896550757195655
 20
1456.6618486590459725
 30
0.0
 11
7047.0630109421208545
 21
1456.6618486590459725
 31
0.0
  0
LINE
  5
E045
  8
0
  6
CONTINUOUS
 10
7047.1201780712208347
 20
1456.6618486590459725
 30
0.0
 11
7047.2871654190203117
 21
1456.6618486590459725
 31
0.0
  0
LINE
  5
E046
  8
0
  6
CONTINUOUS
 10
7047.2950351994204539
 20
1456.6618486590459725
 30
0.0
 11
7047.2952208653214257
 21
1456.6618486590459725
 31
0.0
  0
LINE
  5
E047
  8
0
  6
CONTINUOUS
 10
7046.6101814952198765
 20
1456.716966769246028
 30
0.0
 11
7047.3188429126212213
 21
1456.716966769246028
 31
0.0
  0
LINE
  5
E048
  8
0
  6
CONTINUOUS
 10
7046.6613625976187905
 20
1456.5516124385460444
 30
0.0
 11
7046.6386250150189881
 21
1456.5743500211460741
 31
0.0
  0
LINE
  5
E049
  8
0
  6
CONTINUOUS
 10
7046.633989208418825
 20
1456.5791714936460721
 30
0.0
 11
7046.6386248820199398
 21
1456.5743491283460571
 31
0.0
  0
LINE
  5
E04A
  8
0
  6
CONTINUOUS
 10
7047.6869531488200664
 20
1456.9138171629460885
 30
0.0
 11
7045.3670712590210314
 21
1456.9138171629460885
 31
0.0
  0
LINE
  5
E04B
  8
0
  6
CONTINUOUS
 10
7044.2410870071198588
 20
1456.9138171629460885
 30
0.0
 11
7039.0935417421196689
 21
1456.9138171629460885
 31
0.0
  0
LINE
  5
E04C
  8
0
  6
CONTINUOUS
 10
7039.0708114165208826
 20
1456.9138171629460885
 30
0.0
 11
7039.0314712590188719
 21
1456.9138171629460885
 31
0.0
  0
LINE
  5
E04D
  8
0
  6
CONTINUOUS
 10
7047.2870964703197387
 20
1456.573601217445912
 30
0.0
 11
7047.287030276220321
 21
1456.5736183144460938
 31
0.0
  0
LINE
  5
E04E
  8
0
  6
CONTINUOUS
 10
7047.88970905431961
 20
1458.0398014149459414
 30
0.0
 11
7039.0935417421196689
 21
1458.0398014149459414
 31
0.0
  0
LINE
  5
E04F
  8
0
  6
CONTINUOUS
 10
7039.0708114165208826
 20
1458.0398014149459414
 30
0.0
 11
7039.0314712590188719
 21
1458.0398014149459414
 31
0.0
  0
LINE
  5
E050
  8
0
  6
CONTINUOUS
 10
7048.1652996055199765
 20
1458.716966769246028
 30
0.0
 11
7047.9093940937200387
 21
1458.716966769246028
 31
0.0
  0
ARC
  5
E051
  8
0
  6
CONTINUOUS
 10
7047.830482641819799
 20
1442.6755434813460397
 30
0.0
 40
0.5632761236000001
 50
83.9644031579208843
 51
89.9825761068048138
  0
ARC
  5
E052
  8
0
  6
CONTINUOUS
 10
7047.184393185521003
 20
1456.6617721123459432
 30
0.0
 40
0.1358197211
 50
313.4162816540202243
 51
315.0846325245108233
  0
ARC
  5
E053
  8
0
  6
CONTINUOUS
 10
7047.3106269805248303
 20
1456.5330558494890738
 30
0.0
 40
0.0464434982958673
 50
135.0366627967750901
 51
147.5610764892375073
  0
ARC
  5
E054
  8
0
  6
CONTINUOUS
 10
7047.9093940937200387
 20
1456.2563368479459314
 30
0.0
 40
0.0196850394
 50
180.0
 51
270.0
  0
ARC
  5
E055
  8
0
  6
CONTINUOUS
 10
7047.9093940937200387
 20
1458.6972817298460541
 30
0.0
 40
0.0196850394
 50
90.0
 51
180.0
  0
LINE
  5
E056
  8
0
  6
CONTINUOUS
 10
7047.287030276220321
 20
1456.5736183144460938
 30
0.0
 11
7047.2788891565196536
 21
1456.5669555151459917
 31
0.0
  0
LINE
  5
E057
  8
0
  6
CONTINUOUS
 10
7047.2788891565196536
 20
1456.5669555151459917
 30
0.0
 11
7047.2777654604196869
 21
1456.5658753411460111
 31
0.0
  0
LINE
  5
E058
  8
0
  6
CONTINUOUS
 10
7047.2777412585201091
 20
1456.5631154658460673
 30
0.0
 11
7047.2714303529201061
 21
1456.557968154045966
 31
0.0
  0
LINE
  5
E059
  8
0
  6
CONTINUOUS
 10
7047.2805739873210769
 20
1456.5658750321460957
 30
0.0
 11
7047.2827387016213834
 21
1456.5681541088461017
 31
0.0
  0
ARC
  5
E05A
  8
0
 10
7047.7912365908641732
 20
1456.3610821992590445
 30
0.0
 40
0.5624864232735832
 50
79.9174788056976695
 51
100.6842944356197052
  0
ARC
  5
E05B
  8
0
 10
7046.7047773313179277
 20
1456.6357783823370937
 30
0.0
 40
0.0902749827493253
 50
227.1205334791380892
 51
248.8007524505389085
  0
ARC
  5
E05C
  8
0
 10
7046.6655036200063478
 20
1456.6425984283350772
 30
0.0
 40
0.0981127585771308
 50
291.9728213843753792
 51
319.7240348773818255
  0
ARC
  5
E05D
  8
0
 10
7046.9402999173125863
 20
1456.9268887026019001
 30
0.0
 40
0.3789473917347252
 50
246.5758320159638117
 51
262.0182311313104719
  0
ARC
  5
E05E
  8
0
 10
7046.9123661005269241
 20
1456.9268887026019001
 30
0.0
 40
0.3789473917347252
 50
277.9817688686895281
 51
293.4241679839884114
  0
ARC
  5
E05F
  8
0
 10
7047.2196804097011409
 20
1456.7165382169969234
 30
0.0
 40
0.169618194859519
 50
234.0821010082152895
 51
256.4915345660921275
  0
ARC
  5
E060
  8
0
 10
7047.1876440993273718
 20
1456.7165794607640237
 30
0.0
 40
0.1696627316204299
 50
283.511444597290506
 51
305.9149196102861197
  0
ARC
  5
E061
  8
0
 10
7047.2626339122607533
 20
1456.5887040860159232
 30
0.0
 40
0.0287489846228822
 50
314.3726107580865801
 51
328.3081001198241893
  0
ARC
  5
E062
  8
0
 10
7047.8310223873550058
 20
1442.6709277726140499
 30
0.0
 40
0.5678919258128583
 50
90.0371737629216966
 51
98.4087958026257041
  0
LINE
  5
E063
  8
0
 10
7044.2051469477455612
 20
1439.6618486651459534
 30
0.0
 11
7045.4815919460233999
 21
1439.6618486651459534
 31
0.0
  0
LINE
  5
E064
  8
0
 10
7045.481591938281781
 20
1439.9374392101460671
 30
0.0
 11
7044.2051469554471623
 21
1439.9374392101460671
 31
0.0
  0
ARC
  5
E065
  8
0
 10
7044.3323458284276057
 20
1439.7760218838370747
 30
0.0
 40
0.2055118160129683
 50
128.2385522392420114
 51
146.254676432483194
  0
ARC
  5
E066
  8
0
 10
7045.3543930689456829
 20
1439.7760218873459053
 30
0.0
 40
0.2055118110000378
 50
33.7453233235502523
 51
51.7614479533629179
  0
ARC
  5
E067
  8
0
 10
7045.3543930669402471
 20
1439.8232659838899963
 30
0.0
 40
0.2055118138608285
 50
308.2385548859447795
 51
326.2546764897018079
  0
ARC
  5
E068
  8
0
 10
7044.3323458252825731
 20
1439.8232659821919697
 30
0.0
 40
0.2055118115558566
 50
213.7453233394988956
 51
231.7614451645380882
  0
LINE
  5
E069
  8
0
 10
7044.1614596801537118
 20
1439.7091036850379169
 30
0.0
 11
7044.1614596800463914
 21
1439.8901841841459373
 31
0.0
  0
LINE
  5
E06A
  8
0
 10
7044.5024145634461092
 20
1439.7091036849460579
 30
0.0
 11
7044.5024145634461092
 21
1439.8901841841459373
 31
0.0
  0
LINE
  5
E06B
  8
0
 10
7045.1843243302464543
 20
1439.7091036849460579
 30
0.0
 11
7045.1843243302464543
 21
1439.8901841841459373
 31
0.0
  0
LINE
  5
E06C
  8
0
 10
7045.5252792136461721
 20
1439.7091036849460579
 30
0.0
 11
7045.5252792136461721
 21
1439.8901841841429814
 31
0.0
  0
ARC
  5
E06D
  8
0
 10
7045.3128058511074414
 20
1439.8052127342750737
 30
0.0
 40
0.154037815148234
 50
120.8622919686088011
 51
146.5212820033653998
  0
ARC
  5
E06E
  8
0
 10
7045.0004832010017708
 20
1439.6324951920530566
 30
0.0
 40
0.3165456956705832
 50
54.4950845207749666
 51
74.4397968293350232
  0
ARC
  5
E06F
  8
0
 10
7045.000485159607706
 20
1439.9667885799119631
 30
0.0
 40
0.3165412228358917
 50
285.5600644562828734
 51
305.5050575811167164
  0
ARC
  5
E070
  8
0
 10
7045.3128018203997271
 20
1439.7940709158399386
 30
0.0
 40
0.1540321258758889
 50
213.4782360820977942
 51
239.138185534860412
  0
ARC
  5
E071
  8
0
 10
7044.6862535733844197
 20
1439.9667882434889634
 30
0.0
 40
0.316540855635191
 50
234.4949307321961953
 51
254.4399472292612927
  0
ARC
  5
E072
  8
0
 10
7044.3739368957458282
 20
1439.7940711016840396
 30
0.0
 40
0.1540323764823774
 50
300.8618356962365965
 51
326.5217426878284073
  0
ARC
  5
E073
  8
0
 10
7044.6844362386600551
 20
1439.6363041846129818
 30
0.0
 40
0.3123890913754993
 50
105.4261283696024947
 51
125.6389902349357044
  0
ARC
  5
E074
  8
0
 10
7044.3739328278888934
 20
1439.8052125095430256
 30
0.0
 40
0.1540381181934118
 50
33.478743667030308
 51
59.1376823599111532
  0
ARC
  5
E075
  8
0
 10
7044.4121520867847721
 20
1439.5870445551508965
 30
0.0
 40
0.0769000549325007
 50
358.9302288617968202
 51
76.5922589672917837
  0
ARC
  5
E076
  8
0
 10
7045.2764403128412596
 20
1439.585608835631092
 30
0.0
 40
0.0787401572954023
 50
104.477512052727505
 51
180.0000049366475139
  0
LINE
  5
E077
  8
0
 10
7044.4890387381456094
 20
1439.3016124385460444
 30
0.0
 11
7044.4890387381456094
 21
1439.5856088354460098
 31
0.0
  0
LINE
  5
E078
  8
0
 10
7045.1977001555460447
 20
1439.1992502337459428
 30
0.0
 11
7045.1977001555460447
 21
1439.5856088288460342
 31
0.0
  0
LINE
  5
E079
  8
0
 10
7044.3591174783468887
 20
1439.2228722810459658
 30
0.0
 11
7044.4102985808749509
 21
1439.2228704798999388
 31
0.0
  0
ARC
  5
E07A
  8
0
 10
7044.4102663702205973
 20
1439.3016428470850769
 30
0.0
 40
0.0787723737700979
 50
270.0234287035908096
 51
359.9778820639673995
  0
LINE
  5
E07B
  8
0
 10
7044.3591174783468887
 20
1439.2957069266460621
 30
0.0
 11
7044.3591174783468887
 21
1438.0988565329460016
 31
0.0
  0
LINE
  5
E07C
  8
0
 10
7043.0599048799458615
 20
1438.0988565329460016
 30
0.0
 11
7043.0599048799458615
 21
1439.2957069266460621
 31
0.0
  0
LINE
  5
E07D
  8
0
 10
7043.0441568484447998
 20
1439.2957069266460621
 30
0.0
 11
7043.0441568484447998
 21
1438.0988565329460016
 31
0.0
  0
ARC
  5
E07E
  8
0
 10
7043.0520308641462179
 20
1439.2957069266460621
 30
0.0
 40
0.0078740157000041
 50
180.0
 51
0.0
  0
ARC
  5
E07F
  8
0
 10
7043.0520308641462179
 20
1438.0988565329460016
 30
0.0
 40
0.007874015699997
 50
0.0000000000130276
 51
179.9999999999870113
  0
LINE
  5
E080
  8
0
 10
7042.9339206279446444
 20
1438.1185415723459755
 30
0.0
 11
7042.9339206279446444
 21
1439.2760218873459053
 31
0.0
  0
ARC
  5
E081
  8
0
 10
7042.9536039658942173
 20
1439.2760235887990348
 30
0.0
 40
0.0196833380204818
 50
89.9950472789780207
 51
180.004952720878606
  0
ARC
  5
E082
  8
0
 10
7042.9536056673459825
 20
1438.1185415723459755
 30
0.0
 40
0.0196850394000308
 50
180.0
 51
269.999999999895806
  0
LINE
  5
E083
  8
0
 10
7045.4024245649461591
 20
1439.1598801550460394
 30
0.0
 11
7045.4024245649461591
 21
1438.2346833046460688
 31
0.0
  0
LINE
  5
E084
  8
0
 10
7045.4024245649461591
 20
1438.2346833046460688
 30
0.0
 11
7045.894550549244741
 21
1438.2346833046460688
 31
0.0
  0
LINE
  5
E085
  8
0
 10
7045.894550549244741
 20
1438.2346833046460688
 30
0.0
 11
7045.894550549244741
 21
1439.1598801550460394
 31
0.0
  0
LINE
  5
E086
  8
0
 10
7045.894550549244741
 20
1439.1598801550460394
 30
0.0
 11
7045.4024245649461591
 21
1439.1598801550460394
 31
0.0
  0
LINE
  5
E087
  8
0
 10
7045.458633956545782
 20
1438.6972817298460541
 30
0.0
 11
7045.8383411576460276
 21
1438.6972817298460541
 31
0.0
  0
ARC
  5
E088
  8
0
 10
7045.6709779607526798
 20
1438.8524194732769956
 30
0.0
 40
0.228206395859008
 50
317.1709445001047811
 51
348.434075907284182
  0
ARC
  5
E089
  8
0
 10
7045.6709779611855993
 20
1438.5421439866790934
 30
0.0
 40
0.2282063953631426
 50
11.5659240250100197
 51
42.8290555249697675
  0
ARC
  5
E08A
  8
0
 10
7045.6259971509653042
 20
1438.8524194720059768
 30
0.0
 40
0.2282063931808524
 50
191.5659239046034941
 51
222.8290556880077986
  0
ARC
  5
E08B
  8
0
 10
7045.6259971504041459
 20
1438.5421439881840797
 30
0.0
 40
0.2282063924301954
 50
137.1709443077058097
 51
168.4340763124002081
  0
ARC
  5
E08C
  8
0
 10
7045.6709779611837803
 20
1439.0047424118790786
 30
0.0
 40
0.2282063953631614
 50
11.5659240250100197
 51
42.8290555249697675
  0
ARC
  5
E08D
  8
0
 10
7045.6709779607526798
 20
1438.3898210480770103
 30
0.0
 40
0.2282063958590035
 50
317.1709445001047811
 51
348.434075907284182
  0
ARC
  5
E08E
  8
0
 10
7045.6259971509653042
 20
1438.3898210468059915
 30
0.0
 40
0.2282063931808683
 50
191.5659239046034941
 51
222.8290556880077986
  0
ARC
  5
E08F
  8
0
 10
7045.6259971504041459
 20
1439.004742413384065
 30
0.0
 40
0.2282063924302021
 50
137.1709443077058097
 51
168.4340763124002081
  0
ARC
  5
E090
  8
0
 10
7045.2764691762222355
 20
1439.1992790970239184
 30
0.0
 40
0.0787690259658155
 50
180.0209948515804967
 51
269.9790051483544175
  0
LINE
  5
E091
  8
0
 10
7045.2764403129458515
 20
1439.1205100763459086
 30
0.0
 11
7045.4024245649461591
 21
1439.1205100763459086
 31
0.0
  0
LINE
  5
E092
  8
0
 10
7045.4024245649461591
 20
1438.2740533833459722
 30
0.0
 11
7044.6937631476566821
 21
1438.2740533834460166
 31
0.0
  0
LINE
  5
E093
  8
0
 10
7044.3591174783468887
 20
1438.171691178645915
 30
0.0
 11
7044.5767074882460292
 21
1438.171691178645915
 31
0.0
  0
ARC
  5
E094
  8
0
 10
7044.5767074880513974
 20
1438.2110612575629602
 30
0.0
 40
0.0393700789164822
 50
270.0000002847822884
 51
352.3377441028936801
  0
ARC
  5
E095
  8
0
 10
7044.6937631474456794
 20
1438.1953132260759958
 30
0.0
 40
0.0787401572704574
 50
89.999999854039288
 51
172.3377444608051121
  0
ARC
  5
E096
  8
0
 10
7045.1017942491098438
 20
1439.9566655876130881
 30
0.0
 40
0.8969748850000092
 50
226.9108384821934123
 51
244.8765118199617064
  0
LINE
  5
E097
  8
0
 10
7044.5767074882460292
 20
1438.171691178645915
 30
0.0
 11
7044.5767074882460292
 21
1439.0057702134461124
 31
0.0
  0
ARC
  5
E098
  8
0
 10
7044.6873589860333595
 20
1439.0099993873709536
 30
0.0
 40
0.1107322892142136
 50
119.0769230718868954
 51
182.1888174367792033
  0
ARC
  5
E099
  8
0
 10
7044.3587628278828561
 20
1439.862760614644003
 30
0.0
 40
0.8043743782602026
 50
289.9749769983440046
 51
296.7623313047823785
  0
LINE
  5
E09A
  8
0
 10
7044.3591174783468887
 20
1438.0988565329460016
 30
0.0
 11
7043.059904879845817
 21
1438.0988565329460016
 31
0.0
  0
LINE
  5
E09B
  8
0
 10
7043.0441568484447998
 20
1438.0988565329460016
 30
0.0
 11
7042.9536056673459825
 21
1438.0988565329460016
 31
0.0
  0
LINE
  5
E09C
  8
0
 10
7044.3591174783468887
 20
1439.2957069267461065
 30
0.0
 11
7043.059904879845817
 21
1439.2957069267461065
 31
0.0
  0
LINE
  5
E09D
  8
0
 10
7043.0441568484447998
 20
1439.2957069267461065
 30
0.0
 11
7042.9536056673459825
 21
1439.2957069267461065
 31
0.0
  0
ARC
  5
E09E
  8
0
 10
7044.8269059711929003
 20
1439.5028701782250664
 30
0.0
 40
0.5901528377661738
 50
244.915438404836209
 51
319.6165326629276819
  0
ENDSEC
  0
EOF
