  0
SECTION
  2
HEADER
  9
$ACADVER
  1
AC1009
  9
$INSBASE
 10
7063.5870155835991682
 20
1438.3902805983288999
 30
0.0
  9
$EXTMIN
 10
7050.0452510532641099
 20
1429.1116101339810029
 30
-0.0015258207003583
  9
$EXTMAX
 10
7077.0411886033261908
 20
1438.4395834089189066
 30
0.0000000349246037
  9
$LIMMIN
 10
0.0
 20
0.0
  9
$LIMMAX
 10
11.6929133858000007
 20
8.2677165353999982
  9
$ORTHOMODE
 70
     0
  9
$REGENMODE
 70
     1
  9
$FILLMODE
 70
     1
  9
$QTEXTMODE
 70
     0
  9
$MIRRTEXT
 70
     0
  9
$DRAGMODE
 70
     2
  9
$LTSCALE
 40
0.6431102362
  9
$OSMODE
 70
  4063
  9
$ATTMODE
 70
     1
  9
$TEXTSIZE
 40
0.2
  9
$TRACEWID
 40
0.05
  9
$TEXTSTYLE
  7
STANDARD
  9
$CLAYER
  8
0
  9
$CELTYPE
  6
BYLAYER
  9
$CECOLOR
 62
   256
  9
$DIMSCALE
 40
1.0
  9
$DIMASZ
 40
0.1875
  9
$DIMEXO
 40
0.0625
  9
$DIMDLI
 40
0.4443307087
  9
$DIMRND
 40
0.0
  9
$DIMDLE
 40
0.0
  9
$DIMEXE
 40
0.125
  9
$DIMTP
 40
0.01
  9
$DIMTM
 40
0.01
  9
$DIMTXT
 40
2.0
  9
$DIMCEN
 40
0.1052362205
  9
$DIMTSZ
 40
0.0
  9
$DIMTOL
 70
     1
  9
$DIMLIM
 70
     0
  9
$DIMTIH
 70
     1
  9
$DIMTOH
 70
     1
  9
$DIMSE1
 70
     0
  9
$DIMSE2
 70
     0
  9
$DIMTAD
 70
     0
  9
$DIMZIN
 70
     0
  9
$DIMBLK
  1

  9
$DIMASO
 70
     1
  9
$DIMSHO
 70
     1
  9
$DIMPOST
  1
\X
  9
$DIMAPOST
  1

  9
$DIMALT
 70
     1
  9
$DIMALTD
 70
     2
  9
$DIMALTF
 40
25.3999999999999986
  9
$DIMLFAC
 40
1.0
  9
$DIMTOFL
 70
     0
  9
$DIMTVP
 40
0.0
  9
$DIMTIX
 70
     0
  9
$DIMSOXD
 70
     0
  9
$DIMSAH
 70
     0
  9
$DIMBLK1
  1

  9
$DIMBLK2
  1

  9
$DIMSTYLE
  2
STANDARD
  9
$DIMCLRD
 70
     0
  9
$DIMCLRE
 70
     0
  9
$DIMCLRT
 70
     0
  9
$DIMTFAC
 40
1.0
  9
$DIMGAP
 40
0.09
  9
$LUNITS
 70
     2
  9
$LUPREC
 70
     4
  9
$SKETCHINC
 40
0.1
  9
$FILLETRAD
 40
0.0
  9
$AUNITS
 70
     0
  9
$AUPREC
 70
     0
  9
$MENU
  1
.
  9
$ELEVATION
 40
0.0
  9
$PELEVATION
 40
0.0
  9
$THICKNESS
 40
0.0
  9
$LIMCHECK
 70
     0
  9
$BLIPMODE
 70
     0
  9
$CHAMFERA
 40
0.0
  9
$CHAMFERB
 40
0.0
  9
$SKPOLY
 70
     0
  9
$TDCREATE
 40
2458060.468368056230247
  9
$TDUPDATE
 40
2459480.601261573843658
  9
$TDINDWG
 40
0.3991042824
  9
$TDUSRTIMER
 40
0.3991042824
  9
$USRTIMER
 70
     1
  9
$ANGBASE
 50
0.0
  9
$ANGDIR
 70
     0
  9
$PDMODE
 70
     0
  9
$PDSIZE
 40
0.3125
  9
$PLINEWID
 40
0.0
  9
$COORDS
 70
     1
  9
$SPLFRAME
 70
     0
  9
$SPLINETYPE
 70
     6
  9
$SPLINESEGS
 70
     8
  9
$ATTDIA
 70
     1
  9
$ATTREQ
 70
     1
  9
$HANDLING
 70
     1
  9
$HANDSEED
  5
DEFD
  9
$SURFTAB1
 70
     6
  9
$SURFTAB2
 70
     6
  9
$SURFTYPE
 70
     6
  9
$SURFU
 70
     6
  9
$SURFV
 70
     6
  9
$UCSNAME
  2

  9
$UCSORG
 10
0.0
 20
0.0
 30
0.0
  9
$UCSXDIR
 10
1.0
 20
0.0
 30
0.0
  9
$UCSYDIR
 10
0.0
 20
1.0
 30
0.0
  9
$PUCSNAME
  2

  9
$PUCSORG
 10
0.0
 20
0.0
 30
0.0
  9
$PUCSXDIR
 10
1.0
 20
0.0
 30
0.0
  9
$PUCSYDIR
 10
0.0
 20
1.0
 30
0.0
  9
$USERI1
 70
     0
  9
$USERI2
 70
     0
  9
$USERI3
 70
     0
  9
$USERI4
 70
     0
  9
$USERI5
 70
     0
  9
$USERR1
 40
0.0
  9
$USERR2
 40
0.0
  9
$USERR3
 40
0.0
  9
$USERR4
 40
0.0
  9
$USERR5
 40
0.0
  9
$WORLDVIEW
 70
     1
  9
$SHADEDGE
 70
     3
  9
$SHADEDIF
 70
    70
  9
$TILEMODE
 70
     1
  9
$MAXACTVP
 70
    64
  9
$PLIMCHECK
 70
     0
  9
$PEXTMIN
 10
1.0000000000000000E+20
 20
1.0000000000000000E+20
 30
1.0000000000000000E+20
  9
$PEXTMAX
 10
-1.0000000000000000E+20
 20
-1.0000000000000000E+20
 30
-1.0000000000000000E+20
  9
$PLIMMIN
 10
0.0
 20
0.0
  9
$PLIMMAX
 10
12.0
 20
9.0
  9
$UNITMODE
 70
     0
  9
$VISRETAIN
 70
     1
  9
$PLINEGEN
 70
     0
  9
$PSLTSCALE
 70
     1
  0
ENDSEC
  0
SECTION
  2
TABLES
  0
TABLE
  2
VPORT
 70
     1
  0
VPORT
  2
*ACTIVE
 70
     0
 10
0.0
 20
0.0
 11
1.0
 21
1.0
 12
2248.2448799845437861
 22
1185.9669725038720571
 13
0.0
 23
0.0
 14
1.0
 24
1.0
 15
0.0
 25
0.0
 16
0.0
 26
0.0
 36
9.5192988075487186
 17
4815.2983398437490905
 27
247.8086242675780966
 37
0.0
 40
13.0271631552876794
 41
2.0798479087452471
 42
50.0
 43
0.0
 44
0.0
 50
0.0
 51
0.0
 71
     0
 72
   100
 73
     1
 74
     1
 75
     0
 76
     0
 77
     0
 78
     0
  0
ENDTAB
  0
TABLE
  2
LTYPE
 70
     2
  0
LTYPE
  2
CONTINUOUS
 70
     0
  3
Solid line
 72
    65
 73
     0
 40
0.0
  0
LTYPE
  2
PHANTOM2
 70
     0
  3
___ _ _ ___ _ _ ___ _ _ ___ _ _
 72
    65
 73
     6
 40
1.25
 49
0.625
 49
-0.125
 49
0.125
 49
-0.125
 49
0.125
 49
-0.125
  0
ENDTAB
  0
TABLE
  2
LAYER
 70
     2
  0
LAYER
  2
0
 70
     0
 62
   255
  6
CONTINUOUS
  0
LAYER
  2
DEFPOINTS
 70
     0
 62
     7
  6
CONTINUOUS
  0
ENDTAB
  0
TABLE
  2
STYLE
 70
     1
  0
STYLE
  2
STANDARD
 70
     0
 40
0.0
 41
0.8
 50
0.0
 71
     0
 42
0.2
  3
txt
  4

  0
ENDTAB
  0
TABLE
  2
VIEW
 70
     0
  0
ENDTAB
  0
TABLE
  2
UCS
 70
     0
  0
ENDTAB
  0
TABLE
  2
APPID
 70
    10
  0
APPID
  2
ACAD
 70
     0
  0
APPID
  2
ACAD_MLEADERVER
 70
     0
  0
APPID
  2
ACAD_EXEMPT_FROM_CAD_STANDARDS
 70
     0
  0
APPID
  2
ACAD_NAV_VCDISPLAY
 70
     0
  0
APPID
  2
ACAECLAYERSTANDARD
 70
     0
  0
APPID
  2
ACCMTRANSPARENCY
 70
     0
  0
APPID
  2
ACAD_DSTYLE_DIMJAG
 70
     0
  0
APPID
  2
ACAD_DSTYLE_DIMTALN
 70
     0
  0
APPID
  2
ACDBATTR
 70
     0
  0
APPID
  2
ACADANNOTATIVE
 70
     0
  0
ENDTAB
  0
TABLE
  2
DIMSTYLE
 70
     2
  0
DIMSTYLE
  2
STANDARD
 70
     0
  3

  4

  5

  6

  7

 40
1.0
 41
0.1875
 42
0.0625
 43
0.38
 44
0.125
 45
0.0
 46
0.0
 47
0.01
 48
0.01
140
0.15625
141
0.09
142
0.0
143
25.3999999999999986
144
1.0
145
0.0
146
1.0
147
0.09
 71
     1
 72
     0
 73
     1
 74
     1
 75
     0
 76
     0
 77
     0
 78
     4
170
     0
171
     2
172
     0
173
     0
174
     0
175
     0
176
     0
177
     0
178
     0
  0
ENDTAB
  0
ENDSEC
  0
SECTION
  2
BLOCKS
  0
BLOCK
  8
0
  2
$MODEL_SPACE
 70
     0
 10
0.0
 20
0.0
 30
0.0
  3
$MODEL_SPACE
  1

  0
ENDBLK
  5
21
  8
0
  0
BLOCK
 67
     1
  8
0
  2
$PAPER_SPACE
 70
     0
 10
0.0
 20
0.0
 30
0.0
  3
$PAPER_SPACE
  1

  0
ENDBLK
  5
1D
 67
     1
  8
0
  0
BLOCK
  8
0
  2
_FILLED
 70
     0
 10
0.0
 20
0.0
 30
0.0
  3
_FILLED
  1

  0
SOLID
  5
DDA9
  8
0
  6
BYBLOCK
 62
     0
 10
0.0
 20
0.0
 30
0.0
 11
-1.0
 21
0.1666666667
 31
0.0
 12
-1.0
 22
-0.1666666667
 32
0.0
 13
-1.0
 23
-0.1666666667
 33
0.0
  0
ENDBLK
  5
DDAA
  8
0
  6
BYBLOCK
 62
     0
  0
ENDSEC
  0
SECTION
  2
ENTITIES
  0
ATTDEF
  5
3930
  8
DEFPOINTS
 10
7063.587797059112745
 20
1438.3946837071900973
 30
0.0
 40
0.001
  1
K-45132T
  3

  2
MODELNUMBER
 70
     0
1001
ACDBATTR
1070
     0
1070
     1
  0
ATTDEF
  5
3931
  8
DEFPOINTS
 10
7063.587797059112745
 20
1438.3930170405240005
 30
0.0
 40
0.001
  1
STILLNESS
  3

  2
TRADENAME
 70
     0
1001
ACDBATTR
1070
     0
1070
     1
  0
ATTDEF
  5
3932
  8
DEFPOINTS
 10
7063.587797059112745
 20
1438.3913503738569943
 30
0.0
 40
0.001
  1
HOTELIER
  3

  2
PRODUCT
 70
     0
1001
ACDBATTR
1070
     0
1070
     1
  0
LINE
  5
DE0C
  8
0
  6
CONTINUOUS
 10
7050.3488266071981343
 20
1438.3902805983288999
 30
0.0
 11
7050.3488266071981343
 21
1438.1343750865289621
 31
0.0
  0
LINE
  5
DE0D
  8
0
  6
CONTINUOUS
 10
7051.0259919614982209
 20
1438.1146900471289882
 30
0.0
 11
7051.0259919614982209
 21
1429.3185227349290471
 31
0.0
  0
LINE
  5
DE0E
  8
0
  6
CONTINUOUS
 10
7051.0259919614982209
 20
1429.2957924093288966
 30
0.0
 11
7051.0259919614982209
 21
1429.2564223306289932
 31
0.0
  0
LINE
  5
DE0F
  8
0
  6
CONTINUOUS
 10
7052.1519762134967095
 20
1438.1146900471289882
 30
0.0
 11
7052.1519762134967095
 21
1436.8154774487290979
 31
0.0
  0
LINE
  5
DE10
  8
0
  6
CONTINUOUS
 10
7052.1519762134967095
 20
1436.0674459526289866
 30
0.0
 11
7052.1519762134967095
 21
1433.8627215432290996
 31
0.0
  0
LINE
  5
DE11
  8
0
  6
CONTINUOUS
 10
7052.1519762134967095
 20
1433.1146900471289882
 30
0.0
 11
7052.1519762134967095
 21
1430.9099656377291012
 31
0.0
  0
LINE
  5
DE12
  8
0
  6
CONTINUOUS
 10
7052.1519762134967095
 20
1430.1619341416289899
 30
0.0
 11
7052.1519762134967095
 21
1429.3185227349290471
 31
0.0
  0
LINE
  5
DE13
  8
0
  6
CONTINUOUS
 10
7052.1519762134967095
 20
1429.2957924093288966
 30
0.0
 11
7052.1519762134967095
 21
1429.2564223306289932
 31
0.0
  0
LINE
  5
DE14
  8
0
  6
CONTINUOUS
 10
7052.8291415677977056
 20
1438.3902805983288999
 30
0.0
 11
7052.8291415677977056
 21
1438.1343750865289621
 31
0.0
  0
LINE
  5
DE15
  8
0
  6
CONTINUOUS
 10
7051.0456770008986496
 20
1429.3071575721289719
 30
0.0
 11
7051.0259919614982209
 21
1429.3185227349290471
 31
0.0
  0
LINE
  5
DE16
  8
0
  6
CONTINUOUS
 10
7052.1322911740980999
 20
1429.3071575721289719
 30
0.0
 11
7052.1519762134967095
 21
1429.2957924093288966
 31
0.0
  0
LINE
  5
DE17
  8
0
  6
CONTINUOUS
 10
7051.0653620401981243
 20
1429.2170522519290898
 30
0.0
 11
7052.1126061346985807
 21
1429.2170522519290898
 31
0.0
  0
LINE
  5
DE18
  8
0
  6
CONTINUOUS
 10
7075.0614250323978922
 20
1429.2170522519290898
 30
0.0
 11
7076.1086691268992581
 21
1429.2170522519290898
 31
0.0
  0
LINE
  5
DE19
  8
0
  6
CONTINUOUS
 10
7076.148039205598252
 20
1429.2957924093288966
 30
0.0
 11
7075.0220549535979444
 21
1429.2957924093288966
 31
0.0
  0
LINE
  5
DE1A
  8
0
  6
CONTINUOUS
 10
7052.1519762134967095
 20
1429.2957924093288966
 30
0.0
 11
7051.0259919614982209
 21
1429.2957924093288966
 31
0.0
  0
LINE
  5
DE1B
  8
0
  6
CONTINUOUS
 10
7052.1322911740980999
 20
1429.3071575721289719
 30
0.0
 11
7051.0456770008986496
 21
1429.3071575721289719
 31
0.0
  0
LINE
  5
DE1C
  8
0
  6
CONTINUOUS
 10
7075.0417399929992825
 20
1429.3071575721289719
 30
0.0
 11
7076.1283541661978234
 21
1429.3071575721289719
 31
0.0
  0
LINE
  5
DE1D
  8
0
  6
CONTINUOUS
 10
7051.0259919614982209
 20
1429.3185227349290471
 30
0.0
 11
7052.1519762134967095
 21
1429.3185227349290471
 31
0.0
  0
LINE
  5
DE1E
  8
0
  6
CONTINUOUS
 10
7075.0220549535979444
 20
1429.3185227349290471
 30
0.0
 11
7076.148039205598252
 21
1429.3185227349290471
 31
0.0
  0
LINE
  5
DE1F
  8
0
  6
CONTINUOUS
 10
7052.1451075496333942
 20
1430.1698081574290882
 30
0.0
 11
7075.0289219570840942
 21
1430.1698081574290882
 31
0.0
  0
LINE
  5
DE20
  8
0
  6
CONTINUOUS
 10
7052.1451075496333942
 20
1430.9020916219290029
 30
0.0
 11
7075.0289234198544364
 21
1430.9020916219290029
 31
0.0
  0
LINE
  5
DE21
  8
0
  6
CONTINUOUS
 10
7051.0456770008986496
 20
1429.3071575721289719
 30
0.0
 11
7051.0259919614982209
 21
1429.2957924093288966
 31
0.0
  0
LINE
  5
DE22
  8
0
  6
CONTINUOUS
 10
7052.1322911740980999
 20
1429.3071575721289719
 30
0.0
 11
7052.1519762134967095
 21
1429.3185227349290471
 31
0.0
  0
LINE
  5
DE23
  8
0
  6
CONTINUOUS
 10
7052.1451075496333942
 20
1433.1225640629279496
 30
0.0
 11
7075.0289362847779557
 21
1433.1225640629279496
 31
0.0
  0
LINE
  5
DE24
  8
0
  6
CONTINUOUS
 10
7052.1451075496333942
 20
1433.8548475274290013
 30
0.0
 11
7075.027892664889805
 21
1433.8548475274290013
 31
0.0
  0
LINE
  5
DE25
  8
0
  6
CONTINUOUS
 10
7052.1519762134967095
 20
1434.6629183936290701
 30
0.0
 11
7075.0220549535979444
 21
1434.6629183936290701
 31
0.0
  0
LINE
  5
DE26
  8
0
  6
CONTINUOUS
 10
7052.1519762134967095
 20
1435.3952018582290293
 30
0.0
 11
7075.0220549535979444
 21
1435.3952018582290293
 31
0.0
  0
LINE
  5
DE27
  8
0
  6
CONTINUOUS
 10
7075.0417399929992825
 20
1429.3071575721289719
 30
0.0
 11
7075.0220549535979444
 21
1429.3185227349290471
 31
0.0
  0
LINE
  5
DE28
  8
0
  6
CONTINUOUS
 10
7052.1451075496333942
 20
1436.0753199684290848
 30
0.0
 11
7075.0289235369227754
 21
1436.0753199684290848
 31
0.0
  0
LINE
  5
DE29
  8
0
  6
CONTINUOUS
 10
7076.1283541661978234
 20
1429.3071575721289719
 30
0.0
 11
7076.148039205598252
 21
1429.2957924093288966
 31
0.0
  0
LINE
  5
DE2A
  8
0
  6
CONTINUOUS
 10
7052.1451075497179772
 20
1436.807603433029044
 30
0.0
 11
7075.0289235368381924
 21
1436.807603433029044
 31
0.0
  0
LINE
  5
DE2B
  8
0
  6
CONTINUOUS
 10
7050.3685116465003375
 20
1438.1146900471289882
 30
0.0
 11
7052.8094565283981865
 21
1438.1146900471289882
 31
0.0
  0
LINE
  5
DE2C
  8
0
  6
CONTINUOUS
 10
7074.3645746386991959
 20
1438.1146900471289882
 30
0.0
 11
7076.8055195205970449
 21
1438.1146900471289882
 31
0.0
  0
LINE
  5
DE2D
  8
0
  6
CONTINUOUS
 10
7076.8252045598992481
 20
1438.3902805983288999
 30
0.0
 11
7074.3448895992987673
 21
1438.3902805983288999
 31
0.0
  0
LINE
  5
DE2E
  8
0
  6
CONTINUOUS
 10
7052.8291415677977056
 20
1438.3902805983288999
 30
0.0
 11
7050.3488266071981343
 21
1438.3902805983288999
 31
0.0
  0
LINE
  5
DE2F
  8
0
  6
CONTINUOUS
 10
7075.0417399929992825
 20
1429.3071575721289719
 30
0.0
 11
7075.0220549535979444
 21
1429.2957924093288966
 31
0.0
  0
LINE
  5
DE30
  8
0
  6
CONTINUOUS
 10
7076.1283541661978234
 20
1429.3071575721289719
 30
0.0
 11
7076.148039205598252
 21
1429.3185227349290471
 31
0.0
  0
LINE
  5
DE31
  8
0
  6
CONTINUOUS
 10
7074.3448895992987673
 20
1438.3902805983288999
 30
0.0
 11
7074.3448895992987673
 21
1438.1343750865289621
 31
0.0
  0
LINE
  5
DE32
  8
0
  6
CONTINUOUS
 10
7075.0220549535979444
 20
1438.1146900471289882
 30
0.0
 11
7075.0220549535979444
 21
1436.8154774487290979
 31
0.0
  0
LINE
  5
DE33
  8
0
  6
CONTINUOUS
 10
7075.0220549535979444
 20
1436.0674459526289866
 30
0.0
 11
7075.0220549535979444
 21
1433.8615067466689652
 31
0.0
  0
LINE
  5
DE34
  8
0
  6
CONTINUOUS
 10
7075.0220549535979444
 20
1433.1146917560060956
 30
0.0
 11
7075.0220549535979444
 21
1430.9099656377291012
 31
0.0
  0
LINE
  5
DE35
  8
0
  6
CONTINUOUS
 10
7075.0220549535979444
 20
1430.1619358502930481
 30
0.0
 11
7075.0220549535979444
 21
1429.3185227349290471
 31
0.0
  0
LINE
  5
DE36
  8
0
  6
CONTINUOUS
 10
7075.0220549535979444
 20
1429.2957924093288966
 30
0.0
 11
7075.0220549535979444
 21
1429.2564223306289932
 31
0.0
  0
LINE
  5
DE37
  8
0
  6
CONTINUOUS
 10
7075.0220549535979444
 20
1436.807603267129025
 30
0.0
 11
7075.0220549535979444
 21
1436.807603433029044
 31
0.0
  0
LINE
  5
DE38
  8
0
  6
CONTINUOUS
 10
7076.148039205598252
 20
1438.1146900471289882
 30
0.0
 11
7076.148039205598252
 21
1429.3185227349290471
 31
0.0
  0
LINE
  5
DE39
  8
0
  6
CONTINUOUS
 10
7076.148039205598252
 20
1429.2957924093288966
 30
0.0
 11
7076.148039205598252
 21
1429.2564223306289932
 31
0.0
  0
LINE
  5
DE3A
  8
0
  6
CONTINUOUS
 10
7076.8252045598992481
 20
1438.3902805983288999
 30
0.0
 11
7076.8252045598992481
 21
1438.1343750865289621
 31
0.0
  0
ARC
  5
DE3B
  8
0
  6
CONTINUOUS
 10
7075.0614250323978922
 20
1429.2564223306289932
 30
0.0
 40
0.0393700787
 50
180.0
 51
270.0
  0
ARC
  5
DE3C
  8
0
  6
CONTINUOUS
 10
7076.1086691268992581
 20
1429.2564223306289932
 30
0.0
 40
0.0393700787
 50
270.0
 51
0.0
  0
ARC
  5
DE3D
  8
0
  6
CONTINUOUS
 10
7052.1126061346985807
 20
1429.2564223306289932
 30
0.0
 40
0.0393700787
 50
270.0
 51
0.0
  0
ARC
  5
DE3E
  8
0
  6
CONTINUOUS
 10
7051.0653620401981243
 20
1429.2564223306289932
 30
0.0
 40
0.0393700787
 50
180.0
 51
270.0
  0
ARC
  5
DE3F
  8
0
  6
CONTINUOUS
 10
7074.3645746386991959
 20
1438.1343750865289621
 30
0.0
 40
0.0196850394
 50
180.0
 51
270.0
  0
ARC
  5
DE40
  8
0
  6
CONTINUOUS
 10
7076.8055195205970449
 20
1438.1343750865289621
 30
0.0
 40
0.0196850394
 50
270.0
 51
0.0
  0
ARC
  5
DE41
  8
0
  6
CONTINUOUS
 10
7050.3685116465003375
 20
1438.1343750865289621
 30
0.0
 40
0.0196850394
 50
180.0
 51
270.0
  0
ARC
  5
DE42
  8
0
  6
CONTINUOUS
 10
7052.8094565283981865
 20
1438.1343750865289621
 30
0.0
 40
0.0196850394
 50
270.0
 51
0.0
  0
ARC
  5
DE43
  8
0
 10
7052.5727882712799328
 20
1436.4414617006789285
 30
0.0
 40
0.5630013923283883
 50
138.36945863038261
 51
221.63054136961739
  0
ARC
  5
DE44
  8
0
 10
7052.5727882712799328
 20
1433.4887057951789302
 30
0.0
 40
0.563001392328366
 50
138.36945863038261
 51
221.63054136961739
  0
ARC
  5
DE45
  8
0
 10
7052.5727882712799328
 20
1430.5359498896789319
 30
0.0
 40
0.5630013923283577
 50
138.36945863038261
 51
221.63054136961739
  0
ARC
  5
DE46
  8
0
 10
7074.6012378808700305
 20
1436.4414617006789285
 30
0.0
 40
0.5630051407305439
 50
318.3697976751020065
 51
41.630202324863312
  0
ARC
  5
DE47
  8
0
 10
7074.6028169649607662
 20
1433.488099251336962
 30
0.0
 40
0.5614210974721519
 50
318.3091382314430007
 51
41.6908617685570206
  0
ARC
  5
DE48
  8
0
 10
7074.601231570548407
 20
1430.535950744010961
 30
0.0
 40
0.5630092898383519
 50
318.3702892753469769
 51
41.6297107246530373
  0
ARC
  5
DE49
  8
0
 10
7051.0102439299789694
 20
1433.1392963461580621
 30
0.0
 40
0.0196850392292909
 50
179.9999999999739089
 51
270.0000004968708254
  0
ARC
  5
DE4A
  8
0
 10
7050.990558890698594
 20
1433.2377215431790773
 30
0.0
 40
0.0078740157499908
 50
270.0000003637812824
 51
89.9999996362186323
  0
LINE
  5
DE4B
  8
0
 10
7050.9905588907486162
 20
1433.2298475274280918
 30
0.0
 11
7050.9905588907486162
 21
1433.1392963461580621
 31
0.0
  0
LINE
  5
DE4C
  8
0
 10
7050.9905588907486162
 20
1433.245595558928926
 30
0.0
 11
7050.9905588907486162
 21
1434.5448081573290438
 31
0.0
  0
LINE
  5
DE4D
  8
0
 10
7051.0102439301490449
 20
1433.1196113069290732
 30
0.0
 11
7051.0259919614982209
 21
1433.1196113069290732
 31
0.0
  0
LINE
  5
DE4E
  8
0
 10
7050.9905588907486162
 20
1433.2298475274280918
 30
0.0
 11
7051.0259919614982209
 21
1433.2298475274280918
 31
0.0
  0
LINE
  5
DE4F
  8
0
 10
7050.9905588907486162
 20
1433.245595558928926
 30
0.0
 11
7051.0259919614982209
 21
1433.245595558928926
 31
0.0
  0
LINE
  5
DE50
  8
0
 10
7050.9905588907486162
 20
1434.5448081573290438
 30
0.0
 11
7051.0259919614982209
 21
1434.5448081573290438
 31
0.0
  0
LINE
  5
DE51
  8
0
 10
7050.9984329064500344
 20
1434.6881052425289909
 30
0.0
 11
7050.9984329064500344
 21
1435.3700150092290642
 31
0.0
  0
LINE
  5
DE52
  8
0
 10
7050.9984329064500344
 20
1435.3700150092290642
 30
0.0
 11
7051.0259919614982209
 21
1435.3859262370990564
 31
0.0
  0
LINE
  5
DE53
  8
0
 10
7050.9984329064500344
 20
1434.6881052425289909
 30
0.0
 11
7051.0259919614982209
 21
1434.6721940146580891
 31
0.0
  0
ARC
  5
DE54
  8
0
 10
7051.5889840875615846
 20
1435.0290601258350307
 30
0.0
 40
0.6382224914140843
 50
202.2854384587228083
 51
208.1002058662575962
  0
ARC
  5
DE55
  8
0
 10
7051.5889840875479422
 20
1435.0290601258288916
 30
0.0
 40
0.6382224913981669
 50
151.8997941337194106
 51
157.7145615412771065
  0
LINE
  5
DE56
  8
0
 10
7052.1519762134967095
 20
1434.5448081573290438
 30
0.0
 11
7052.187409284448222
 21
1434.5448081573290438
 31
0.0
  0
LINE
  5
DE57
  8
0
 10
7052.187409284448222
 20
1434.5448081573290438
 30
0.0
 11
7052.187409284448222
 21
1433.8548475274290013
 31
0.0
  0
ARC
  5
DE58
  8
0
 10
7076.1637872372020865
 20
1433.1392963461580621
 30
0.0
 40
0.0196850392292909
 50
269.9999995031291746
 51
0.0000000000260551
  0
ARC
  5
DE59
  8
0
 10
7076.1834722764797334
 20
1433.2377215431790773
 30
0.0
 40
0.0078740157499908
 50
90.0000003637813677
 51
269.9999996362187176
  0
LINE
  5
DE5A
  8
0
 10
7076.1834722764297112
 20
1433.2298475274280918
 30
0.0
 11
7076.1834722764297112
 21
1433.1392963461580621
 31
0.0
  0
LINE
  5
DE5B
  8
0
 10
7076.1834722764297112
 20
1433.245595558928926
 30
0.0
 11
7076.1834722764297112
 21
1434.5448081573290438
 31
0.0
  0
LINE
  5
DE5C
  8
0
 10
7076.163787237030192
 20
1433.1196113069290732
 30
0.0
 11
7076.148039205598252
 21
1433.1196113069290732
 31
0.0
  0
LINE
  5
DE5D
  8
0
 10
7076.1834722764297112
 20
1433.2298475274280918
 30
0.0
 11
7076.148039205598252
 21
1433.2298475274280918
 31
0.0
  0
LINE
  5
DE5E
  8
0
 10
7076.1834722764297112
 20
1433.245595558928926
 30
0.0
 11
7076.148039205598252
 21
1433.245595558928926
 31
0.0
  0
LINE
  5
DE5F
  8
0
 10
7076.1834722764297112
 20
1434.5448081573290438
 30
0.0
 11
7076.148039205598252
 21
1434.5448081573290438
 31
0.0
  0
LINE
  5
DE60
  8
0
 10
7076.1755982607292026
 20
1434.6881052425289909
 30
0.0
 11
7076.1755982607292026
 21
1435.3700150092290642
 31
0.0
  0
LINE
  5
DE61
  8
0
 10
7076.1755982607292026
 20
1435.3700150092290642
 30
0.0
 11
7076.148039205598252
 21
1435.3859262371470322
 31
0.0
  0
LINE
  5
DE62
  8
0
 10
7076.1755982607292026
 20
1434.6881052425289909
 30
0.0
 11
7076.148039205598252
 21
1434.6721940146101133
 31
0.0
  0
ARC
  5
DE63
  8
0
 10
7075.5850470796185618
 20
1435.0290601258338938
 30
0.0
 40
0.6382224914125602
 50
331.8997941180065823
 51
337.7145615413012933
  0
ARC
  5
DE64
  8
0
 10
7075.5850470796376612
 20
1435.0290601258320748
 30
0.0
 40
0.6382224913912155
 50
22.2854384587108001
 51
28.100205882121319
  0
LINE
  5
DE65
  8
0
 10
7075.0220549536807084
 20
1434.5448081573290438
 30
0.0
 11
7074.9866218827310149
 21
1434.5448081573290438
 31
0.0
  0
LINE
  5
DE66
  8
0
 10
7074.9866218827310149
 20
1434.5448081573290438
 30
0.0
 11
7074.9866218827310149
 21
1433.8548475274290013
 31
0.0
  0
ENDSEC
  0
EOF
