  0
SECTION
  2
HEADER
  9
$ACADVER
  1
AC1009
  9
$INSBASE
 10
8614.9048889303176111
 20
2270.0031833560487939
 30
0.0
  9
$EXTMIN
 10
8607.1157140532177436
 20
2243.5214121759709087
 30
0.0
  9
$EXTMAX
 10
8622.6940638071791909
 20
2270.0082500844459901
 30
0.0
  9
$LIMMIN
 10
0.0
 20
0.0
  9
$LIMMAX
 10
11.6929133858000007
 20
8.2677165353999982
  9
$ORTHOMODE
 70
     0
  9
$REGENMODE
 70
     1
  9
$FILLMODE
 70
     1
  9
$QTEXTMODE
 70
     0
  9
$MIRRTEXT
 70
     0
  9
$DRAGMODE
 70
     2
  9
$LTSCALE
 40
0.6431102362
  9
$OSMODE
 70
  4063
  9
$ATTMODE
 70
     1
  9
$TEXTSIZE
 40
0.2
  9
$TRACEWID
 40
0.05
  9
$TEXTSTYLE
  7
STANDARD
  9
$CLAYER
  8
0
  9
$CELTYPE
  6
BYLAYER
  9
$CECOLOR
 62
     1
  9
$DIMSCALE
 40
1.0
  9
$DIMASZ
 40
0.1875
  9
$DIMEXO
 40
0.0625
  9
$DIMDLI
 40
0.4443307087
  9
$DIMRND
 40
0.0
  9
$DIMDLE
 40
0.0
  9
$DIMEXE
 40
0.125
  9
$DIMTP
 40
0.01
  9
$DIMTM
 40
0.01
  9
$DIMTXT
 40
2.0
  9
$DIMCEN
 40
0.1052362205
  9
$DIMTSZ
 40
0.0
  9
$DIMTOL
 70
     1
  9
$DIMLIM
 70
     0
  9
$DIMTIH
 70
     1
  9
$DIMTOH
 70
     1
  9
$DIMSE1
 70
     0
  9
$DIMSE2
 70
     0
  9
$DIMTAD
 70
     0
  9
$DIMZIN
 70
     0
  9
$DIMBLK
  1

  9
$DIMASO
 70
     1
  9
$DIMSHO
 70
     1
  9
$DIMPOST
  1
\X
  9
$DIMAPOST
  1

  9
$DIMALT
 70
     1
  9
$DIMALTD
 70
     2
  9
$DIMALTF
 40
25.3999999999999986
  9
$DIMLFAC
 40
1.0
  9
$DIMTOFL
 70
     0
  9
$DIMTVP
 40
0.0
  9
$DIMTIX
 70
     0
  9
$DIMSOXD
 70
     0
  9
$DIMSAH
 70
     0
  9
$DIMBLK1
  1

  9
$DIMBLK2
  1

  9
$DIMSTYLE
  2
STANDARD
  9
$DIMCLRD
 70
     0
  9
$DIMCLRE
 70
     0
  9
$DIMCLRT
 70
     0
  9
$DIMTFAC
 40
1.0
  9
$DIMGAP
 40
0.09
  9
$LUNITS
 70
     2
  9
$LUPREC
 70
     4
  9
$SKETCHINC
 40
0.1
  9
$FILLETRAD
 40
0.0
  9
$AUNITS
 70
     0
  9
$AUPREC
 70
     0
  9
$MENU
  1
.
  9
$ELEVATION
 40
0.0
  9
$PELEVATION
 40
0.0
  9
$THICKNESS
 40
0.0
  9
$LIMCHECK
 70
     0
  9
$BLIPMODE
 70
     0
  9
$CHAMFERA
 40
0.0
  9
$CHAMFERB
 40
0.0
  9
$SKPOLY
 70
     0
  9
$TDCREATE
 40
2458060.468368056230247
  9
$TDUPDATE
 40
2459417.6140162041410804
  9
$TDINDWG
 40
0.4425649306
  9
$TDUSRTIMER
 40
0.4425649306
  9
$USRTIMER
 70
     1
  9
$ANGBASE
 50
0.0
  9
$ANGDIR
 70
     0
  9
$PDMODE
 70
     0
  9
$PDSIZE
 40
0.3125
  9
$PLINEWID
 40
0.0
  9
$COORDS
 70
     1
  9
$SPLFRAME
 70
     0
  9
$SPLINETYPE
 70
     6
  9
$SPLINESEGS
 70
     8
  9
$ATTDIA
 70
     1
  9
$ATTREQ
 70
     1
  9
$HANDLING
 70
     1
  9
$HANDSEED
  5
110BE
  9
$SURFTAB1
 70
     6
  9
$SURFTAB2
 70
     6
  9
$SURFTYPE
 70
     6
  9
$SURFU
 70
     6
  9
$SURFV
 70
     6
  9
$UCSNAME
  2

  9
$UCSORG
 10
0.0
 20
0.0
 30
0.0
  9
$UCSXDIR
 10
1.0
 20
0.0
 30
0.0
  9
$UCSYDIR
 10
0.0
 20
1.0
 30
0.0
  9
$PUCSNAME
  2

  9
$PUCSORG
 10
0.0
 20
0.0
 30
0.0
  9
$PUCSXDIR
 10
1.0
 20
0.0
 30
0.0
  9
$PUCSYDIR
 10
0.0
 20
1.0
 30
0.0
  9
$USERI1
 70
     0
  9
$USERI2
 70
     0
  9
$USERI3
 70
     0
  9
$USERI4
 70
     0
  9
$USERI5
 70
     0
  9
$USERR1
 40
0.0
  9
$USERR2
 40
0.0
  9
$USERR3
 40
0.0
  9
$USERR4
 40
0.0
  9
$USERR5
 40
0.0
  9
$WORLDVIEW
 70
     1
  9
$SHADEDGE
 70
     3
  9
$SHADEDIF
 70
    70
  9
$TILEMODE
 70
     1
  9
$MAXACTVP
 70
    64
  9
$PLIMCHECK
 70
     0
  9
$PEXTMIN
 10
1.0000000000000000E+20
 20
1.0000000000000000E+20
 30
1.0000000000000000E+20
  9
$PEXTMAX
 10
-1.0000000000000000E+20
 20
-1.0000000000000000E+20
 30
-1.0000000000000000E+20
  9
$PLIMMIN
 10
0.0
 20
0.0
  9
$PLIMMAX
 10
12.0
 20
9.0
  9
$UNITMODE
 70
     0
  9
$VISRETAIN
 70
     1
  9
$PLINEGEN
 70
     0
  9
$PSLTSCALE
 70
     1
  0
ENDSEC
  0
SECTION
  2
TABLES
  0
TABLE
  2
VPORT
 70
     1
  0
VPORT
  2
*ACTIVE
 70
     0
 10
0.0
 20
0.0
 11
1.0
 21
1.0
 12
3799.4402041021858167
 22
2008.9334403947359533
 13
0.0
 23
0.0
 14
1.0
 24
1.0
 15
0.0
 25
0.0
 16
0.0
 26
0.0
 36
9.5192988075487186
 17
4815.2983398437490905
 27
247.8086242675780966
 37
0.0
 40
26.8825117108976599
 41
2.0416141235813359
 42
50.0
 43
0.0
 44
0.0
 50
0.0
 51
0.0
 71
     0
 72
   100
 73
     1
 74
     1
 75
     0
 76
     0
 77
     0
 78
     0
  0
ENDTAB
  0
TABLE
  2
LTYPE
 70
     2
  0
LTYPE
  2
CONTINUOUS
 70
     0
  3
Solid line
 72
    65
 73
     0
 40
0.0
  0
LTYPE
  2
PHANTOM2
 70
     0
  3
___ _ _ ___ _ _ ___ _ _ ___ _ _
 72
    65
 73
     6
 40
1.25
 49
0.625
 49
-0.125
 49
0.125
 49
-0.125
 49
0.125
 49
-0.125
  0
ENDTAB
  0
TABLE
  2
LAYER
 70
     2
  0
LAYER
  2
0
 70
     0
 62
   255
  6
CONTINUOUS
  0
LAYER
  2
DEFPOINTS
 70
     0
 62
     7
  6
CONTINUOUS
  0
ENDTAB
  0
TABLE
  2
STYLE
 70
     1
  0
STYLE
  2
STANDARD
 70
     0
 40
0.0
 41
0.8
 50
0.0
 71
     0
 42
0.2
  3
txt
  4

  0
ENDTAB
  0
TABLE
  2
VIEW
 70
     0
  0
ENDTAB
  0
TABLE
  2
UCS
 70
     0
  0
ENDTAB
  0
TABLE
  2
APPID
 70
    10
  0
APPID
  2
ACAD
 70
     0
  0
APPID
  2
ACAD_MLEADERVER
 70
     0
  0
APPID
  2
ACAD_EXEMPT_FROM_CAD_STANDARDS
 70
     0
  0
APPID
  2
ACAD_NAV_VCDISPLAY
 70
     0
  0
APPID
  2
ACAECLAYERSTANDARD
 70
     0
  0
APPID
  2
ACCMTRANSPARENCY
 70
     0
  0
APPID
  2
ACAD_DSTYLE_DIMJAG
 70
     0
  0
APPID
  2
ACAD_DSTYLE_DIMTALN
 70
     0
  0
APPID
  2
ACDBATTR
 70
     0
  0
APPID
  2
ACADANNOTATIVE
 70
     0
  0
ENDTAB
  0
TABLE
  2
DIMSTYLE
 70
     1
  0
DIMSTYLE
  2
STANDARD
 70
     0
  3

  4

  5

  6

  7

 40
1.0
 41
0.1875
 42
0.0625
 43
0.38
 44
0.125
 45
0.0
 46
0.0
 47
0.01
 48
0.01
140
0.15625
141
0.09
142
0.0
143
25.3999999999999986
144
1.0
145
0.0
146
1.0
147
0.09
 71
     1
 72
     0
 73
     1
 74
     1
 75
     0
 76
     0
 77
     0
 78
     4
170
     0
171
     2
172
     0
173
     0
174
     0
175
     0
176
     0
177
     0
178
     0
  0
ENDTAB
  0
ENDSEC
  0
SECTION
  2
BLOCKS
  0
BLOCK
  8
0
  2
$MODEL_SPACE
 70
     0
 10
0.0
 20
0.0
 30
0.0
  3
$MODEL_SPACE
  1

  0
ENDBLK
  5
21
  8
0
  0
BLOCK
 67
     1
  8
0
  2
$PAPER_SPACE
 70
     0
 10
0.0
 20
0.0
 30
0.0
  3
$PAPER_SPACE
  1

  0
ENDBLK
  5
1D
 67
     1
  8
0
  0
BLOCK
  8
0
  2
_FILLED
 70
     0
 10
0.0
 20
0.0
 30
0.0
  3
_FILLED
  1

  0
SOLID
  5
10F49
  8
0
  6
BYBLOCK
 62
     0
 10
0.0
 20
0.0
 30
0.0
 11
-1.0
 21
0.1666666667
 31
0.0
 12
-1.0
 22
-0.1666666667
 32
0.0
 13
-1.0
 23
-0.1666666667
 33
0.0
  0
ENDBLK
  5
10F4A
  8
0
  6
BYBLOCK
 62
     0
  0
ENDSEC
  0
SECTION
  2
ENTITIES
  0
ATTDEF
  5
3930
  8
DEFPOINTS
 10
8614.9058693279548606
 20
2270.0072500844448768
 30
0.0
 40
0.001
  1
K-4346A
  3

  2
MODELNUMBER
 70
     0
1001
ACDBATTR
1070
     0
1070
     1
  0
ATTDEF
  5
3931
  8
DEFPOINTS
 10
8614.9058693279548606
 20
2270.0055834177787801
 30
0.0
 40
0.001
  1
PARLIAMANT
  3

  2
TRADENAME
 70
     0
1001
ACDBATTR
1070
     0
1070
     1
  0
ATTDEF
  5
3932
  8
DEFPOINTS
 10
8614.9058693279548606
 20
2270.0039167511117739
 30
0.0
 40
0.001
  1
TOILET
  3

  2
PRODUCT
 70
     0
1001
ACDBATTR
1070
     0
1070
     1
  0
CIRCLE
  5
10FC5
  8
0
 10
8614.9048889303176111
 20
2266.5412283582409145
 30
0.0
 40
0.9448639086000012
  0
ARC
  5
10FC6
  8
0
 10
8614.9048889303176111
 20
2266.5412283582409145
 30
0.0
 40
0.6677621342000016
 50
97.685985803084904
 51
262.3284289301466856
  0
ARC
  5
10FC7
  8
0
 10
8614.9048889303176111
 20
2266.5412283582409145
 30
0.0
 40
0.6677621342000016
 50
267.6407176565573991
 51
92.3613811562293563
  0
CIRCLE
  5
10FC8
  8
0
 10
8614.9048889303176111
 20
2266.5412283582409145
 30
0.0
 40
0.6888738875544789
  0
ARC
  5
10FC9
  8
0
 10
8614.8182681893995323
 20
2265.8989792687398221
 30
0.0
 40
0.0196983681901219
 50
262.6447434557836118
 51
9.5961967591085298
  0
ARC
  5
10FCA
  8
0
 10
8614.8182003155725397
 20
2267.1834812671190775
 30
0.0
 40
0.019685202329845
 50
350.2906392156505149
 51
97.649722247034731
  0
ARC
  5
10FCB
  8
0
 10
8618.617322079713631
 20
2266.5414706312199087
 30
0.0
 40
3.8333011922223479
 50
170.4088545995851973
 51
189.5989804577343989
  0
ARC
  5
10FCC
  8
0
 10
8614.8782735836302891
 20
2265.8936941280380779
 30
0.0
 40
0.0196812597897007
 50
189.7766413477988863
 51
267.4562782098511775
  0
ARC
  5
10FCD
  8
0
 10
8618.6153190303921292
 20
2266.5414254054730918
 30
0.0
 40
3.8124460042100479
 50
170.1731803698556007
 51
189.8329255800697979
  0
ARC
  5
10FCE
  8
0
 10
8614.8782382338122261
 20
2267.1887216235518281
 30
0.0
 40
0.0197206977954394
 50
92.506904225145135
 51
170.1406846787940026
  0
ARC
  5
10FCF
  8
0
 10
8614.7368578029490891
 20
2267.1681449174598129
 30
0.0
 40
0.0333123577326614
 50
51.0619511032100419
 51
158.9464635293479944
  0
ARC
  5
10FD0
  8
0
 10
8614.4459208828466217
 20
2267.0001344184911432
 30
0.0
 40
0.0333218583764262
 50
81.0695991702105232
 51
188.9381395950329932
  0
ARC
  5
10FD1
  8
0
 10
8614.2779646214348759
 20
2266.7091736002439575
 30
0.0
 40
0.0333271255134305
 50
111.0732424054782967
 51
218.9333439802711041
  0
ARC
  5
10FD2
  8
0
 10
8614.2779819476781995
 20
2266.3732183145921226
 30
0.0
 40
0.0333270941616934
 50
141.0725421860853999
 51
248.9384258465024971
  0
ARC
  5
10FD3
  8
0
 10
8614.4459682250708283
 20
2266.0822747573229208
 30
0.0
 40
0.033321716399178
 50
171.0676713321003888
 51
278.936435511444472
  0
ARC
  5
10FD4
  8
0
 10
8614.7369226684040768
 20
2265.9142943504180039
 30
0.0
 40
0.0333122456385241
 50
201.0594780812170939
 51
308.9439666536940194
  0
ARC
  5
10FD5
  8
0
 10
8614.9613531904778938
 20
2267.1873548831240441
 30
0.0
 40
0.033767859724552
 50
31.4375164030358611
 51
138.5738335094854108
  0
ARC
  5
10FD6
  8
0
 10
8615.3130529367881536
 20
2267.0453414223229629
 30
0.0
 40
0.0337219393700044
 50
357.3975906403279055
 51
104.6104690882642956
  0
ARC
  5
10FD7
  8
0
 10
8614.9614370572235202
 20
2265.8950789075352077
 30
0.0
 40
0.0337377202109891
 50
221.4088696891323025
 51
328.5941882762060118
  0
ARC
  5
10FD8
  8
0
 10
8615.3131044617057341
 20
2266.0371583705250487
 30
0.0
 40
0.0337225575203611
 50
255.3969099855673051
 51
2.6068936021443201
  0
ARC
  5
10FD9
  8
0
 10
8615.5251978150881769
 20
2266.3516120140470775
 30
0.0
 40
0.0337140746221307
 50
289.3907436831419773
 51
36.6145128241048212
  0
ARC
  5
10FDA
  8
0
 10
8615.5251781456790923
 20
2266.7309089256050356
 30
0.0
 40
0.0337141071397318
 50
323.3914466874916798
 51
70.6151628923071257
  0
CIRCLE
  5
10FDB
  8
0
 10
8614.9048889303176111
 20
2266.5412283582409145
 30
0.0
 40
0.6823568629783492
  0
CIRCLE
  5
10FDC
  8
0
 10
8614.9048889303176111
 20
2266.5412283582409145
 30
0.0
 40
0.66919432135603
  0
CIRCLE
  5
10FDD
  8
0
 10
8614.9048889303176111
 20
2266.5412283582409145
 30
0.0
 40
0.9055118110000002
  0
LINE
  5
10FDE
  8
0
 10
8614.826139057866385
 20
2267.108153368872081
 30
0.0
 11
8614.8452311227611062
 21
2267.1081543563459491
 31
0.0
  0
LINE
  5
10FDF
  8
0
 10
8614.8249704465160903
 20
2267.1002792929948555
 30
0.0
 11
8614.8440558780712308
 21
2267.1002802801622238
 31
0.0
  0
ARC
  5
10FE0
  8
0
 10
8614.7778698077781883
 20
2266.938004779261064
 30
0.0
 40
0.0357682829424192
 50
312.2636185646803142
 51
35.9433107316393006
  0
LINE
  5
10FE1
  8
0
 10
8614.8199361129154568
 20
2266.0179652831488966
 30
0.0
 11
8614.8389801861267188
 21
2266.0179662682999151
 31
0.0
  0
LINE
  5
10FE2
  8
0
 10
8614.8194451781819225
 20
2266.0215388365359104
 30
0.0
 11
8614.8384865593216091
 21
2266.0215398214450033
 31
0.0
  0
ARC
  5
10FE3
  8
0
 10
8614.7779099291838065
 20
2266.1444306476000747
 30
0.0
 40
0.0357736647304911
 50
324.0835436709418786
 51
47.7245870906167795
  0
LINE
  5
10FE4
  8
0
 10
8614.7917639876723115
 20
2266.7849933503230204
 30
0.0
 11
8614.8106615274828073
 21
2266.784994329159872
 31
0.0
  0
LINE
  5
10FE5
  8
0
 10
8614.7908133719665784
 20
2266.7695696006071557
 30
0.0
 11
8614.8097052625271317
 21
2266.7695665566511707
 31
0.0
  0
LINE
  5
10FE6
  8
0
 10
8614.7917956159108144
 20
2266.2974515642517872
 30
0.0
 11
8614.8106874088025506
 21
2266.2974525401159553
 31
0.0
  0
LINE
  5
10FE7
  8
0
 10
8614.7908429535655159
 20
2266.3128759518199331
 30
0.0
 11
8614.8097297029944457
 21
2266.3128769287459363
 31
0.0
  0
ARC
  5
10FE8
  8
0
 10
8611.8733928673173068
 20
2260.237862918141218
 30
0.0
 40
0.8877952755999984
 50
7.0047264131968436
 51
172.9952735868031937
  0
ARC
  5
10FE9
  8
0
 10
8607.9894471693842206
 20
2269.1317301089147804
 30
0.0
 40
0.8760035446313617
 50
95.8424198689530868
 51
175.873969300267305
  0
ARC
  5
10FEA
  8
0
 10
8608.3732577847658831
 20
2264.2695956586380817
 30
0.0
 40
1.2585527216376129
 50
182.2944277836087963
 51
267.5531548064990943
  0
LINE
  5
10FEB
  8
0
 10
8607.6795525365450885
 20
2260.0772337810158206
 30
0.0
 11
8607.7434954517193546
 21
2263.1798463716081642
 31
0.0
  0
ARC
  5
10FEC
  8
0
 10
8608.1738015401242592
 20
2259.7587914057289709
 30
0.0
 40
0.5879520592020987
 50
92.6162213051187422
 51
169.6886911217929139
  0
ARC
  5
10FED
  8
0
 10
8658.3609050696195482
 20
2256.4014601736139412
 30
0.0
 40
50.8835090276256992
 50
176.0980633977424077
 51
184.4500621695156042
  0
ARC
  5
10FEE
  8
0
 10
8619.0944894003096124
 20
2253.1258597712630944
 30
0.0
 40
11.4834030919703505
 50
183.3571204742434873
 51
212.080212735679595
  0
ARC
  5
10FEF
  8
0
 10
8616.1011888194261701
 20
2251.1761534327788468
 30
0.0
 40
7.9119074426268616
 50
211.6295067871695039
 51
246.2929626234864031
  0
ARC
  5
10FF0
  8
0
 10
8614.9219559039283922
 20
2248.6074027212430337
 30
0.0
 40
5.0860191808706716
 50
246.8216384657077072
 51
269.8077342303687942
  0
ARC
  5
10FF1
  8
0
 10
8610.0091221290240355
 20
2260.3365138551898781
 30
0.0
 40
0.0502501950913668
 50
0.2239266031693905
 51
11.0332109766420903
  0
LINE
  5
10FF2
  8
0
 10
8610.0593719403459545
 20
2260.3367102453021289
 30
0.0
 11
8610.0617368404182344
 21
2260.2845024150410609
 31
0.0
  0
ARC
  5
10FF3
  8
0
 10
8610.0700094039711985
 20
2260.2855621990138388
 30
0.0
 40
0.0083401708512261
 50
187.3003007808173095
 51
232.5360731816676036
  0
ARC
  5
10FF4
  8
0
 10
8610.0941587087218068
 20
2260.3138440691509459
 30
0.0
 40
0.0455200716929667
 50
230.0614670137734095
 51
251.4313244734829027
  0
ARC
  5
10FF5
  8
0
 10
8610.1686968495905603
 20
2260.5370638824870184
 30
0.0
 40
0.2808559812096905
 50
251.5179208685152048
 51
265.5368493391969196
  0
ARC
  5
10FF6
  8
0
 10
8610.2348887760763319
 20
2261.1436766959150191
 30
0.0
 40
0.8909782801463535
 50
264.328705249052291
 51
269.8226898340568027
  0
LINE
  5
10FF7
  8
0
 10
8610.0755531546183192
 20
2260.2722999927577803
 30
0.0
 11
8610.0769866354894475
 21
2260.3324446688488933
 31
0.0
  0
ARC
  5
10FF8
  8
0
 10
8610.0784520347388025
 20
2260.3457430464859499
 30
0.0
 40
0.000512140137376
 50
130.8169980477395882
 51
171.6313375294215859
  0
ARC
  5
10FF9
  8
0
 10
8610.2280606401091063
 20
2260.3283349058901877
 30
0.0
 40
0.1511298945412363
 50
173.3571626376204051
 51
178.4417305111759049
  0
LINE
  5
10FFA
  8
0
 10
8611.6627629450358654
 20
2260.3461306347408026
 30
0.0
 11
8611.662762931198813
 21
2260.3094501738769395
 31
0.0
  0
LINE
  5
10FFB
  8
0
 10
8611.702133024817158
 20
2260.3067605559408548
 30
0.0
 11
8611.702133024817158
 21
2260.2724096762408408
 31
0.0
  0
LINE
  5
10FFC
  8
0
 10
8611.702133024817158
 20
2260.3067605559408548
 30
0.0
 11
8611.6627629450358654
 21
2260.3461306354138287
 31
0.0
  0
ARC
  5
10FFD
  8
0
 10
8611.7441740014164679
 20
2260.3227362857619482
 30
0.0
 40
0.0824880786717839
 50
189.2688373107673954
 51
238.1046800170587119
  0
ARC
  5
10FFE
  8
0
 10
8611.7429625914155622
 20
2260.2761353220239471
 30
0.0
 40
0.040999194444272
 50
185.213728255440401
 51
214.857616971913103
  0
LINE
  5
10FFF
  8
0
 10
8608.1469639921178896
 20
2260.3461306347408026
 30
0.0
 11
8610.0584435205073532
 21
2260.3461306347408026
 31
0.0
  0
LINE
  5
11000
  8
0
 10
8610.0781172768183751
 20
2260.3461306347408026
 30
0.0
 11
8611.6627629457052535
 21
2260.3461306347408026
 31
0.0
  0
LINE
  5
11001
  8
0
 10
8612.0840227886201319
 20
2260.3461306347408026
 30
0.0
 11
8612.8576448358180642
 21
2260.3461306347408026
 31
0.0
  0
ARC
  5
11002
  8
0
 10
8612.0077548288918479
 20
2260.2745364738420903
 30
0.0
 40
0.0369591244348041
 50
323.7893884224037038
 51
356.7011177742207906
  0
ARC
  5
11003
  8
0
 10
8612.0022059088969399
 20
2260.3230458968318999
 30
0.0
 40
0.0829390590258819
 50
301.9909991575249819
 51
350.5641702060993907
  0
LINE
  5
11004
  8
0
 10
8612.0446527098174556
 20
2260.2724096776419174
 30
0.0
 11
8612.0446527098174556
 21
2260.3067605559408548
 31
0.0
  0
LINE
  5
11005
  8
0
 10
8612.0840227886201319
 20
2260.3094486285408493
 30
0.0
 11
8612.0840227886201319
 21
2260.3461306347408026
 31
0.0
  0
LINE
  5
11006
  8
0
 10
8612.0446527098174556
 20
2260.3067605559408548
 30
0.0
 11
8612.0840227886201319
 21
2260.3461306347408026
 31
0.0
  0
ARC
  5
11007
  8
0
 10
8612.5438332028934383
 20
2260.2947777071608471
 30
0.0
 40
0.3179856350997321
 50
0.7222715209219946
 51
9.2936523407362106
  0
ARC
  5
11008
  8
0
 10
8612.9256672799710941
 20
2260.3072608007100825
 30
0.0
 40
0.0644334578932106
 50
187.5577763590640927
 51
237.8583972957393087
  0
LINE
  5
11009
  8
0
 10
8610.2321315179342491
 20
2260.2527026821408072
 30
0.0
 11
8619.577646342700973
 21
2260.2527026821408072
 31
0.0
  0
LINE
  5
1100A
  8
0
 10
8608.3195269908173941
 20
2263.0121904117409031
 30
0.0
 11
8621.4902508698178281
 21
2263.0121904117409031
 31
0.0
  0
ARC
  5
1100B
  8
0
 10
8608.0191040211866493
 20
2269.105158429948915
 30
0.0
 40
0.6935572749959569
 50
90.0660472356195072
 51
176.7224943849971908
  0
ARC
  5
1100C
  8
0
 10
8608.4110330588919169
 20
2264.3084664888829138
 30
0.0
 40
1.08444741666497
 50
180.760505872408288
 51
269.190524617200424
  0
LINE
  5
1100D
  8
0
 10
8607.3266811705161672
 20
2269.1448105367289827
 30
0.0
 11
8607.3266811705161672
 21
2264.2940726815390917
 31
0.0
  0
LINE
  5
1100E
  8
0
 10
8608.0183045289541042
 20
2269.7987152441410217
 30
0.0
 11
8621.791473331681118
 21
2269.7987152441410217
 31
0.0
  0
LINE
  5
1100F
  8
0
 10
8608.3957124839234893
 20
2263.2241272986411786
 30
0.0
 11
8621.4140653767117328
 21
2263.2241272986411786
 31
0.0
  0
ARC
  5
11010
  8
0
 10
8617.9363849933197343
 20
2260.237862918141218
 30
0.0
 40
0.8877952755999984
 50
7.0047264131968436
 51
172.9952735868031937
  0
ARC
  5
11011
  8
0
 10
8621.4365205861686263
 20
2264.2695951494470137
 30
0.0
 40
1.2585521911252759
 50
272.4468229728344113
 51
357.705594448301099
  0
LINE
  5
11012
  8
0
 10
8622.1302253240901337
 20
2260.0772337810158206
 30
0.0
 11
8622.0662824089158676
 21
2263.1798463716081642
 31
0.0
  0
ARC
  5
11013
  8
0
 10
8621.635976320509144
 20
2259.7587914057289709
 30
0.0
 40
0.5879520592020987
 50
10.3113088782070896
 51
87.383778694881272
  0
ARC
  5
11014
  8
0
 10
8571.448872791015674
 20
2256.4014601736139412
 30
0.0
 40
50.8835090276256992
 50
355.5499378304843958
 51
3.9019366022576198
  0
ARC
  5
11015
  8
0
 10
8610.7152884603274288
 20
2253.1258597712630944
 30
0.0
 40
11.4834030919703505
 50
327.9197872643202913
 51
356.6428795257564275
  0
ARC
  5
11016
  8
0
 10
8613.7085890412090521
 20
2251.1761534327788468
 30
0.0
 40
7.9119074426268616
 50
293.7070373765135969
 51
328.3704932128305245
  0
ARC
  5
11017
  8
0
 10
8614.88782195670683
 20
2248.6074027212430337
 30
0.0
 40
5.0860191808706663
 50
270.1922657696312058
 51
293.1783615342923213
  0
ARC
  5
11018
  8
0
 10
8619.8006557316111866
 20
2260.3365138551898781
 30
0.0
 40
0.0502501950913668
 50
168.9667890233579044
 51
179.7760733968306113
  0
LINE
  5
11019
  8
0
 10
8619.7504059202892677
 20
2260.3367102453021289
 30
0.0
 11
8619.7480410202169878
 21
2260.2845024150410609
 31
0.0
  0
ARC
  5
1101A
  8
0
 10
8619.7397684566640237
 20
2260.2855621990138388
 30
0.0
 40
0.0083401708512261
 50
307.4639268183324248
 51
352.6996992191826052
  0
ARC
  5
1101B
  8
0
 10
8619.7156191519134154
 20
2260.3138440691509459
 30
0.0
 40
0.0455200716929667
 50
288.5686755265170973
 51
309.9385329862266758
  0
ARC
  5
1101C
  8
0
 10
8619.6410810110446619
 20
2260.5370638824870184
 30
0.0
 40
0.2808559812096905
 50
274.4631506608030804
 51
288.4820791314847952
  0
ARC
  5
1101D
  8
0
 10
8619.5748890845588903
 20
2261.1436766959150191
 30
0.0
 40
0.8909782801463535
 50
270.1773101659431973
 51
275.6712947509475953
  0
LINE
  5
1101E
  8
0
 10
8619.7342247060187219
 20
2260.2722999927577803
 30
0.0
 11
8619.7327912251475937
 21
2260.3324446688488933
 31
0.0
  0
ARC
  5
1101F
  8
0
 10
8619.7313258258982387
 20
2260.3457430464859499
 30
0.0
 40
0.000512140137376
 50
8.3686624705784176
 51
49.1830019522603905
  0
ARC
  5
11020
  8
0
 10
8619.5817172205261159
 20
2260.3283349058901877
 30
0.0
 40
0.1511298945412363
 50
1.5582694888241171
 51
6.6428373623795673
  0
LINE
  5
11021
  8
0
 10
8618.1470149156011757
 20
2260.3461306347408026
 30
0.0
 11
8618.1470149294364091
 21
2260.3094501738769395
 31
0.0
  0
LINE
  5
11022
  8
0
 10
8618.1076448358180642
 20
2260.3067605559408548
 30
0.0
 11
8618.1076448358180642
 21
2260.2724096762408408
 31
0.0
  0
LINE
  5
11023
  8
0
 10
8618.1076448358180642
 20
2260.3067605559408548
 30
0.0
 11
8618.1470149156011757
 21
2260.3461306354138287
 31
0.0
  0
ARC
  5
11024
  8
0
 10
8618.0656038592205732
 20
2260.3227362857619482
 30
0.0
 40
0.0824880786717839
 50
301.8953199829413734
 51
350.7311626892325194
  0
ARC
  5
11025
  8
0
 10
8618.06681526921966
 20
2260.2761353220239471
 30
0.0
 40
0.040999194444272
 50
325.1423830280867833
 51
354.786271744559599
  0
LINE
  5
11026
  8
0
 10
8621.6628138685173326
 20
2260.3461306347408026
 30
0.0
 11
8619.7513343401278689
 21
2260.3461306347408026
 31
0.0
  0
LINE
  5
11027
  8
0
 10
8619.7316605838168471
 20
2260.3461306347408026
 30
0.0
 11
8618.1470149149299687
 21
2260.3461306347408026
 31
0.0
  0
LINE
  5
11028
  8
0
 10
8617.7257550720169093
 20
2260.3461306347408026
 30
0.0
 11
8616.952133024817158
 21
2260.3461306347408026
 31
0.0
  0
ARC
  5
11029
  8
0
 10
8617.8020230317451933
 20
2260.2745364738420903
 30
0.0
 40
0.0369591244348041
 50
183.2988822257790957
 51
216.2106115775962962
  0
ARC
  5
1102A
  8
0
 10
8617.8075719517382822
 20
2260.3230458968318999
 30
0.0
 40
0.0829390590258819
 50
189.4358297939006093
 51
238.0090008424749897
  0
LINE
  5
1102B
  8
0
 10
8617.7651251508177666
 20
2260.2724096776419174
 30
0.0
 11
8617.7651251508177666
 21
2260.3067605559408548
 31
0.0
  0
LINE
  5
1102C
  8
0
 10
8617.7257550720169093
 20
2260.3094486285408493
 30
0.0
 11
8617.7257550720169093
 21
2260.3461306347408026
 31
0.0
  0
LINE
  5
1102D
  8
0
 10
8617.7651251508177666
 20
2260.3067605559408548
 30
0.0
 11
8617.7257550720169093
 21
2260.3461306347408026
 31
0.0
  0
ARC
  5
1102E
  8
0
 10
8617.2659446577417839
 20
2260.2947777071608471
 30
0.0
 40
0.3179856350997321
 50
170.7063476592637983
 51
179.2777284790780072
  0
ARC
  5
1102F
  8
0
 10
8616.8841105806604901
 20
2260.3072608007100825
 30
0.0
 40
0.0644334578932106
 50
302.1416027042607197
 51
352.442223640935822
  0
ARC
  5
11030
  8
0
 10
8621.7906738394485728
 20
2269.105158429948915
 30
0.0
 40
0.6935572749959242
 50
3.2775056150027289
 51
89.933952764380507
  0
ARC
  5
11031
  8
0
 10
8621.3987448017433053
 20
2264.3084664888829138
 30
0.0
 40
1.08444741666497
 50
270.8094753827995191
 51
359.2394941275916835
  0
LINE
  5
11032
  8
0
 10
8622.483096690117236
 20
2269.1448105367289827
 30
0.0
 11
8622.483096690117236
 21
2264.2940726815390917
 31
0.0
  0
LINE
  5
11033
  8
0
 10
8607.1157140532177436
 20
2269.1947590857412251
 30
0.0
 11
8607.1157140532177436
 21
2264.2192099822418641
 31
0.0
  0
LINE
  5
11034
  8
0
 10
8622.6940638071791909
 20
2269.1947590857412251
 30
0.0
 11
8622.6940638071791909
 21
2264.2192099822418641
 31
0.0
  0
LINE
  5
11035
  8
0
 10
8607.9002762757772871
 20
2270.0031833560487939
 30
0.0
 11
8621.9095015848561161
 21
2270.0031833560487939
 31
0.0
  0
ARC
  5
11036
  8
0
 10
8621.8207712009698298
 20
2269.1321576164791622
 30
0.0
 40
0.8755335059374647
 50
4.1002008393824578
 51
84.1834099740580086
  0
ENDSEC
  0
EOF
