  0
SECTION
  2
HEADER
  9
$ACADVER
  1
AC1009
  9
$INSBASE
 10
3846.9844681783270062
 20
111.0431698698163956
 30
0.0
  9
$EXTMIN
 10
3810.6321756549400561
 20
102.2555663680575009
 30
0.0
  9
$EXTMAX
 10
3853.0473089307270129
 20
160.7271575667930108
 30
0.0
  9
$LIMMIN
 10
0.0
 20
0.0
  9
$LIMMAX
 10
11.6929133858000007
 20
8.2677165353999982
  9
$ORTHOMODE
 70
     0
  9
$REGENMODE
 70
     1
  9
$FILLMODE
 70
     1
  9
$QTEXTMODE
 70
     0
  9
$MIRRTEXT
 70
     0
  9
$DRAGMODE
 70
     2
  9
$LTSCALE
 40
0.6431102362
  9
$OSMODE
 70
  4095
  9
$ATTMODE
 70
     1
  9
$TEXTSIZE
 40
0.2
  9
$TRACEWID
 40
0.05
  9
$TEXTSTYLE
  7
STANDARD
  9
$CLAYER
  8
0
  9
$CELTYPE
  6
BYLAYER
  9
$CECOLOR
 62
   256
  9
$DIMSCALE
 40
1.0
  9
$DIMASZ
 40
0.1875
  9
$DIMEXO
 40
0.0625
  9
$DIMDLI
 40
0.4443307087
  9
$DIMRND
 40
0.0
  9
$DIMDLE
 40
0.0
  9
$DIMEXE
 40
0.125
  9
$DIMTP
 40
0.01
  9
$DIMTM
 40
0.01
  9
$DIMTXT
 40
2.0
  9
$DIMCEN
 40
0.1052362205
  9
$DIMTSZ
 40
0.0
  9
$DIMTOL
 70
     1
  9
$DIMLIM
 70
     0
  9
$DIMTIH
 70
     1
  9
$DIMTOH
 70
     1
  9
$DIMSE1
 70
     0
  9
$DIMSE2
 70
     0
  9
$DIMTAD
 70
     0
  9
$DIMZIN
 70
     0
  9
$DIMBLK
  1

  9
$DIMASO
 70
     1
  9
$DIMSHO
 70
     1
  9
$DIMPOST
  1
\X
  9
$DIMAPOST
  1

  9
$DIMALT
 70
     1
  9
$DIMALTD
 70
     2
  9
$DIMALTF
 40
25.3999999999999986
  9
$DIMLFAC
 40
1.0
  9
$DIMTOFL
 70
     0
  9
$DIMTVP
 40
0.0
  9
$DIMTIX
 70
     0
  9
$DIMSOXD
 70
     0
  9
$DIMSAH
 70
     0
  9
$DIMBLK1
  1

  9
$DIMBLK2
  1

  9
$DIMSTYLE
  2
STANDARD
  9
$DIMCLRD
 70
     0
  9
$DIMCLRE
 70
     0
  9
$DIMCLRT
 70
     0
  9
$DIMTFAC
 40
1.0
  9
$DIMGAP
 40
0.09
  9
$LUNITS
 70
     2
  9
$LUPREC
 70
     4
  9
$SKETCHINC
 40
0.1
  9
$FILLETRAD
 40
0.0
  9
$AUNITS
 70
     0
  9
$AUPREC
 70
     0
  9
$MENU
  1
.
  9
$ELEVATION
 40
0.0
  9
$PELEVATION
 40
0.0
  9
$THICKNESS
 40
0.0
  9
$LIMCHECK
 70
     0
  9
$BLIPMODE
 70
     0
  9
$CHAMFERA
 40
0.0
  9
$CHAMFERB
 40
0.0
  9
$SKPOLY
 70
     0
  9
$TDCREATE
 40
2458060.468368056230247
  9
$TDUPDATE
 40
2459114.5656944448128343
  9
$TDINDWG
 40
0.8145903935
  9
$TDUSRTIMER
 40
0.8145903935
  9
$USRTIMER
 70
     1
  9
$ANGBASE
 50
0.0
  9
$ANGDIR
 70
     0
  9
$PDMODE
 70
     0
  9
$PDSIZE
 40
0.3125
  9
$PLINEWID
 40
0.0
  9
$COORDS
 70
     1
  9
$SPLFRAME
 70
     0
  9
$SPLINETYPE
 70
     6
  9
$SPLINESEGS
 70
     8
  9
$ATTDIA
 70
     1
  9
$ATTREQ
 70
     1
  9
$HANDLING
 70
     1
  9
$HANDSEED
  5
1598F
  9
$SURFTAB1
 70
     6
  9
$SURFTAB2
 70
     6
  9
$SURFTYPE
 70
     6
  9
$SURFU
 70
     6
  9
$SURFV
 70
     6
  9
$UCSNAME
  2

  9
$UCSORG
 10
0.0
 20
0.0
 30
0.0
  9
$UCSXDIR
 10
1.0
 20
0.0
 30
0.0
  9
$UCSYDIR
 10
0.0
 20
1.0
 30
0.0
  9
$PUCSNAME
  2

  9
$PUCSORG
 10
0.0
 20
0.0
 30
0.0
  9
$PUCSXDIR
 10
1.0
 20
0.0
 30
0.0
  9
$PUCSYDIR
 10
0.0
 20
1.0
 30
0.0
  9
$USERI1
 70
     0
  9
$USERI2
 70
     0
  9
$USERI3
 70
     0
  9
$USERI4
 70
     0
  9
$USERI5
 70
     0
  9
$USERR1
 40
0.0
  9
$USERR2
 40
0.0
  9
$USERR3
 40
0.0
  9
$USERR4
 40
0.0
  9
$USERR5
 40
0.0
  9
$WORLDVIEW
 70
     1
  9
$SHADEDGE
 70
     3
  9
$SHADEDIF
 70
    70
  9
$TILEMODE
 70
     1
  9
$MAXACTVP
 70
    64
  9
$PLIMCHECK
 70
     0
  9
$PEXTMIN
 10
1.0000000000000000E+20
 20
1.0000000000000000E+20
 30
1.0000000000000000E+20
  9
$PEXTMAX
 10
-1.0000000000000000E+20
 20
-1.0000000000000000E+20
 30
-1.0000000000000000E+20
  9
$PLIMMIN
 10
0.0
 20
0.0
  9
$PLIMMAX
 10
12.0
 20
9.0
  9
$UNITMODE
 70
     0
  9
$VISRETAIN
 70
     1
  9
$PLINEGEN
 70
     0
  9
$PSLTSCALE
 70
     1
  0
ENDSEC
  0
SECTION
  2
TABLES
  0
TABLE
  2
VPORT
 70
     1
  0
VPORT
  2
*ACTIVE
 70
     0
 10
0.0
 20
0.0
 11
1.0
 21
1.0
 12
271.9868277044038223
 22
-71.2388581262779326
 13
0.0
 23
0.0
 14
1.0
 24
1.0
 15
0.0
 25
0.0
 16
0.0
 26
0.0
 36
164.6715580216130093
 17
3560.6256103515629547
 27
166.8485788232432867
 37
0.0
 40
197.9071530799969878
 41
2.005224660397074
 42
50.0
 43
0.0
 44
0.0
 50
0.0
 51
0.0
 71
     0
 72
  1000
 73
     1
 74
     1
 75
     0
 76
     0
 77
     0
 78
     0
  0
ENDTAB
  0
TABLE
  2
LTYPE
 70
     2
  0
LTYPE
  2
CONTINUOUS
 70
     0
  3
Solid line
 72
    65
 73
     0
 40
0.0
  0
LTYPE
  2
PHANTOM2
 70
     0
  3
___ _ _ ___ _ _ ___ _ _ ___ _ _
 72
    65
 73
     6
 40
1.25
 49
0.625
 49
-0.125
 49
0.125
 49
-0.125
 49
0.125
 49
-0.125
  0
ENDTAB
  0
TABLE
  2
LAYER
 70
     2
  0
LAYER
  2
0
 70
     0
 62
   255
  6
CONTINUOUS
  0
LAYER
  2
DEFPOINTS
 70
     0
 62
     7
  6
CONTINUOUS
  0
ENDTAB
  0
TABLE
  2
STYLE
 70
     1
  0
STYLE
  2
STANDARD
 70
     0
 40
0.0
 41
0.8
 50
0.0
 71
     0
 42
0.2
  3
txt
  4

  0
ENDTAB
  0
TABLE
  2
VIEW
 70
     0
  0
ENDTAB
  0
TABLE
  2
UCS
 70
     0
  0
ENDTAB
  0
TABLE
  2
APPID
 70
    10
  0
APPID
  2
ACAD
 70
     0
  0
APPID
  2
ACAD_MLEADERVER
 70
     0
  0
APPID
  2
ACAD_EXEMPT_FROM_CAD_STANDARDS
 70
     0
  0
APPID
  2
ACAD_NAV_VCDISPLAY
 70
     0
  0
APPID
  2
ACAECLAYERSTANDARD
 70
     0
  0
APPID
  2
ACCMTRANSPARENCY
 70
     0
  0
APPID
  2
ACAD_DSTYLE_DIMJAG
 70
     0
  0
APPID
  2
ACAD_DSTYLE_DIMTALN
 70
     0
  0
APPID
  2
ACDBATTR
 70
     0
  0
APPID
  2
ACAD_PSEXT
 70
     0
  0
ENDTAB
  0
TABLE
  2
DIMSTYLE
 70
     1
  0
DIMSTYLE
  2
STANDARD
 70
     0
  3

  4

  5

  6

  7

 40
1.0
 41
0.1875
 42
0.0625
 43
0.38
 44
0.125
 45
0.0
 46
0.0
 47
0.01
 48
0.01
140
0.15625
141
0.09
142
0.0
143
25.3999999999999986
144
1.0
145
0.0
146
1.0
147
0.09
 71
     1
 72
     0
 73
     1
 74
     1
 75
     0
 76
     0
 77
     0
 78
     4
170
     0
171
     2
172
     0
173
     0
174
     0
175
     0
176
     0
177
     0
178
     0
  0
ENDTAB
  0
ENDSEC
  0
SECTION
  2
BLOCKS
  0
BLOCK
  8
0
  2
$MODEL_SPACE
 70
     0
 10
0.0
 20
0.0
 30
0.0
  3
$MODEL_SPACE
  1

  0
ENDBLK
  5
21
  8
0
  0
BLOCK
 67
     1
  8
0
  2
$PAPER_SPACE
 70
     0
 10
0.0
 20
0.0
 30
0.0
  3
$PAPER_SPACE
  1

  0
ENDBLK
  5
1D
 67
     1
  8
0
  0
BLOCK
  8
0
  2
_FILLED
 70
     0
 10
0.0
 20
0.0
 30
0.0
  3
_FILLED
  1

  0
SOLID
  5
B630
  8
0
  6
BYBLOCK
 62
     0
 10
0.0
 20
0.0
 30
0.0
 11
-1.0
 21
0.1666666667
 31
0.0
 12
-1.0
 22
-0.1666666667
 32
0.0
 13
-1.0
 23
-0.1666666667
 33
0.0
  0
ENDBLK
  5
B631
  8
0
  6
BYBLOCK
 62
     0
  0
BLOCK
  8
0
  2
_CLOSED
 70
     0
 10
0.0
 20
0.0
 30
0.0
  3
_CLOSED
  1

  0
LINE
  5
ECF3
  8
0
  6
BYBLOCK
 62
     0
 10
0.0
 20
0.0
 30
0.0
 11
-1.0
 21
0.1666666667
 31
0.0
  0
LINE
  5
ECF4
  8
0
  6
BYBLOCK
 62
     0
 10
-1.0
 20
0.1666666667
 30
0.0
 11
-1.0
 21
-0.1666666667
 31
0.0
  0
LINE
  5
ECF5
  8
0
  6
BYBLOCK
 62
     0
 10
-1.0
 20
-0.1666666667
 30
0.0
 11
0.0
 21
0.0
 31
0.0
  0
LINE
  5
ECF6
  8
0
  6
BYBLOCK
 62
     0
 10
-1.0
 20
0.0
 30
0.0
 11
0.0
 21
0.0
 31
0.0
  0
ENDBLK
  5
ECF7
  8
0
  6
BYBLOCK
 62
     0
  0
ENDSEC
  0
SECTION
  2
ENTITIES
  0
ATTDEF
  5
AA11
  8
DEFPOINTS
 10
3846.9862183470550008
 20
111.0471070468367998
 30
0.0
 40
0.001
  1
K-4178T
  3

  2
MODELNUMBER
 70
     0
1001
ACDBATTR
1070
     0
1070
     1
  0
ATTDEF
  5
AA12
  8
DEFPOINTS
 10
3846.9862183470550008
 20
111.0454403801701062
 30
0.0
 40
0.001
  1
HYDROTOWER
  3

  2
TRADENAME
 70
     0
1001
ACDBATTR
1070
     0
1070
     1
  0
ATTDEF
  5
AA13
  8
DEFPOINTS
 10
3846.9862183470550008
 20
111.0437737135033984
 30
0.0
 40
0.001
  1
IN-WALL TANK AND CARRIER SYSTEM
  3

  2
PRODUCT
 70
     0
1001
ACDBATTR
1070
     0
1070
     1
  0
LINE
  5
154C7
  8
0
 10
3847.7718697531281578
 20
128.9276849948163886
 30
0.0
 11
3849.2285626665270684
 21
128.9276849948163886
 31
0.0
  0
LINE
  5
154C8
  8
0
 10
3849.2285626665270684
 20
128.9276849948163886
 30
0.0
 11
3849.1891925877271206
 21
128.8883149160162986
 31
0.0
  0
LINE
  5
154C9
  8
0
 10
3849.1891925877271206
 20
128.8883149160162986
 30
0.0
 11
3849.1891925877271206
 21
128.8686298767163976
 31
0.0
  0
LINE
  5
154CA
  8
0
 10
3849.1891925877271206
 20
128.8686298767163976
 30
0.0
 11
3849.2285626665270684
 21
128.8292597979163929
 31
0.0
  0
LINE
  5
154CB
  8
0
 10
3849.2285626665270684
 20
128.8292597979163929
 30
0.0
 11
3847.7718697531281578
 21
128.8292597979724121
 31
0.0
  0
LINE
  5
154CC
  8
0
 10
3847.7718697531281578
 20
128.8883149160162986
 30
0.0
 11
3849.1891925877271206
 21
128.8883149160162986
 31
0.0
  0
LINE
  5
154CD
  8
0
 10
3849.1891925877271206
 20
128.8686298767163976
 30
0.0
 11
3847.7718697531281578
 21
128.8686298767163976
 31
0.0
  0
LINE
  5
154CE
  8
0
 10
3847.7718697531281578
 20
129.3213857821664021
 30
0.0
 11
3849.2285626664770462
 21
129.3213857821664021
 31
0.0
  0
LINE
  5
154CF
  8
0
 10
3849.2285626664770462
 20
129.3213857821664021
 30
0.0
 11
3849.1891925876770983
 21
129.2820157033663975
 31
0.0
  0
LINE
  5
154D0
  8
0
 10
3849.1891925876770983
 20
129.2820157033663975
 30
0.0
 11
3849.1891925876770983
 21
129.2623306640664111
 31
0.0
  0
LINE
  5
154D1
  8
0
 10
3849.1891925876770983
 20
129.2623306640664111
 30
0.0
 11
3849.2285626664770462
 21
129.2229605852664065
 31
0.0
  0
LINE
  5
154D2
  8
0
 10
3849.2285626664770462
 20
129.2229605852664065
 30
0.0
 11
3847.7718697531281578
 21
129.2229605853223973
 31
0.0
  0
LINE
  5
154D3
  8
0
 10
3847.7718697531281578
 20
129.2820157033663975
 30
0.0
 11
3849.1891925876770983
 21
129.2820157033663975
 31
0.0
  0
LINE
  5
154D4
  8
0
 10
3849.1891925876770983
 20
129.2623306640664111
 30
0.0
 11
3847.7718697531281578
 21
129.2623306640664111
 31
0.0
  0
LINE
  5
154D5
  8
0
 10
3847.7718697531281578
 20
129.6166613727664014
 30
0.0
 11
3849.2285626664770462
 21
129.6166613727664014
 31
0.0
  0
LINE
  5
154D6
  8
0
 10
3849.2285626664770462
 20
129.6166613727664014
 30
0.0
 11
3849.1891925876770983
 21
129.6560314515664061
 31
0.0
  0
LINE
  5
154D7
  8
0
 10
3849.1891925876770983
 20
129.6560314515664061
 30
0.0
 11
3849.1891925876770983
 21
129.6757164908663924
 31
0.0
  0
LINE
  5
154D8
  8
0
 10
3849.1891925876770983
 20
129.6757164908663924
 30
0.0
 11
3849.2285626664770462
 21
129.7150865696663971
 31
0.0
  0
LINE
  5
154D9
  8
0
 10
3849.2285626664770462
 20
129.7150865696663971
 30
0.0
 11
3847.7718697531281578
 21
129.7150865696102926
 31
0.0
  0
LINE
  5
154DA
  8
0
 10
3847.7718697531281578
 20
129.6560314515664061
 30
0.0
 11
3849.1891925876770983
 21
129.6560314515664061
 31
0.0
  0
LINE
  5
154DB
  8
0
 10
3849.1891925876770983
 20
129.6757164908663924
 30
0.0
 11
3847.7718697531281578
 21
129.6757164908663924
 31
0.0
  0
LINE
  5
154DC
  8
0
 10
3849.2285626665270684
 20
128.9276849948163886
 30
0.0
 11
3849.2285626665270684
 21
129.2229605852164127
 31
0.0
  0
LINE
  5
154DD
  8
0
 10
3849.2285626665270684
 20
129.3213857822163959
 30
0.0
 11
3849.2285626665270684
 21
129.6166613727164076
 31
0.0
  0
LINE
  5
154DE
  8
0
 10
3847.7718697531281578
 20
130.1087873569663884
 30
0.0
 11
3849.2285626664770462
 21
130.1087873569663884
 31
0.0
  0
LINE
  5
154DF
  8
0
 10
3849.2285626664770462
 20
130.1087873569663884
 30
0.0
 11
3849.1891925876770983
 21
130.0694172781664122
 31
0.0
  0
LINE
  5
154E0
  8
0
 10
3849.1891925876770983
 20
130.0694172781664122
 30
0.0
 11
3849.1891925876770983
 21
130.0497322388663974
 31
0.0
  0
LINE
  5
154E1
  8
0
 10
3849.1891925876770983
 20
130.0497322388663974
 30
0.0
 11
3849.2285626664770462
 21
130.0103621600663928
 31
0.0
  0
LINE
  5
154E2
  8
0
 10
3849.2285626664770462
 20
130.0103621600663928
 30
0.0
 11
3847.7718697531281578
 21
130.010362160122412
 31
0.0
  0
LINE
  5
154E3
  8
0
 10
3847.7718697531281578
 20
130.0694172781664122
 30
0.0
 11
3849.1891925876770983
 21
130.0694172781664122
 31
0.0
  0
LINE
  5
154E4
  8
0
 10
3849.1891925876770983
 20
130.0497322388663974
 30
0.0
 11
3847.7718697531281578
 21
130.0497322388663974
 31
0.0
  0
LINE
  5
154E5
  8
0
 10
3849.2285626665270684
 20
130.4040629475163939
 30
0.0
 11
3849.2285626665270684
 21
130.1087873570164106
 31
0.0
  0
LINE
  5
154E6
  8
0
 10
3847.7718697531281578
 20
131.1914645223664024
 30
0.0
 11
3849.2285626664770462
 21
131.1914645223664024
 31
0.0
  0
LINE
  5
154E7
  8
0
 10
3849.2285626664770462
 20
131.1914645223664024
 30
0.0
 11
3849.1891925876770983
 21
131.2308346011664071
 31
0.0
  0
LINE
  5
154E8
  8
0
 10
3849.1891925876770983
 20
131.2308346011664071
 30
0.0
 11
3849.1891925876770983
 21
131.2505196404663934
 31
0.0
  0
LINE
  5
154E9
  8
0
 10
3849.1891925876770983
 20
131.2505196404663934
 30
0.0
 11
3849.2285626664770462
 21
131.2898897192663981
 31
0.0
  0
LINE
  5
154EA
  8
0
 10
3849.2285626664770462
 20
131.2898897192663981
 30
0.0
 11
3847.7718697531281578
 21
131.2898897192102936
 31
0.0
  0
LINE
  5
154EB
  8
0
 10
3847.7718697531281578
 20
131.2308346011664071
 30
0.0
 11
3849.1891925876770983
 21
131.2308346011664071
 31
0.0
  0
LINE
  5
154EC
  8
0
 10
3849.1891925876770983
 20
131.2505196404663934
 30
0.0
 11
3847.7718697531281578
 21
131.2505196404663934
 31
0.0
  0
LINE
  5
154ED
  8
0
 10
3849.2285626665270684
 20
130.8961889318163969
 30
0.0
 11
3849.2285626665270684
 21
131.1914645223164086
 31
0.0
  0
LINE
  5
154EE
  8
0
 10
3847.7718697531281578
 20
130.4040629476164099
 30
0.0
 11
3849.2285626664770462
 21
130.4040629476164099
 31
0.0
  0
LINE
  5
154EF
  8
0
 10
3849.2285626664770462
 20
130.4040629476164099
 30
0.0
 11
3849.1891925876770983
 21
130.4434330264163862
 31
0.0
  0
LINE
  5
154F0
  8
0
 10
3849.1891925876770983
 20
130.4434330264163862
 30
0.0
 11
3849.1891925876770983
 21
130.4631180657164009
 31
0.0
  0
LINE
  5
154F1
  8
0
 10
3849.1891925876770983
 20
130.4631180657164009
 30
0.0
 11
3849.2285626664770462
 21
130.5024881445164056
 31
0.0
  0
LINE
  5
154F2
  8
0
 10
3849.2285626664770462
 20
130.5024881445164056
 30
0.0
 11
3847.7718697531281578
 21
130.5024881444603011
 31
0.0
  0
LINE
  5
154F3
  8
0
 10
3847.7718697531281578
 20
130.4434330264163862
 30
0.0
 11
3849.1891925876770983
 21
130.4434330264163862
 31
0.0
  0
LINE
  5
154F4
  8
0
 10
3849.1891925876770983
 20
130.4631180657164009
 30
0.0
 11
3847.7718697531281578
 21
130.4631180657164009
 31
0.0
  0
LINE
  5
154F5
  8
0
 10
3847.7718697531281578
 20
130.8961889317164093
 30
0.0
 11
3849.2285626664770462
 21
130.8961889317164093
 31
0.0
  0
LINE
  5
154F6
  8
0
 10
3849.2285626664770462
 20
130.8961889317164093
 30
0.0
 11
3849.1891925876770983
 21
130.8568188529164047
 31
0.0
  0
LINE
  5
154F7
  8
0
 10
3849.1891925876770983
 20
130.8568188529164047
 30
0.0
 11
3849.1891925876770983
 21
130.8371338136163899
 31
0.0
  0
LINE
  5
154F8
  8
0
 10
3849.1891925876770983
 20
130.8371338136163899
 30
0.0
 11
3849.2285626664770462
 21
130.7977637348164137
 31
0.0
  0
LINE
  5
154F9
  8
0
 10
3849.2285626664770462
 20
130.7977637348164137
 30
0.0
 11
3847.7718697531281578
 21
130.7977637348724045
 31
0.0
  0
LINE
  5
154FA
  8
0
 10
3847.7718697531281578
 20
130.8568188529164047
 30
0.0
 11
3849.1891925876770983
 21
130.8568188529164047
 31
0.0
  0
LINE
  5
154FB
  8
0
 10
3849.1891925876770983
 20
130.8371338136163899
 30
0.0
 11
3847.7718697531281578
 21
130.8371338136163899
 31
0.0
  0
LINE
  5
154FC
  8
0
 10
3849.2285626665770906
 20
129.7150865696663971
 30
0.0
 11
3849.2285626664270239
 21
130.0103621601163866
 31
0.0
  0
LINE
  5
154FD
  8
0
 10
3849.2285626665270684
 20
130.7977637347663915
 30
0.0
 11
3849.2285626666280223
 21
130.5024881445164056
 31
0.0
  0
LINE
  5
154FE
  8
0
 10
3847.7718697531281578
 20
131.6835905065663894
 30
0.0
 11
3849.2285626664770462
 21
131.6835905065663894
 31
0.0
  0
LINE
  5
154FF
  8
0
 10
3849.2285626664770462
 20
131.6835905065663894
 30
0.0
 11
3849.1891925876770983
 21
131.6442204277664132
 31
0.0
  0
LINE
  5
15500
  8
0
 10
3849.1891925876770983
 20
131.6442204277664132
 30
0.0
 11
3849.1891925876770983
 21
131.6245353884663984
 31
0.0
  0
LINE
  5
15501
  8
0
 10
3849.1891925876770983
 20
131.6245353884663984
 30
0.0
 11
3849.2285626664770462
 21
131.5851653096663938
 31
0.0
  0
LINE
  5
15502
  8
0
 10
3849.2285626664770462
 20
131.5851653096663938
 30
0.0
 11
3847.7718697531281578
 21
131.585165309722413
 31
0.0
  0
LINE
  5
15503
  8
0
 10
3847.7718697531281578
 20
131.6442204277664132
 30
0.0
 11
3849.1891925876770983
 21
131.6442204277664132
 31
0.0
  0
LINE
  5
15504
  8
0
 10
3849.1891925876770983
 20
131.6245353884663984
 30
0.0
 11
3847.7718697531281578
 21
131.6245353884663984
 31
0.0
  0
LINE
  5
15505
  8
0
 10
3847.7718697531281578
 20
131.9788660971663887
 30
0.0
 11
3849.2285626664770462
 21
131.9788660971663887
 31
0.0
  0
LINE
  5
15506
  8
0
 10
3849.2285626664770462
 20
131.9788660971663887
 30
0.0
 11
3849.1891925876770983
 21
132.0182361759663934
 31
0.0
  0
LINE
  5
15507
  8
0
 10
3849.1891925876770983
 20
132.0182361759663934
 30
0.0
 11
3849.1891925876770983
 21
132.0379212152664081
 31
0.0
  0
LINE
  5
15508
  8
0
 10
3849.1891925876770983
 20
132.0379212152664081
 30
0.0
 11
3849.2285626664770462
 21
132.0772912940664128
 31
0.0
  0
LINE
  5
15509
  8
0
 10
3849.2285626664770462
 20
132.0772912940664128
 30
0.0
 11
3847.7718697531281578
 21
132.0772912940103083
 31
0.0
  0
LINE
  5
1550A
  8
0
 10
3847.7718697531281578
 20
132.0182361759663934
 30
0.0
 11
3849.1891925876770983
 21
132.0182361759663934
 31
0.0
  0
LINE
  5
1550B
  8
0
 10
3849.1891925876770983
 20
132.0379212152664081
 30
0.0
 11
3847.7718697531281578
 21
132.0379212152664081
 31
0.0
  0
LINE
  5
1550C
  8
0
 10
3849.2285626665270684
 20
131.6835905066162979
 30
0.0
 11
3849.2285626665270684
 21
131.9788660971163949
 31
0.0
  0
LINE
  5
1550D
  8
0
 10
3847.7718697531281578
 20
132.4709920813664041
 30
0.0
 11
3849.2285626664770462
 21
132.4709920813664041
 31
0.0
  0
LINE
  5
1550E
  8
0
 10
3849.2285626664770462
 20
132.4709920813664041
 30
0.0
 11
3849.1891925876770983
 21
132.4316220025663995
 31
0.0
  0
LINE
  5
1550F
  8
0
 10
3849.1891925876770983
 20
132.4316220025663995
 30
0.0
 11
3849.1891925876770983
 21
132.4119369632664132
 31
0.0
  0
LINE
  5
15510
  8
0
 10
3849.1891925876770983
 20
132.4119369632664132
 30
0.0
 11
3849.2285626664770462
 21
132.3725668844664085
 31
0.0
  0
LINE
  5
15511
  8
0
 10
3849.2285626664770462
 20
132.3725668844664085
 30
0.0
 11
3847.7718697531281578
 21
132.3725668845223993
 31
0.0
  0
LINE
  5
15512
  8
0
 10
3847.7718697531281578
 20
132.4316220025663995
 30
0.0
 11
3849.1891925876770983
 21
132.4316220025663995
 31
0.0
  0
LINE
  5
15513
  8
0
 10
3849.1891925876770983
 20
132.4119369632664132
 30
0.0
 11
3847.7718697531281578
 21
132.4119369632664132
 31
0.0
  0
LINE
  5
15514
  8
0
 10
3849.2285626665270684
 20
132.7662676719164097
 30
0.0
 11
3849.2285626665270684
 21
132.4709920814163979
 31
0.0
  0
LINE
  5
15515
  8
0
 10
3847.7718697531281578
 20
132.7662676720163972
 30
0.0
 11
3849.2285626664770462
 21
132.7662676720163972
 31
0.0
  0
LINE
  5
15516
  8
0
 10
3849.2285626664770462
 20
132.7662676720163972
 30
0.0
 11
3849.1891925876770983
 21
132.8056377508164019
 31
0.0
  0
LINE
  5
15517
  8
0
 10
3847.7718697531281578
 20
132.8056377507163859
 30
0.0
 11
3849.2285582438271376
 21
132.8056377507163859
 31
0.0
  0
LINE
  5
15518
  8
0
 10
3849.2285626665770906
 20
132.0772912940664128
 30
0.0
 11
3849.2285626664270239
 21
132.3725668845164023
 31
0.0
  0
LINE
  5
15519
  8
0
 10
3849.2285626665270684
 20
128.8292597979163929
 30
0.0
 11
3849.2285626664270239
 21
127.3431999481634023
 31
0.0
  0
LINE
  5
1551A
  8
0
 10
3848.9565783869447841
 20
125.735487763371296
 30
0.0
 11
3849.2165417611281555
 21
127.2061377086162963
 31
0.0
  0
ARC
  5
1551B
  8
0
 10
3848.4411610786519304
 20
127.343199949928902
 30
0.0
 40
0.787401587875503
 50
349.9755132456415936
 51
359.9999998753899035
  0
ARC
  5
1551C
  8
0
 10
3849.1911066260731786
 20
125.6941164794185966
 30
0.0
 40
0.2381492768925445
 50
169.9958234469208946
 51
180.6380413657911959
  0
LINE
  5
1551D
  8
0
 10
3847.7718697531281578
 20
127.3431834474874051
 30
0.0
 11
3849.2285626665270684
 21
127.3431834474874051
 31
0.0
  0
ARC
  5
1551E
  8
0
 10
3849.6746256587130119
 20
134.4408074899517089
 30
0.0
 40
0.1299212597146351
 50
359.9999999844059744
 51
90.0000000376496274
  0
ARC
  5
1551F
  8
0
 10
3849.6183264462838451
 20
134.5923822932224994
 30
0.0
 40
0.021653543556063
 50
180.0000002806426949
 51
269.9999993224370201
  0
ARC
  5
15520
  8
0
 10
3849.6746256585420269
 20
134.3541933167516902
 30
0.0
 40
0.1299212598853533
 50
270.0000000376235789
 51
359.9999999844093281
  0
ARC
  5
15521
  8
0
 10
3849.3679547246269976
 20
134.1092072805163866
 30
0.0
 40
0.2165354331000017
 50
300.2440062339663882
 51
356.9999999992996891
  0
ARC
  5
15522
  8
0
 10
3849.5533658164331428
 20
133.7912011904338954
 30
0.0
 40
0.1515748035062696
 50
120.2440061574497037
 51
179.9999998932310064
  0
ARC
  5
15523
  8
0
 10
3849.2680041181829438
 20
133.4840128278669056
 30
0.0
 40
0.1180093087700692
 50
269.965318068268175
 51
340.5567997558351863
  0
ARC
  5
15524
  8
0
 10
3849.2561217216270961
 20
133.2872633832164126
 30
0.0
 40
0.078740157500001
 50
90.0000956810899595
 51
180.0
  0
ARC
  5
15525
  8
0
 10
3849.2285626658717774
 20
132.9237479866451963
 30
0.0
 40
0.0393700793547538
 50
0.0000003946876
 51
90.0
  0
ARC
  5
15526
  8
0
 10
3849.2285626661041533
 20
132.8450078295919923
 30
0.0
 40
0.0393700791240024
 50
269.9935642051793252
 51
359.9999997443961774
  0
LINE
  5
15527
  8
0
 10
3849.2679327452269717
 20
132.845007829416403
 30
0.0
 11
3849.2679327452269717
 21
132.9237479866451963
 31
0.0
  0
LINE
  5
15528
  8
0
 10
3849.1773815641267902
 20
132.9631180657164009
 30
0.0
 11
3849.1773815641267902
 21
133.2872633832164126
 31
0.0
  0
LINE
  5
15529
  8
0
 10
3849.4017910129268785
 20
133.4447444978164015
 30
0.0
 11
3849.4017910129268785
 21
133.7912011904419103
 31
0.0
  0
LINE
  5
1552A
  8
0
 10
3849.5841934034438054
 20
134.0978746916163971
 30
0.0
 11
3849.5886667635850245
 21
134.1832314880028036
 31
0.0
  0
LINE
  5
1552B
  8
0
 10
3849.8045469184271496
 20
134.4408074899164092
 30
0.0
 11
3849.8045469184271496
 21
134.3541933167163904
 31
0.0
  0
LINE
  5
1552C
  8
0
 10
3847.8896807767278005
 20
134.5707287496663866
 30
0.0
 11
3849.6746256586270647
 21
134.5707287496663866
 31
0.0
  0
LINE
  5
1552D
  8
0
 10
3847.7718697531281578
 20
134.224272056866397
 30
0.0
 11
3849.6746256586270647
 21
134.224272056866397
 31
0.0
  0
LINE
  5
1552E
  8
0
 10
3847.7718697531281578
 20
133.4447444978164015
 30
0.0
 11
3849.4017910129268785
 21
133.4447444978164015
 31
0.0
  0
LINE
  5
1552F
  8
0
 10
3847.7718697531281578
 20
133.366003540716406
 30
0.0
 11
3849.2679326855100044
 21
133.366003540716406
 31
0.0
  0
LINE
  5
15530
  8
0
 10
3847.7718697531281578
 20
132.9631180658410017
 30
0.0
 11
3849.2285626658717774
 21
132.9631180659999075
 31
0.0
  0
ARC
  5
15531
  8
0
 10
3846.5513973122251628
 20
125.6914645222683049
 30
0.0
 40
2.4015748031032018
 50
311.9531462891840192
 51
359.9999999999544116
  0
LINE
  5
15532
  8
0
 10
3845.8659212675897834
 20
125.3371338136094977
 30
0.0
 11
3845.7745709934270053
 21
125.3371338136094977
 31
0.0
  0
LINE
  5
15533
  8
0
 10
3845.7745709934270053
 20
125.3371338136094977
 30
0.0
 11
3845.7745709934270053
 21
123.2898897191663963
 31
0.0
  0
LINE
  5
15534
  8
0
 10
3845.7745709934270053
 20
123.2898897191663963
 30
0.0
 11
3845.8659212676270727
 21
123.2898897189776051
 31
0.0
  0
LINE
  5
15535
  8
0
 10
3845.8659212676270727
 20
123.2898897189776051
 30
0.0
 11
3845.8659212676270727
 21
125.3371338136094977
 31
0.0
  0
LINE
  5
15536
  8
0
 10
3836.5029174501278248
 20
125.1835906818166961
 30
0.0
 11
3836.9160579781269007
 21
125.1835906817162964
 31
0.0
  0
LINE
  5
15537
  8
0
 10
3836.9952887331278362
 20
125.1835906817162964
 30
0.0
 11
3837.2115788674268515
 21
125.1835906817162964
 31
0.0
  0
LINE
  5
15538
  8
0
 10
3837.2503546625280251
 20
125.4163798768664009
 30
0.0
 11
3839.514728473726791
 21
125.4792446798164036
 31
0.0
  0
LINE
  5
15539
  8
0
 10
3839.514728473726791
 20
125.4792446798164036
 30
0.0
 11
3839.514728473726791
 21
123.1367249948164044
 31
0.0
  0
LINE
  5
1553A
  8
0
 10
3839.514728473726791
 20
123.1367249948164044
 30
0.0
 11
3837.2503546625280251
 21
123.2106436559663933
 31
0.0
  0
LINE
  5
1553B
  8
0
 10
3836.5029174501278248
 20
123.4434330262664048
 30
0.0
 11
3836.9160579781269007
 21
123.4434330262664048
 31
0.0
  0
LINE
  5
1553C
  8
0
 10
3836.4635473714279215
 20
123.4828031049663934
 30
0.0
 11
3836.4635473714279215
 21
125.1442204278664008
 31
0.0
  0
LINE
  5
1553D
  8
0
 10
3836.927376657727109
 20
125.175154059781093
 30
0.0
 11
3836.927376657727109
 21
123.4518694730516017
 31
0.0
  0
LINE
  5
1553E
  8
0
 10
3836.9839700535271731
 20
123.4518694730516017
 30
0.0
 11
3836.9839697861921195
 21
125.175153163163202
 31
0.0
  0
LINE
  5
1553F
  8
0
 10
3837.2312639068281896
 20
125.3967034902664039
 30
0.0
 11
3837.2312639068281896
 21
123.230319722666394
 31
0.0
  0
ARC
  5
15540
  8
0
 10
3837.2509489461240264
 20
123.2303197226247988
 30
0.0
 40
0.0196850392974
 50
179.9999998789267863
 51
268.2700000833468152
  0
ARC
  5
15541
  8
0
 10
3837.2509489461272096
 20
125.3967038102034053
 30
0.0
 40
0.0196850393020107
 50
91.7299999221011717
 51
180.0009312169565021
  0
ARC
  5
15542
  8
0
 10
3836.9160575966548095
 20
125.1717792164973986
 30
0.0
 40
0.011811465225054
 50
16.6022528639059885
 51
89.9981495274344638
  0
ARC
  5
15543
  8
0
 10
3836.9556733556269137
 20
125.1835905065664036
 30
0.0
 40
0.0295275590999991
 50
196.6015522881928916
 51
343.3966322115132925
  0
ARC
  5
15544
  8
0
 10
3836.995289114796833
 20
125.1717792161771996
 30
0.0
 40
0.0118114655453089
 50
90.0018514256873203
 51
163.4022845007845888
  0
ARC
  5
15545
  8
0
 10
3836.5029177493001953
 20
125.144220303945005
 30
0.0
 40
0.0393703778727252
 50
90.0004353863367612
 51
179.9998196570934113
  0
ARC
  5
15546
  8
0
 10
3836.5029174501269154
 20
123.4828031049663934
 30
0.0
 40
0.0393700786999958
 50
179.9999999999967031
 51
270.0
  0
ARC
  5
15547
  8
0
 10
3836.9160579781269007
 20
123.4552440498663941
 30
0.0
 40
0.0118110236000018
 50
270.0
 51
343.3984504008942054
  0
ARC
  5
15548
  8
0
 10
3836.9556733558288215
 20
123.4434330265377042
 30
0.0
 40
0.029527558828666
 50
16.6015518957298589
 51
163.3984508513042897
  0
ARC
  5
15549
  8
0
 10
3836.9952887332401588
 20
123.4552440499037971
 30
0.0
 40
0.0118110236373837
 50
196.601542866608014
 51
269.9999999398388013
  0
ARC
  5
1554A
  8
0
 10
3837.2115788674268515
 20
123.4237479868664025
 30
0.0
 40
0.0196850393999952
 50
359.9999999999836859
 51
90.0
  0
LINE
  5
1554B
  8
0
 10
3836.9952887332401588
 20
123.4434330262664048
 30
0.0
 11
3837.2115788674268515
 21
123.4434330262664048
 31
0.0
  0
ARC
  5
1554C
  8
0
 10
3837.2115791664241442
 20
125.2032754221178976
 30
0.0
 40
0.0196847404038634
 50
269.9991297198461098
 51
0.0003604818423308
  0
LINE
  5
1554D
  8
0
 10
3845.7745709934270053
 20
125.1780635775163972
 30
0.0
 11
3839.5147342612981447
 21
125.1780635775163972
 31
0.0
  0
LINE
  5
1554E
  8
0
 10
3839.514728473726791
 20
123.4379060971163966
 30
0.0
 11
3842.6215976015460001
 21
123.4379060971163966
 31
0.0
  0
LINE
  5
1554F
  8
0
 10
3843.6773815641267902
 20
123.4327853652843032
 30
0.0
 11
3845.7745709934270053
 21
123.4348018935664015
 31
0.0
  0
LINE
  5
15550
  8
0
 10
3849.2285626665270684
 20
131.5851653096164
 30
0.0
 11
3849.2285626663770017
 21
131.2898897191662968
 31
0.0
  0
ARC
  5
15551
  8
0
 10
3840.9231320553658406
 20
121.672945913569194
 30
0.0
 40
0.0790908749655068
 50
90.2539746869583439
 51
179.8949536873049908
  0
ARC
  5
15552
  8
0
 10
3841.952343968328023
 20
121.3995360115164033
 30
0.0
 40
0.2499999999999987
 50
0.0
 51
90.0
  0
ARC
  5
15553
  8
0
 10
3843.2151737171179775
 20
107.3427414240220941
 30
0.0
 40
13.7795275797854195
 50
83.5062453601825041
 51
91.0264475054724755
  0
ARC
  5
15554
  8
0
 10
3844.7691156218861579
 20
120.9947446729996017
 30
0.0
 40
0.0393700787416364
 50
359.9996334311366013
 51
83.5062537635592577
  0
ARC
  5
15555
  8
0
 10
3845.0382521560718487
 20
121.2006501853939966
 30
0.0
 40
0.0787401568223123
 50
89.9999997421847269
 51
153.434949083599804
  0
ARC
  5
15556
  8
0
 10
3846.1315066802271758
 20
121.6415312746162982
 30
0.0
 40
0.169355130700005
 50
90.0
 51
180.0
  0
LINE
  5
15557
  8
0
 10
3840.9423439683278048
 20
121.7520358297163057
 30
0.0
 11
3841.0843439683271754
 21
121.7520358297163057
 31
0.0
  0
LINE
  5
15558
  8
0
 10
3840.9227814708278856
 20
121.7520360115162958
 30
0.0
 11
3841.6904980062267896
 21
121.7520360115162958
 31
0.0
  0
LINE
  5
15559
  8
0
 10
3841.6904980062267896
 20
121.6495360115164033
 30
0.0
 11
3841.952343968328023
 21
121.6495360115164033
 31
0.0
  0
LINE
  5
1555A
  8
0
 10
3842.3273439683271135
 20
120.8855360115162938
 30
0.0
 11
3842.9683282203268391
 21
120.8855360115162938
 31
0.0
  0
LINE
  5
1555B
  8
0
 10
3844.8084857006269885
 20
120.8855360115162938
 30
0.0
 11
3844.8321077479267842
 21
120.8855360115162938
 31
0.0
  0
LINE
  5
1555C
  8
0
 10
3844.8321077479267842
 20
120.9644297123164023
 30
0.0
 11
3844.96782481852415
 21
121.2358638537383939
 31
0.0
  0
LINE
  5
1555D
  8
0
 10
3845.0382521564270064
 20
121.2793903422163027
 30
0.0
 11
3845.5958872754281401
 21
121.2793903422163027
 31
0.0
  0
LINE
  5
1555E
  8
0
 10
3845.5958872754281401
 20
121.6337208435164001
 30
0.0
 11
3845.7376195589281451
 21
121.6337208435164001
 31
0.0
  0
LINE
  5
1555F
  8
0
 10
3845.7376195589281451
 20
121.5156108147163962
 30
0.0
 11
3845.9621515496278334
 21
121.5156108147163962
 31
0.0
  0
LINE
  5
15560
  8
0
 10
3845.7376195589281451
 20
121.2793903422163027
 30
0.0
 11
3845.9621515496278334
 21
121.2793903422163027
 31
0.0
  0
LINE
  5
15561
  8
0
 10
3845.7376195589281451
 20
120.2584245251162969
 30
0.0
 11
3845.9621515496278334
 21
120.2584245251162969
 31
0.0
  0
LINE
  5
15562
  8
0
 10
3845.7376195589281451
 20
120.1542915355851022
 30
0.0
 11
3845.9621515496278334
 21
120.1542915355851022
 31
0.0
  0
LINE
  5
15563
  8
0
 10
3847.7718697531281578
 20
121.5057682950162956
 30
0.0
 11
3847.8524266078279652
 21
121.5057682950162956
 31
0.0
  0
LINE
  5
15564
  8
0
 10
3847.8524266078279652
 20
121.5175793186163986
 30
0.0
 11
3847.8917966866270035
 21
121.5569493974163038
 31
0.0
  0
LINE
  5
15565
  8
0
 10
3847.8917966866270035
 20
121.5569493974163038
 30
0.0
 11
3847.9114817260269774
 21
121.5569493974163038
 31
0.0
  0
LINE
  5
15566
  8
0
 10
3847.9114817260269774
 20
121.5569493974163038
 30
0.0
 11
3847.9114817260269774
 21
116.6711226257162934
 31
0.0
  0
LINE
  5
15567
  8
0
 10
3847.9114817260269774
 20
116.6711226257162934
 30
0.0
 11
3847.8917966866270035
 21
116.6711226257162934
 31
0.0
  0
LINE
  5
15568
  8
0
 10
3847.8917966866270035
 20
116.6711226257162934
 30
0.0
 11
3847.8524266078279652
 21
116.7104927045163976
 31
0.0
  0
LINE
  5
15569
  8
0
 10
3847.8524266078279652
 20
116.7104927045163976
 30
0.0
 11
3847.8524266078279652
 21
121.5175793186163986
 31
0.0
  0
LINE
  5
1556A
  8
0
 10
3847.8917966866270035
 20
121.5569493974163038
 30
0.0
 11
3847.891796686627913
 21
116.6711226257162934
 31
0.0
  0
LINE
  5
1556B
  8
0
 10
3847.7718697531281578
 20
116.7223037281164011
 30
0.0
 11
3847.8524266078279652
 21
116.7223037281164011
 31
0.0
  0
LINE
  5
1556C
  8
0
 10
3847.9114817260269774
 20
116.7223037281164011
 30
0.0
 11
3848.2067573165268186
 21
116.7223037281164011
 31
0.0
  0
LINE
  5
1556D
  8
0
 10
3848.2658124346271507
 20
116.7223037281164011
 30
0.0
 11
3848.5610880252279458
 21
116.7223037281164011
 31
0.0
  0
LINE
  5
1556E
  8
0
 10
3848.6201431433269136
 20
116.7223037281164011
 30
0.0
 11
3848.7165996425278536
 21
116.722302870016307
 31
0.0
  0
LINE
  5
1556F
  8
0
 10
3849.0315600569269918
 20
116.4073430981960939
 30
0.0
 11
3849.0315604661282123
 21
108.9959257753163939
 31
0.0
  0
LINE
  5
15570
  8
0
 10
3848.559119088227817
 20
108.9171856178164006
 30
0.0
 11
3848.5635082225271617
 21
108.885955378116293
 31
0.0
  0
LINE
  5
15571
  8
0
 10
3848.559119088227817
 20
108.9171856178164006
 30
0.0
 11
3853.0473089307270129
 21
108.9171856178164006
 31
0.0
  0
LINE
  5
15572
  8
0
 10
3853.0473089307270129
 20
108.9171856178164006
 30
0.0
 11
3853.0429197995272261
 21
108.8859553776785987
 31
0.0
  0
LINE
  5
15573
  8
0
 10
3853.0097730252268775
 20
108.852500106016393
 30
0.0
 11
3848.5966549937270429
 21
108.852500106016393
 31
0.0
  0
LINE
  5
15574
  8
0
 10
3848.9528198756270285
 20
108.5234848304163933
 30
0.0
 11
3848.9528198755278936
 21
108.7651703643163046
 31
0.0
  0
LINE
  5
15575
  8
0
 10
3848.9528198755278936
 20
108.7651703643163046
 30
0.0
 11
3852.6536081433268919
 21
108.7651703643163046
 31
0.0
  0
LINE
  5
15576
  8
0
 10
3852.6536081433268919
 20
108.7651703643163046
 30
0.0
 11
3852.6536081433268919
 21
108.5234848304163933
 31
0.0
  0
LINE
  5
15577
  8
0
 10
3848.5966549937270429
 20
108.852500106016393
 30
0.0
 11
3848.9192899958270573
 21
108.8041048628163026
 31
0.0
  0
LINE
  5
15578
  8
0
 10
3852.6871380230331852
 20
108.8041048628049055
 30
0.0
 11
3853.0097730252268775
 21
108.852500106016393
 31
0.0
  0
ARC
  5
15579
  8
0
 10
3853.0039328139268946
 20
108.8914346602849008
 30
0.0
 40
0.0393701356883862
 50
278.5308061382899041
 51
351.9999724634694758
  0
ARC
  5
1557A
  8
0
 10
3848.9134497967211246
 20
108.7651703641236054
 30
0.0
 40
0.0393700789064039
 50
0.0000002805157629
 51
81.4691994197619778
  0
ARC
  5
1557B
  8
0
 10
3848.6024952050279353
 20
108.8914346602849008
 30
0.0
 40
0.0393701356883956
 50
188.0000275365239872
 51
261.4691938616838911
  0
ARC
  5
1557C
  8
0
 10
3848.9921722152348593
 20
108.9565985225914062
 30
0.0
 40
0.0393272567256524
 50
89.9741559609782513
 51
180.0623930656458072
  0
ARC
  5
1557D
  8
0
 10
3852.614238064456913
 20
108.956555696445605
 30
0.0
 40
0.0393700788707051
 50
0.0000002484289024
 51
90.000033575597044
  0
LINE
  5
1557E
  8
0
 10
3848.9922145495270343
 20
108.9959257753163939
 30
0.0
 11
3852.6142380413848514
 21
108.9959257753163939
 31
0.0
  0
LINE
  5
1557F
  8
0
 10
3852.6536081433268919
 20
108.9171856178164006
 30
0.0
 11
3852.6536081433268919
 21
108.956555696445605
 31
0.0
  0
LINE
  5
15580
  8
0
 10
3848.9528198756270285
 20
108.9171856178164006
 30
0.0
 11
3848.9528449818271838
 21
108.9565556966163058
 31
0.0
  0
LINE
  5
15581
  8
0
 10
3848.6144501118269545
 20
108.5234848304163933
 30
0.0
 11
3848.6188392461272088
 21
108.4922545907163993
 31
0.0
  0
LINE
  5
15582
  8
0
 10
3848.6144501118269545
 20
108.5234848304163933
 30
0.0
 11
3852.9919779071269659
 21
108.5234848304163933
 31
0.0
  0
LINE
  5
15583
  8
0
 10
3852.9919778990038139
 20
108.5234848304163933
 30
0.0
 11
3852.9875887678049367
 21
108.4922545902786055
 31
0.0
  0
LINE
  5
15584
  8
0
 10
3852.952628438848933
 20
108.4585273094922968
 30
0.0
 11
3848.6520092308551284
 21
108.4587958620164017
 31
0.0
  0
LINE
  5
15585
  8
0
 10
3848.9528198756270285
 20
108.1297840430163006
 30
0.0
 11
3848.9528198756270285
 21
108.3795865931034967
 31
0.0
  0
LINE
  5
15586
  8
0
 10
3848.9528198756270285
 20
108.3795865931034967
 30
0.0
 11
3852.6536081433268919
 21
108.3797692262163963
 31
0.0
  0
LINE
  5
15587
  8
0
 10
3852.6536081433268919
 20
108.3797692262163963
 30
0.0
 11
3852.6536081433268919
 21
108.1297840430163006
 31
0.0
  0
LINE
  5
15588
  8
0
 10
3848.6520092308551284
 20
108.4587958620164017
 30
0.0
 11
3848.9192934635098027
 21
108.4187032044038972
 31
0.0
  0
LINE
  5
15589
  8
0
 10
3852.6871143716271035
 20
108.418703724016396
 30
0.0
 11
3852.9544419935041333
 21
108.4587993186163004
 31
0.0
  0
ARC
  5
1558A
  8
0
 10
3852.9486017822041504
 20
108.4977338728848935
 30
0.0
 40
0.0393701356883862
 50
278.5308061382899041
 51
351.9999724634694758
  0
ARC
  5
1558B
  8
0
 10
3848.9134493319829744
 20
108.3797684013505034
 30
0.0
 40
0.0393709634268415
 50
359.7354171361221802
 51
81.4636056650447671
  0
ARC
  5
1558C
  8
0
 10
3848.6578262286279823
 20
108.4977338728848935
 30
0.0
 40
0.0393701356883956
 50
188.0000275365239872
 51
261.4691938616838911
  0
ARC
  5
1558D
  8
0
 10
3852.6929859218239471
 20
108.3797657398989998
 30
0.0
 40
0.0393781882370636
 50
98.5751598639976407
 51
179.9949273920722987
  0
LINE
  5
1558E
  8
0
 10
3848.6690710173270418
 20
108.1297840430163006
 30
0.0
 11
3848.6734601516282055
 21
108.0985538033164062
 31
0.0
  0
LINE
  5
1558F
  8
0
 10
3848.7066301363552157
 20
108.0650950746163943
 30
0.0
 11
3848.9528198135499224
 21
108.0281666021277971
 31
0.0
  0
ARC
  5
15590
  8
0
 10
3848.7124471341280696
 20
108.1040330854849003
 30
0.0
 40
0.0393701356883956
 50
188.0000275365239872
 51
261.4691938616838911
  0
LINE
  5
15591
  8
0
 10
3852.937356993404137
 20
108.1297840430163006
 30
0.0
 11
3852.9329678622038955
 21
108.0985538028785982
 31
0.0
  0
LINE
  5
15592
  8
0
 10
3852.6536081433268919
 20
108.0281666021164
 30
0.0
 11
3852.8998210879040016
 21
108.0650985312164067
 31
0.0
  0
ARC
  5
15593
  8
0
 10
3852.8939808766031092
 20
108.1040330854849003
 30
0.0
 40
0.0393701356883862
 50
278.5308061382899041
 51
351.9999724634694758
  0
ARC
  5
15594
  8
0
 10
3852.6929782242641522
 20
108.7651703623896964
 30
0.0
 40
0.0393700809371449
 50
98.530803272491525
 51
179.9999971961923109
  0
LINE
  5
15595
  8
0
 10
3848.6690710173270418
 20
108.1297840430163006
 30
0.0
 11
3852.937356993404137
 21
108.1297840430163006
 31
0.0
  0
LINE
  5
15596
  8
0
 10
3852.8998212139049429
 20
108.0650985501163035
 30
0.0
 11
3848.7066069228271772
 21
108.0650985312162931
 31
0.0
  0
LINE
  5
15597
  8
0
 10
3848.9528198756270285
 20
108.028166592803899
 30
0.0
 11
3848.9528198756270285
 21
107.9671330701164038
 31
0.0
  0
ARC
  5
15598
  8
0
 10
3848.990038998190812
 20
107.9670203432335995
 30
0.0
 40
0.0372192932731138
 50
179.8264667615341921
 51
192.52688033312171
  0
ARC
  5
15599
  8
0
 10
3849.016196015326841
 20
107.8541934921993999
 30
0.0
 40
0.0393700789830993
 50
192.0000069839780963
 51
269.9999998540914135
  0
ARC
  5
1559A
  8
0
 10
3852.5902320035020239
 20
107.8541934921043008
 30
0.0
 40
0.0393700789880036
 50
269.9999984362507917
 51
347.9999931590102733
  0
ARC
  5
1559B
  8
0
 10
3852.6142380470028002
 20
107.9671330719913982
 30
0.0
 40
0.0393700963239145
 50
347.9999958950730274
 51
359.9999972711739815
  0
LINE
  5
1559C
  8
0
 10
3852.6536081433268919
 20
108.0281666021164
 30
0.0
 11
3852.6536081433268919
 21
107.9671330701164038
 31
0.0
  0
LINE
  5
1559D
  8
0
 10
3852.6287417508119688
 20
107.8460079878785933
 30
0.0
 11
3852.6527478116768179
 21
107.9589475659380042
 31
0.0
  0
LINE
  5
1559E
  8
0
 10
3848.9537057341271975
 20
107.9589475671163967
 30
0.0
 11
3848.9776862681428611
 21
107.8460079878785933
 31
0.0
  0
LINE
  5
1559F
  8
0
 10
3848.9528198756270285
 20
108.028166592803899
 30
0.0
 11
3852.6536081433268919
 21
108.028166592803899
 31
0.0
  0
LINE
  5
155A0
  8
0
 10
3849.0161960164709853
 20
107.8148234132163026
 30
0.0
 11
3852.5902320024270011
 21
107.8148234131164003
 31
0.0
  0
LINE
  5
155A1
  8
0
 10
3852.6527478116768179
 20
107.9589475659380042
 30
0.0
 11
3848.9537057341271975
 21
107.9589475671163967
 31
0.0
  0
LINE
  5
155A2
  8
0
 10
3852.5748675527270279
 20
117.3423824682163001
 30
0.0
 11
3852.5748675527270279
 21
108.9959257753163939
 31
0.0
  0
LINE
  5
155A3
  8
0
 10
3848.2067573164267742
 20
121.5175793186163986
 30
0.0
 11
3848.2461273952280862
 21
121.5569493974163038
 31
0.0
  0
LINE
  5
155A4
  8
0
 10
3848.2461273952280862
 20
121.5569493974163038
 30
0.0
 11
3848.2658124346271507
 21
121.5569493974163038
 31
0.0
  0
LINE
  5
155A5
  8
0
 10
3848.2658124346271507
 20
121.5569493974163038
 30
0.0
 11
3848.2658124346271507
 21
116.6711226257162934
 31
0.0
  0
LINE
  5
155A6
  8
0
 10
3848.2658124346271507
 20
116.6711226257162934
 30
0.0
 11
3848.2461273952280862
 21
116.6711226257162934
 31
0.0
  0
LINE
  5
155A7
  8
0
 10
3848.2461273952280862
 20
116.6711226257162934
 30
0.0
 11
3848.2067573164267742
 21
116.7104927045163976
 31
0.0
  0
LINE
  5
155A8
  8
0
 10
3848.2067573164267742
 20
116.7104927045163976
 30
0.0
 11
3848.2067573164267742
 21
121.5175793186163986
 31
0.0
  0
LINE
  5
155A9
  8
0
 10
3848.2461273952280862
 20
121.5569493974163038
 30
0.0
 11
3848.2461273952280862
 21
116.6711226257162934
 31
0.0
  0
LINE
  5
155AA
  8
0
 10
3848.5610880251269919
 20
121.5175793186163986
 30
0.0
 11
3848.6004581039269397
 21
121.5569493974163038
 31
0.0
  0
LINE
  5
155AB
  8
0
 10
3848.6004581039269397
 20
121.5569493974163038
 30
0.0
 11
3848.6201431433269136
 21
121.5569493974163038
 31
0.0
  0
LINE
  5
155AC
  8
0
 10
3848.6201431433269136
 20
121.5569493974163038
 30
0.0
 11
3848.6201431433269136
 21
116.6711226257162934
 31
0.0
  0
LINE
  5
155AD
  8
0
 10
3848.6201431433269136
 20
116.6711226257162934
 30
0.0
 11
3848.6004581039269397
 21
116.6711226257162934
 31
0.0
  0
LINE
  5
155AE
  8
0
 10
3848.6004581039269397
 20
116.6711226257162934
 30
0.0
 11
3848.5610880251269919
 21
116.7104927045163976
 31
0.0
  0
LINE
  5
155AF
  8
0
 10
3848.5610880251269919
 20
116.7104927045163976
 30
0.0
 11
3848.5610880251269919
 21
121.5175793186163986
 31
0.0
  0
LINE
  5
155B0
  8
0
 10
3848.6004581039269397
 20
121.5569493974163038
 30
0.0
 11
3848.6004581039269397
 21
116.6711226257162934
 31
0.0
  0
ARC
  5
155B1
  8
0
 10
3840.9231316935888572
 20
116.5551257490111965
 30
0.0
 40
0.0790905129138672
 50
180.1049382353837984
 51
269.7462862366764966
  0
ARC
  5
155B2
  8
0
 10
3841.952343968328023
 20
116.828535800916498
 30
0.0
 40
0.2500000000001439
 50
270.0
 51
0.0000482659320154
  0
ARC
  5
155B3
  8
0
 10
3843.2151737171179775
 20
130.8853303884106936
 30
0.0
 40
13.7795275797854195
 50
268.973552494527496
 51
276.4937546398174959
  0
ARC
  5
155B4
  8
0
 10
3844.7691156218861579
 20
117.2333271394331007
 30
0.0
 40
0.0393700787416364
 50
276.4937462364406997
 51
0.0003665688633993
  0
ARC
  5
155B5
  8
0
 10
3845.0382521560718487
 20
117.0274216270386063
 30
0.0
 40
0.0787401568223123
 50
206.5650509164001107
 51
270.0000002578152021
  0
ARC
  5
155B6
  8
0
 10
3846.1315066802271758
 20
116.5865405378164041
 30
0.0
 40
0.169355130700005
 50
180.0
 51
270.0
  0
LINE
  5
155B7
  8
0
 10
3840.9423439683278048
 20
116.4760359827163967
 30
0.0
 11
3841.0843439683271754
 21
116.4760359827163967
 31
0.0
  0
LINE
  5
155B8
  8
0
 10
3840.9227814708278856
 20
116.4760360115163991
 30
0.0
 11
3841.6904999044350006
 21
116.4760360115163991
 31
0.0
  0
LINE
  5
155B9
  8
0
 10
3841.6904980062267896
 20
116.5785358009162991
 30
0.0
 11
3841.952343968328023
 21
116.5785358009162991
 31
0.0
  0
LINE
  5
155BA
  8
0
 10
3842.3273439683271135
 20
117.3425360115164011
 30
0.0
 11
3842.9683282203268391
 21
117.3425358009163944
 31
0.0
  0
LINE
  5
155BB
  8
0
 10
3844.8084857006269885
 20
117.3425358009163944
 30
0.0
 11
3844.8321077479267842
 21
117.3425358009163944
 31
0.0
  0
LINE
  5
155BC
  8
0
 10
3844.8321077479267842
 20
117.2636421001163995
 30
0.0
 11
3844.96782481852415
 21
116.9922079586942942
 31
0.0
  0
LINE
  5
155BD
  8
0
 10
3845.0382521564270064
 20
116.9486814702163002
 30
0.0
 11
3845.5958872754281401
 21
116.9486814702163002
 31
0.0
  0
LINE
  5
155BE
  8
0
 10
3845.5958872754281401
 20
116.5943509689164017
 30
0.0
 11
3845.7376195589281451
 21
116.5943509689164017
 31
0.0
  0
LINE
  5
155BF
  8
0
 10
3845.7376195589281451
 20
116.7124609977163061
 30
0.0
 11
3845.9621515496278334
 21
116.7124609977163061
 31
0.0
  0
LINE
  5
155C0
  8
0
 10
3845.7376195589281451
 20
116.9486814702163002
 30
0.0
 11
3845.9621515496278334
 21
116.9486814702163002
 31
0.0
  0
LINE
  5
155C1
  8
0
 10
3845.7376195589281451
 20
117.9696472873164055
 30
0.0
 11
3845.9621515496278334
 21
117.9696472873164055
 31
0.0
  0
LINE
  5
155C2
  8
0
 10
3845.7376195589281451
 20
118.0737802768476001
 30
0.0
 11
3845.9621515496278334
 21
118.0737802768476001
 31
0.0
  0
LINE
  5
155C3
  8
0
 10
3840.844041313327125
 20
121.6730909190156069
 30
0.0
 11
3840.844041313327125
 21
116.5549808934170954
 31
0.0
  0
LINE
  5
155C4
  8
0
 10
3841.6904980062267896
 20
121.7520360115162958
 30
0.0
 11
3841.6904999044350006
 21
116.4760360115163991
 31
0.0
  0
LINE
  5
155C5
  8
0
 10
3842.2023439683271135
 20
116.8285360115163058
 30
0.0
 11
3842.2023439683271135
 21
121.3995360115164033
 31
0.0
  0
LINE
  5
155C6
  8
0
 10
3842.9683282203268391
 20
121.120053966516295
 30
0.0
 11
3842.9683282203268391
 21
117.1080180565164
 31
0.0
  0
LINE
  5
155C7
  8
0
 10
3845.5958872754281401
 20
121.6337208435164001
 30
0.0
 11
3845.5958872754281401
 21
116.5943509689164017
 31
0.0
  0
LINE
  5
155C8
  8
0
 10
3845.7376195589281451
 20
116.5943509689164017
 30
0.0
 11
3845.7376195589281451
 21
121.6337208435164001
 31
0.0
  0
LINE
  5
155C9
  8
0
 10
3845.9621515496278334
 20
121.6415310659162969
 30
0.0
 11
3845.9621515495268795
 21
116.5865405378164041
 31
0.0
  0
LINE
  5
155CA
  8
0
 10
3846.1970666035272188
 20
113.1691541218164048
 30
0.0
 11
3846.1970666035272188
 21
154.3108864052163938
 31
0.0
  0
LINE
  5
155CB
  8
0
 10
3847.7718697531281578
 20
113.1691541218164048
 30
0.0
 11
3847.7718697531281578
 21
154.3108864052163938
 31
0.0
  0
LINE
  5
155CC
  8
0
 10
3844.8321077479267842
 20
120.9644297123164023
 30
0.0
 11
3844.8321077479267842
 21
117.2636423108163939
 31
0.0
  0
LINE
  5
155CD
  8
0
 10
3844.8084857006269885
 20
117.2333276019164003
 30
0.0
 11
3844.8084857006269885
 21
120.9947444211162946
 31
0.0
  0
LINE
  5
155CE
  8
0
 10
3845.0382521564270064
 20
121.2793903422163027
 30
0.0
 11
3845.0382521564270064
 21
116.9486816808164065
 31
0.0
  0
ARC
  5
155CF
  8
0
 10
3842.3273439683271135
 20
121.0105360115162938
 30
0.0
 40
0.125
 50
179.9999999999984084
 51
270.0
  0
ARC
  5
155D0
  8
0
 10
3842.3273439683271135
 20
117.2175360115164011
 30
0.0
 40
0.125
 50
90.0
 51
180.0
  0
LINE
  5
155D1
  8
0
 10
3846.1315066802271758
 20
121.8108864052163938
 30
0.0
 11
3846.1970666035272188
 21
121.8108864052163938
 31
0.0
  0
LINE
  5
155D2
  8
0
 10
3846.1315066802271758
 20
116.4171856178164006
 30
0.0
 11
3846.1970666035272188
 21
116.4171856178164006
 31
0.0
  0
LINE
  5
155D3
  8
0
 10
3847.9114817260269774
 20
121.5057682950162956
 30
0.0
 11
3848.2067573165268186
 21
121.5057682950162956
 31
0.0
  0
LINE
  5
155D4
  8
0
 10
3848.2658124346271507
 20
121.5057682950162956
 30
0.0
 11
3848.5610880251269919
 21
121.5057682950162956
 31
0.0
  0
LINE
  5
155D5
  8
0
 10
3848.6201431433269136
 20
121.5057682950162956
 30
0.0
 11
3849.2256129145280283
 21
121.5057682950162956
 31
0.0
  0
LINE
  5
155D6
  8
0
 10
3849.3648071627771969
 20
121.4481121495663984
 30
0.0
 11
3850.0349977934329218
 21
120.7779215189104036
 31
0.0
  0
ARC
  5
155D7
  8
0
 10
3849.2256129145280283
 20
121.3089179013164056
 30
0.0
 40
0.1968503936999912
 50
45.0000000265572382
 51
90.0
  0
ARC
  5
155D8
  8
0
 10
3850.2577088786470085
 20
121.0006320281085976
 30
0.0
 40
0.3149606298958826
 50
224.9999999707401912
 51
251.4702916515223023
  0
ARC
  5
155D9
  8
0
 10
3849.0315604860729763
 20
117.3423824825439965
 30
0.0
 40
3.543307066653596
 50
359.9999997683195829
 51
71.4702048844743558
  0
ARC
  5
155DA
  8
0
 10
3848.7165996425278536
 20
116.4073424556165008
 30
0.0
 40
0.3149604143998292
 50
0.0001168943690765
 51
89.9999647893409644
  0
ARC
  5
155DB
  8
0
 10
3839.4433500707309577
 20
121.0844311002764044
 30
0.0
 40
10.5960818847640894
 50
339.4638263995965985
 51
358.3423921721342822
  0
ARC
  5
155DC
  8
0
 10
3854.4479622370349716
 20
108.3544222433042989
 30
0.0
 40
10.1424827095366705
 50
120.9906366028670988
 51
124.4081773542928033
  0
ARC
  5
155DD
  8
0
 10
3848.2126337490258265
 20
117.6862166932502021
 30
0.0
 40
1.1966937145054859
 50
327.8310222340870723
 51
344.5459725725627891
  0
LINE
  5
155DE
  8
0
 10
3849.2256129145280283
 20
121.5057682950162956
 30
0.0
 11
3849.2256182971282215
 21
117.049080332416807
 31
0.0
  0
LINE
  5
155DF
  8
0
 10
3846.1970666035272188
 20
113.1691541218164048
 30
0.0
 11
3847.7718697531281578
 21
113.1691541218164048
 31
0.0
  0
LINE
  5
155E0
  8
0
 10
3846.3151768397269734
 20
113.1691541218164048
 30
0.0
 11
3846.3151768397269734
 21
111.3581339068163061
 31
0.0
  0
LINE
  5
155E1
  8
0
 10
3846.3151768397269734
 20
111.3581339068163061
 30
0.0
 11
3847.6537595169270389
 21
111.3581244795163059
 31
0.0
  0
LINE
  5
155E2
  8
0
 10
3847.6537595169270389
 20
111.3581244795163059
 30
0.0
 11
3847.6537595169270389
 21
113.1691541218164048
 31
0.0
  0
LINE
  5
155E3
  8
0
 10
3846.3151768397269734
 20
111.3581244801163024
 30
0.0
 11
3846.2364366822271222
 21
111.2006501848162969
 31
0.0
  0
LINE
  5
155E4
  8
0
 10
3847.6537595169270389
 20
111.3581244795163059
 30
0.0
 11
3847.7324996715269663
 21
111.2006501904163969
 31
0.0
  0
LINE
  5
155E5
  8
0
 10
3846.1970666035272188
 20
111.0431698698163956
 30
0.0
 11
3846.1970666035272188
 21
111.2006501848162969
 31
0.0
  0
LINE
  5
155E6
  8
0
 10
3846.1970666035272188
 20
111.2006501848162969
 30
0.0
 11
3847.7718697531281578
 21
111.2006501848162969
 31
0.0
  0
LINE
  5
155E7
  8
0
 10
3847.7718697531281578
 20
111.2006501848162969
 30
0.0
 11
3847.7718697531281578
 21
111.0431698698163956
 31
0.0
  0
LINE
  5
155E8
  8
0
 10
3847.7718697531281578
 20
111.0431698698163956
 30
0.0
 11
3846.1970666035272188
 21
111.0431698698163956
 31
0.0
  0
LINE
  5
155E9
  8
0
 10
3846.7777752649280956
 20
111.0431698698163956
 30
0.0
 11
3846.7777752649280956
 21
108.0510438856162949
 31
0.0
  0
LINE
  5
155EA
  8
0
 10
3846.7777752649280956
 20
108.0510438856162949
 30
0.0
 11
3846.8825979560269843
 21
108.0510438856162949
 31
0.0
  0
LINE
  5
155EB
  8
0
 10
3846.8825979560269843
 20
108.0510438856162949
 30
0.0
 11
3846.8825979560269843
 21
108.7612961771164066
 31
0.0
  0
LINE
  5
155EC
  8
0
 10
3846.8825979560269843
 20
108.7612961771164066
 30
0.0
 11
3846.8677839253277853
 21
108.7612961771164066
 31
0.0
  0
LINE
  5
155ED
  8
0
 10
3846.8677839253277853
 20
108.7612961771164066
 30
0.0
 11
3846.8677839253277853
 21
108.0510438856162949
 31
0.0
  0
LINE
  5
155EE
  8
0
 10
3846.9549406192268179
 20
111.0431698698163956
 30
0.0
 11
3846.9549406192268179
 21
108.0510438856162949
 31
0.0
  0
LINE
  5
155EF
  8
0
 10
3847.0597633104271154
 20
108.0510438856162949
 30
0.0
 11
3846.8950603160278661
 21
108.0510438856162949
 31
0.0
  0
LINE
  5
155F0
  8
0
 10
3846.8950603160278661
 20
108.0510438856162949
 30
0.0
 11
3846.8950603160278661
 21
108.7612961771164066
 31
0.0
  0
LINE
  5
155F1
  8
0
 10
3847.0597633104271154
 20
108.0510438856162949
 30
0.0
 11
3847.0597633104271154
 21
108.7612961771164066
 31
0.0
  0
LINE
  5
155F2
  8
0
 10
3847.0597633104271154
 20
108.7612961771164066
 30
0.0
 11
3847.0449492797270068
 21
108.7612961771164066
 31
0.0
  0
LINE
  5
155F3
  8
0
 10
3847.0449492797270068
 20
108.7612961771164066
 30
0.0
 11
3847.0449492797270068
 21
108.0510438856162949
 31
0.0
  0
LINE
  5
155F4
  8
0
 10
3847.0722256703270432
 20
108.7612961771164066
 30
0.0
 11
3847.0722256703270432
 21
108.0510438856162949
 31
0.0
  0
LINE
  5
155F5
  8
0
 10
3847.0722256703270432
 20
108.0510438856162949
 30
0.0
 11
3847.3677256478281379
 21
108.0510438856162949
 31
0.0
  0
LINE
  5
155F6
  8
0
 10
3847.3677256478281379
 20
108.0510438856162949
 30
0.0
 11
3847.3677256478281379
 21
108.7612961771164066
 31
0.0
  0
LINE
  5
155F7
  8
0
 10
3847.3683264460278224
 20
108.9171856178164006
 30
0.0
 11
3847.3683264460278224
 21
111.0431698698163956
 31
0.0
  0
ARC
  5
155F8
  8
0
 10
3847.5591325854848037
 20
108.8385043725045023
 30
0.0
 40
0.2063921539660539
 50
157.5905986100536893
 51
201.9677674907871108
  0
ARC
  5
155F9
  8
0
 10
3846.8753930810858037
 20
108.8356885422563067
 30
0.0
 40
0.0821461616440139
 50
14.4499801214358197
 51
78.3613239519770417
  0
ARC
  5
155FA
  8
0
 10
3846.875023898704967
 20
108.8413756163024999
 30
0.0
 40
0.0825480139038941
 50
284.0473927517292054
 51
345.4946109355728936
  0
ARC
  5
155FB
  8
0
 10
3847.0530793528428148
 20
108.8365966212339941
 30
0.0
 40
0.0812231226449431
 50
34.6404479358377912
 51
78.5933992999771363
  0
ARC
  5
155FC
  8
0
 10
3847.0540046949990938
 20
108.8385403939198
 30
0.0
 40
0.0793641793980842
 50
283.2727516138313035
 51
33.8656270220536015
  0
ARC
  5
155FD
  8
0
 10
3847.0738596337009767
 20
108.8607141564126977
 30
0.0
 40
0.0557013663453455
 50
94.8575931617508559
 51
161.6055855600299083
  0
ARC
  5
155FE
  8
0
 10
3847.0583947134809932
 20
108.8627873834441999
 30
0.0
 40
0.0544984582587994
 50
78.6255905880358341
 51
148.4416749784095941
  0
ARC
  5
155FF
  8
0
 10
3847.1012887661981949
 20
108.8400055203610037
 30
0.0
 40
0.0889917085517182
 50
154.5211254900112863
 51
242.1847785035486993
  0
ARC
  5
15600
  8
0
 10
3847.0891552530279114
 20
108.8417073626179956
 30
0.0
 40
0.0917612490610749
 50
147.2780727141033026
 51
241.200246234181094
  0
ARC
  5
15601
  8
0
 10
3846.9027829893011585
 20
108.8212075430344044
 30
0.0
 40
0.0632203079273289
 50
195.8021876006991135
 51
251.3805610379272082
  0
ARC
  5
15602
  8
0
 10
3846.9560309859220979
 20
108.8382680863987986
 30
0.0
 40
0.1191172121172237
 50
160.3668368079007962
 51
196.7235654562884122
  0
ARC
  5
15603
  8
0
 10
3846.8966810500669453
 20
108.8606303345236057
 30
0.0
 40
0.0557153263879475
 50
94.8554579725979465
 51
161.5194970978386948
  0
ARC
  5
15604
  8
0
 10
3846.8881870885261378
 20
108.824268804261493
 30
0.0
 40
0.0661954744530097
 50
183.2780133325358918
 51
252.0476493388310075
  0
ARC
  5
15605
  8
0
 10
3846.9154886824858295
 20
108.8393800045580946
 30
0.0
 40
0.0952813288689953
 50
138.1357864911745992
 51
191.4388112100486978
  0
ARC
  5
15606
  8
0
 10
3846.8810112622591078
 20
108.863612977994606
 30
0.0
 40
0.0536626245065193
 50
78.2216858166657261
 51
132.8301288250725065
  0
ARC
  5
15607
  8
0
 10
3846.8301290694571435
 20
107.736083255684207
 30
0.0
 40
0.0393700787678582
 50
175.6060599278225993
 51
269.9999999568527187
  0
ARC
  5
15608
  8
0
 10
3847.0072944237567754
 20
107.736083255684207
 30
0.0
 40
0.0393700787678579
 50
175.6060599278274879
 51
269.9999999568527187
  0
ARC
  5
15609
  8
0
 10
3847.315972641497865
 20
107.736083255684207
 30
0.0
 40
0.039370078767849
 50
270.0000000431211902
 51
4.393940072178971
  0
LINE
  5
1560A
  8
0
 10
3846.830133965027926
 20
107.6967131769164041
 30
0.0
 11
3847.3159677459270824
 21
107.6967131769164041
 31
0.0
  0
LINE
  5
1560B
  8
0
 10
3846.7907589907272268
 20
107.7360832556162933
 30
0.0
 11
3846.8118190041268463
 21
108.0116738068163045
 31
0.0
  0
LINE
  5
1560C
  8
0
 10
3846.8118190041268463
 20
108.0116738068163045
 30
0.0
 11
3846.8118190041268463
 21
108.0510438856162949
 31
0.0
  0
LINE
  5
1560D
  8
0
 10
3846.9889843584269329
 20
108.0510438856162949
 30
0.0
 11
3846.9889843584269329
 21
108.0116738068163045
 31
0.0
  0
LINE
  5
1560E
  8
0
 10
3846.9889843584269329
 20
108.0116738068163045
 30
0.0
 11
3846.9680400575348358
 21
107.7390995168232024
 31
0.0
  0
LINE
  5
1560F
  8
0
 10
3847.3342827068267979
 20
108.0510438856162949
 30
0.0
 11
3847.3342827068267979
 21
108.0116738068163045
 31
0.0
  0
LINE
  5
15610
  8
0
 10
3847.3342827068267979
 20
108.0116738068163045
 30
0.0
 11
3847.355342720265071
 21
107.736083255684207
 31
0.0
  0
ARC
  5
15611
  8
0
 10
3842.8862825956662164
 20
123.051043885579503
 30
0.0
 40
0.468743551238525
 50
118.1273539830067989
 51
241.8726460121469017
  0
ARC
  5
15612
  8
0
 10
3843.4107246566268259
 20
122.2748954618162998
 30
0.0
 40
0.0314960629999245
 50
241.8726465679642104
 51
265.9143832200483075
  0
ARC
  5
15613
  8
0
 10
3843.410724656048842
 20
123.8271923112587984
 30
0.0
 40
0.0314960609734542
 50
94.0856160347840671
 51
118.1273549229589008
  0
ARC
  5
15614
  8
0
 10
3843.697066603591793
 20
123.4151143122432046
 30
0.0
 40
0.0196850394650952
 50
180.0000000781832057
 51
269.6999996785672806
  0
ARC
  5
15615
  8
0
 10
3844.1301374697318352
 20
123.3734761193543932
 30
0.0
 40
0.0196850392993198
 50
359.9989188829562181
 51
89.7000003070511269
  0
ARC
  5
15616
  8
0
 10
3644.8141333876810677
 20
103.8767188732003035
 30
0.0
 40
200.3360035915372919
 50
5.4407522206220733
 51
5.5437090924809089
  0
ARC
  5
15617
  8
0
 10
3851.4607009409401144
 20
123.6681418943492048
 30
0.0
 40
7.325397001591738
 50
183.6079258806755092
 51
186.2395112896354874
  0
ARC
  5
15618
  8
0
 10
3298.586721722781931
 20
70.5770341200082498
 30
0.0
 40
548.229642380263499
 50
5.4736795493975148
 51
5.511311645882067
  0
LINE
  5
15619
  8
0
 10
3844.1498225090272172
 20
123.3734757479164017
 30
0.0
 11
3844.1498225090272172
 21
122.7286116518163936
 31
0.0
  0
LINE
  5
1561A
  8
0
 10
3843.6969635333730366
 20
122.7066582284787017
 30
0.0
 11
3844.1302405397800612
 21
122.7089268823161063
 31
0.0
  0
ARC
  5
1561B
  8
0
 10
3844.1301374696281528
 20
122.7286116518163936
 30
0.0
 40
0.0196850394000019
 50
270.30000013297348
 51
359.9999999999935199
  0
ARC
  5
1561C
  8
0
 10
3843.6970666035272188
 20
122.6869734589163983
 30
0.0
 40
0.0196850394000023
 50
90.3000001329474458
 51
179.9999999999951115
  0
LINE
  5
1561D
  8
0
 10
3843.6969635333748556
 20
123.3954295426160996
 30
0.0
 11
3844.1302405397800612
 21
123.3931608888165954
 31
0.0
  0
LINE
  5
1561E
  8
0
 10
3843.4084806550517897
 20
123.8586083313660993
 30
0.0
 11
3843.6773815641267902
 21
123.8778049434163933
 31
0.0
  0
LINE
  5
1561F
  8
0
 10
3843.6773815641267902
 20
123.8778049434163933
 30
0.0
 11
3843.6773815641267902
 21
122.2242828278163955
 31
0.0
  0
LINE
  5
15620
  8
0
 10
3843.6773815641267902
 20
122.2242828278163955
 30
0.0
 11
3843.4084806550549729
 21
122.2434794398143936
 31
0.0
  0
LINE
  5
15621
  8
0
 10
3842.665301431127773
 20
122.6376580588163989
 30
0.0
 11
3843.3958763740270115
 21
122.2471190242163033
 31
0.0
  0
LINE
  5
15622
  8
0
 10
3843.3958763740270115
 20
122.2471190242163033
 30
0.0
 11
3843.3958763740270115
 21
123.854968746916299
 31
0.0
  0
LINE
  5
15623
  8
0
 10
3843.3958763740270115
 20
123.854968746916299
 30
0.0
 11
3842.6653014310991239
 21
123.4644297123012961
 31
0.0
  0
LINE
  5
15624
  8
0
 10
3844.1498225090272172
 20
123.239624791816297
 30
0.0
 11
3844.1777371651278372
 21
123.2872643580164009
 31
0.0
  0
LINE
  5
15625
  8
0
 10
3844.1777371651278372
 20
123.2872643580164009
 30
0.0
 11
3844.1797056690270438
 21
123.2872643580164009
 31
0.0
  0
LINE
  5
15626
  8
0
 10
3844.1797056690270438
 20
123.2872643580164009
 30
0.0
 11
3844.2131236449267817
 21
123.2301945322164016
 31
0.0
  0
LINE
  5
15627
  8
0
 10
3844.213123644919051
 20
123.2301945322029013
 30
0.0
 11
3844.2466348029270193
 21
123.2872643580164009
 31
0.0
  0
LINE
  5
15628
  8
0
 10
3844.2466348029270193
 20
123.2872643580164009
 30
0.0
 11
3844.2486033068271354
 21
123.2872643580164009
 31
0.0
  0
LINE
  5
15629
  8
0
 10
3844.2486033068271354
 20
123.2872643580164009
 30
0.0
 11
3844.2820391291138549
 21
123.2302519247609069
 31
0.0
  0
LINE
  5
1562A
  8
0
 10
3844.2476190548782142
 20
123.2872643580164009
 30
0.0
 11
3844.2820678737771232
 21
122.8148234131164003
 31
0.0
  0
LINE
  5
1562B
  8
0
 10
3844.1787214170781226
 20
123.2872643580164009
 30
0.0
 11
3844.213170235977941
 21
122.8148234131164003
 31
0.0
  0
LINE
  5
1562C
  8
0
 10
3844.1498225090272172
 20
122.8222525531163996
 30
0.0
 11
3844.1786974096289669
 21
122.8719812741086059
 31
0.0
  0
LINE
  5
1562D
  8
0
 10
3844.1786974096289669
 20
122.8719812741086059
 30
0.0
 11
3844.2121859840272009
 21
122.8148234131164003
 31
0.0
  0
LINE
  5
1562E
  8
0
 10
3844.2121859840272009
 20
122.8148234131164003
 30
0.0
 11
3844.2141544879282264
 21
122.8148234131164003
 31
0.0
  0
LINE
  5
1562F
  8
0
 10
3844.2141544879282264
 20
122.8148234131164003
 30
0.0
 11
3844.2475786614932076
 21
122.8718561784672971
 31
0.0
  0
LINE
  5
15630
  8
0
 10
3844.2475786614932076
 20
122.8718561784672971
 30
0.0
 11
3844.2810836218268378
 21
122.8148234131164003
 31
0.0
  0
LINE
  5
15631
  8
0
 10
3844.2810836218268378
 20
122.8148234131164003
 30
0.0
 11
3844.2830521257278633
 21
122.8148234131164003
 31
0.0
  0
LINE
  5
15632
  8
0
 10
3844.2830521257278633
 20
122.8148234131164003
 30
0.0
 11
3844.3165042659170467
 21
122.871825732697701
 31
0.0
  0
ARC
  5
15633
  8
0
 10
3298.6556193605820226
 20
70.5770341200082498
 30
0.0
 40
548.229642380263499
 50
5.4736795493975148
 51
5.511311645882067
  0
LINE
  5
15634
  8
0
 10
3844.2820212827191426
 20
123.2301945322029013
 30
0.0
 11
3844.315532440727111
 21
123.2872643580164009
 31
0.0
  0
LINE
  5
15635
  8
0
 10
3844.315532440727111
 20
123.2872643580164009
 30
0.0
 11
3844.317500944627227
 21
123.2872643580164009
 31
0.0
  0
LINE
  5
15636
  8
0
 10
3844.317500944627227
 20
123.2872643580164009
 30
0.0
 11
3844.3509367669139465
 21
123.2302519247609069
 31
0.0
  0
LINE
  5
15637
  8
0
 10
3844.3165166926778511
 20
123.2872643580164009
 30
0.0
 11
3844.3509655115781243
 21
122.8148234131164003
 31
0.0
  0
LINE
  5
15638
  8
0
 10
3844.316476299291935
 20
122.8718561784672971
 30
0.0
 11
3844.3499812596269294
 21
122.8148234131164003
 31
0.0
  0
LINE
  5
15639
  8
0
 10
3844.3499812596269294
 20
122.8148234131164003
 30
0.0
 11
3844.3519497635270454
 21
122.8148234131164003
 31
0.0
  0
LINE
  5
1563A
  8
0
 10
3844.3519497635270454
 20
122.8148234131164003
 30
0.0
 11
3844.3854019037157741
 21
122.871825732697701
 31
0.0
  0
ARC
  5
1563B
  8
0
 10
3298.7245169983821143
 20
70.5770341200082498
 30
0.0
 40
548.229642380263499
 50
5.4736795493975148
 51
5.511311645882067
  0
LINE
  5
1563C
  8
0
 10
3844.3509189205201437
 20
123.2301945322029013
 30
0.0
 11
3844.3844300785272026
 21
123.2872643580164009
 31
0.0
  0
LINE
  5
1563D
  8
0
 10
3844.3844300785272026
 20
123.2872643580164009
 30
0.0
 11
3844.3863985824268639
 21
123.2872643580164009
 31
0.0
  0
LINE
  5
1563E
  8
0
 10
3844.3863985824268639
 20
123.2872643580164009
 30
0.0
 11
3844.4198344047131286
 21
123.2302519247609069
 31
0.0
  0
LINE
  5
1563F
  8
0
 10
3844.3854143304770332
 20
123.2872643580164009
 30
0.0
 11
3844.4198631493782159
 21
122.8148234131164003
 31
0.0
  0
LINE
  5
15640
  8
0
 10
3844.3853739370920266
 20
122.8718561784672971
 30
0.0
 11
3844.418878897427021
 21
122.8148234131164003
 31
0.0
  0
LINE
  5
15641
  8
0
 10
3844.418878897427021
 20
122.8148234131164003
 30
0.0
 11
3844.420847401327137
 21
122.8148234131164003
 31
0.0
  0
LINE
  5
15642
  8
0
 10
3844.420847401327137
 20
122.8148234131164003
 30
0.0
 11
3844.4542995415158657
 21
122.871825732697701
 31
0.0
  0
ARC
  5
15643
  8
0
 10
3298.7934146361822059
 20
70.5770341200082498
 30
0.0
 40
548.229642380263499
 50
5.4736795493975148
 51
5.511311645882067
  0
LINE
  5
15644
  8
0
 10
3844.4198165583197806
 20
123.2301945322029013
 30
0.0
 11
3844.4533277163282037
 21
123.2872643580164009
 31
0.0
  0
LINE
  5
15645
  8
0
 10
3844.4533277163282037
 20
123.2872643580164009
 30
0.0
 11
3844.4552962202269555
 21
123.2872643580164009
 31
0.0
  0
LINE
  5
15646
  8
0
 10
3844.4552962202269555
 20
123.2872643580164009
 30
0.0
 11
3844.4887320425132202
 21
123.2302519247609069
 31
0.0
  0
LINE
  5
15647
  8
0
 10
3844.4543119682771248
 20
123.2872643580164009
 30
0.0
 11
3844.4887607871769433
 21
122.8148234131164003
 31
0.0
  0
LINE
  5
15648
  8
0
 10
3844.4542715748930277
 20
122.8718561784672971
 30
0.0
 11
3844.4877765352280221
 21
122.8148234131164003
 31
0.0
  0
LINE
  5
15649
  8
0
 10
3844.4877765352280221
 20
122.8148234131164003
 30
0.0
 11
3844.4897450391281382
 21
122.8148234131164003
 31
0.0
  0
LINE
  5
1564A
  8
0
 10
3844.4897450391281382
 20
122.8148234131164003
 30
0.0
 11
3844.5231971793168668
 21
122.871825732697701
 31
0.0
  0
ARC
  5
1564B
  8
0
 10
3298.8623122739318205
 20
70.5770341200082498
 30
0.0
 40
548.229642380263499
 50
5.4736795493975148
 51
5.511311645882067
  0
LINE
  5
1564C
  8
0
 10
3844.4887141960689405
 20
123.2301945322029013
 30
0.0
 11
3844.5222253540778183
 21
123.2872643580164009
 31
0.0
  0
LINE
  5
1564D
  8
0
 10
3844.5222253540778183
 20
123.2872643580164009
 30
0.0
 11
3844.5241938579770249
 21
123.2872643580164009
 31
0.0
  0
LINE
  5
1564E
  8
0
 10
3844.5241938579770249
 20
123.2872643580164009
 30
0.0
 11
3844.5576296802628349
 21
123.2302519247609069
 31
0.0
  0
LINE
  5
1564F
  8
0
 10
3844.5232096060271942
 20
123.2872643580164009
 30
0.0
 11
3844.5576584249270127
 21
122.8148234131164003
 31
0.0
  0
LINE
  5
15650
  8
0
 10
3844.5231692126430971
 20
122.8718561784672971
 30
0.0
 11
3844.556674172977182
 21
122.8148234131164003
 31
0.0
  0
LINE
  5
15651
  8
0
 10
3844.556674172977182
 20
122.8148234131164003
 30
0.0
 11
3844.5586426768782076
 21
122.8148234131164003
 31
0.0
  0
LINE
  5
15652
  8
0
 10
3844.5586426768782076
 20
122.8148234131164003
 30
0.0
 11
3844.5920948170669362
 21
122.871825732697701
 31
0.0
  0
ARC
  5
15653
  8
0
 10
3298.9312099117319121
 20
70.5770341200082498
 30
0.0
 40
548.229642380263499
 50
5.4736795493975148
 51
5.511311645882067
  0
LINE
  5
15654
  8
0
 10
3844.5576118338690321
 20
123.2301945322029013
 30
0.0
 11
3844.5911229918770005
 21
123.2872643580164009
 31
0.0
  0
LINE
  5
15655
  8
0
 10
3844.5911229918770005
 20
123.2872643580164009
 30
0.0
 11
3844.5930914957771165
 21
123.2872643580164009
 31
0.0
  0
LINE
  5
15656
  8
0
 10
3844.5930914957771165
 20
123.2872643580164009
 30
0.0
 11
3844.626527318063836
 21
123.2302519247609069
 31
0.0
  0
LINE
  5
15657
  8
0
 10
3844.5921072438281954
 20
123.2872643580164009
 30
0.0
 11
3844.6265560627280138
 21
122.8148234131164003
 31
0.0
  0
LINE
  5
15658
  8
0
 10
3844.5920668504431887
 20
122.8718561784672971
 30
0.0
 11
3844.6255718107768189
 21
122.8148234131164003
 31
0.0
  0
LINE
  5
15659
  8
0
 10
3844.6255718107768189
 20
122.8148234131164003
 30
0.0
 11
3844.6275403146778444
 21
122.8148234131164003
 31
0.0
  0
LINE
  5
1565A
  8
0
 10
3844.6275403146778444
 20
122.8148234131164003
 30
0.0
 11
3844.6609924548670278
 21
122.871825732697701
 31
0.0
  0
ARC
  5
1565B
  8
0
 10
3299.0001075495320038
 20
70.5770341200082498
 30
0.0
 40
548.229642380263499
 50
5.4736795493975148
 51
5.511311645882067
  0
LINE
  5
1565C
  8
0
 10
3844.6265094716700332
 20
123.2301945322029013
 30
0.0
 11
3844.6600206296770921
 21
123.2872643580164009
 31
0.0
  0
LINE
  5
1565D
  8
0
 10
3844.6600206296770921
 20
123.2872643580164009
 30
0.0
 11
3844.6619891335772081
 21
123.2872643580164009
 31
0.0
  0
LINE
  5
1565E
  8
0
 10
3844.6619891335772081
 20
123.2872643580164009
 30
0.0
 11
3844.6954249558639276
 21
123.2302519247609069
 31
0.0
  0
LINE
  5
1565F
  8
0
 10
3844.6610048816278322
 20
123.2872643580164009
 30
0.0
 11
3844.6954537005271959
 21
122.8148234131164003
 31
0.0
  0
LINE
  5
15660
  8
0
 10
3844.6609644882428256
 20
122.8718561784672971
 30
0.0
 11
3844.6944694485769105
 21
122.8148234131164003
 31
0.0
  0
LINE
  5
15661
  8
0
 10
3844.6944694485769105
 20
122.8148234131164003
 30
0.0
 11
3844.6964379524770266
 21
122.8148234131164003
 31
0.0
  0
LINE
  5
15662
  8
0
 10
3844.6964379524770266
 20
122.8148234131164003
 30
0.0
 11
3844.72989009266621
 21
122.871825732697701
 31
0.0
  0
ARC
  5
15663
  8
0
 10
3299.0690051873320954
 20
70.5770341200082498
 30
0.0
 40
548.229642380263499
 50
5.4736795493975148
 51
5.511311645882067
  0
LINE
  5
15664
  8
0
 10
3844.6954071094692154
 20
123.2301945322029013
 30
0.0
 11
3844.7289182674771837
 21
123.2872643580164009
 31
0.0
  0
LINE
  5
15665
  8
0
 10
3844.7289182674771837
 20
123.2872643580164009
 30
0.0
 11
3844.730886771376845
 21
123.2872643580164009
 31
0.0
  0
LINE
  5
15666
  8
0
 10
3844.730886771376845
 20
123.2872643580164009
 30
0.0
 11
3844.7643225936640192
 21
123.2302519247609069
 31
0.0
  0
LINE
  5
15667
  8
0
 10
3844.7299025194270143
 20
123.2872643580164009
 30
0.0
 11
3844.764351338328197
 21
122.8148234131164003
 31
0.0
  0
LINE
  5
15668
  8
0
 10
3844.7298621260420077
 20
122.8718561784672971
 30
0.0
 11
3844.7633670863779116
 21
122.8148234131164003
 31
0.0
  0
LINE
  5
15669
  8
0
 10
3844.7633670863779116
 20
122.8148234131164003
 30
0.0
 11
3844.7653355902771182
 21
122.8148234131164003
 31
0.0
  0
LINE
  5
1566A
  8
0
 10
3844.7653355902771182
 20
122.8148234131164003
 30
0.0
 11
3844.7987877304658468
 21
122.871825732697701
 31
0.0
  0
ARC
  5
1566B
  8
0
 10
3299.137902825132187
 20
70.5770341200082498
 30
0.0
 40
548.229642380263499
 50
5.4736795493975148
 51
5.511311645882067
  0
LINE
  5
1566C
  8
0
 10
3844.7643047472702165
 20
123.2301945322029013
 30
0.0
 11
3844.7978159052768206
 21
123.2872643580164009
 31
0.0
  0
LINE
  5
1566D
  8
0
 10
3844.7978159052768206
 20
123.2872643580164009
 30
0.0
 11
3844.7997844091778461
 21
123.2872643580164009
 31
0.0
  0
LINE
  5
1566E
  8
0
 10
3844.7997844091778461
 20
123.2872643580164009
 30
0.0
 11
3844.8332202314632013
 21
123.2302519247609069
 31
0.0
  0
LINE
  5
1566F
  8
0
 10
3844.798800157227106
 20
123.2872643580164009
 30
0.0
 11
3844.8332489761278339
 21
122.8148234131164003
 31
0.0
  0
LINE
  5
15670
  8
0
 10
3844.7987597638420993
 20
122.8718561784672971
 30
0.0
 11
3844.8322647241770937
 21
122.8148234131164003
 31
0.0
  0
LINE
  5
15671
  8
0
 10
3844.8322647241770937
 20
122.8148234131164003
 30
0.0
 11
3844.8342332280772098
 21
122.8148234131164003
 31
0.0
  0
LINE
  5
15672
  8
0
 10
3844.8342332280772098
 20
122.8148234131164003
 30
0.0
 11
3844.8676853682659385
 21
122.871825732697701
 31
0.0
  0
ARC
  5
15673
  8
0
 10
3299.2068004629318239
 20
70.5770341200082498
 30
0.0
 40
548.229642380263499
 50
5.4736795493975148
 51
5.511311645882067
  0
LINE
  5
15674
  8
0
 10
3844.8332023850698533
 20
123.2301945322029013
 30
0.0
 11
3844.8667135430778217
 21
123.2872643580164009
 31
0.0
  0
LINE
  5
15675
  8
0
 10
3844.8667135430778217
 20
123.2872643580164009
 30
0.0
 11
3844.8686820469770282
 21
123.2872643580164009
 31
0.0
  0
LINE
  5
15676
  8
0
 10
3844.8686820469770282
 20
123.2872643580164009
 30
0.0
 11
3844.9021178692628382
 21
123.2302519247609069
 31
0.0
  0
LINE
  5
15677
  8
0
 10
3844.8676977950271976
 20
123.2872643580164009
 30
0.0
 11
3844.902146613927016
 21
122.8148234131164003
 31
0.0
  0
LINE
  5
15678
  8
0
 10
3844.8676574016431005
 20
122.8718561784672971
 30
0.0
 11
3844.9011623619780949
 21
122.8148234131164003
 31
0.0
  0
LINE
  5
15679
  8
0
 10
3844.9011623619780949
 20
122.8148234131164003
 30
0.0
 11
3844.9031308658782109
 21
122.8148234131164003
 31
0.0
  0
LINE
  5
1567A
  8
0
 10
3844.9031308658782109
 20
122.8148234131164003
 30
0.0
 11
3844.9365830060669396
 21
122.871825732697701
 31
0.0
  0
ARC
  5
1567B
  8
0
 10
3299.2756981007319155
 20
70.5770341200082498
 30
0.0
 40
548.229642380263499
 50
5.4736795493975148
 51
5.511311645882067
  0
LINE
  5
1567C
  8
0
 10
3844.902100022869945
 20
123.2301945322029013
 30
0.0
 11
3844.9356111808770038
 21
123.2872643580164009
 31
0.0
  0
LINE
  5
1567D
  8
0
 10
3844.9356111808770038
 20
123.2872643580164009
 30
0.0
 11
3844.9375796847780293
 21
123.2872643580164009
 31
0.0
  0
LINE
  5
1567E
  8
0
 10
3844.9375796847780293
 20
123.2872643580164009
 30
0.0
 11
3844.9710155070629298
 21
123.2302519247609069
 31
0.0
  0
LINE
  5
1567F
  8
0
 10
3844.9365954328268344
 20
123.2872643580164009
 30
0.0
 11
3844.9710442517271076
 21
122.8148234131164003
 31
0.0
  0
LINE
  5
15680
  8
0
 10
3844.9365550394418278
 20
122.8718561784672971
 30
0.0
 11
3844.9700599997768222
 21
122.8148234131164003
 31
0.0
  0
LINE
  5
15681
  8
0
 10
3844.9700599997768222
 20
122.8148234131164003
 30
0.0
 11
3844.9720285036778478
 21
122.8148234131164003
 31
0.0
  0
LINE
  5
15682
  8
0
 10
3844.9720285036778478
 20
122.8148234131164003
 30
0.0
 11
3845.0054806438661217
 21
122.871825732697701
 31
0.0
  0
ARC
  5
15683
  8
0
 10
3299.3445957384819849
 20
70.5770341200082498
 30
0.0
 40
548.229642380263499
 50
5.4736795493975148
 51
5.511311645882067
  0
LINE
  5
15684
  8
0
 10
3844.9709976606191049
 20
123.2301945322029013
 30
0.0
 11
3845.0045088186270732
 21
123.2872643580164009
 31
0.0
  0
LINE
  5
15685
  8
0
 10
3845.0045088186270732
 20
123.2872643580164009
 30
0.0
 11
3845.0064773225271892
 21
123.2872643580164009
 31
0.0
  0
LINE
  5
15686
  8
0
 10
3845.0064773225271892
 20
123.2872643580164009
 30
0.0
 11
3845.0399131448139087
 21
123.2302519247609069
 31
0.0
  0
LINE
  5
15687
  8
0
 10
3845.0054930705778133
 20
123.2872643580164009
 30
0.0
 11
3845.0399418894780865
 21
122.8148234131164003
 31
0.0
  0
LINE
  5
15688
  8
0
 10
3845.0054526771928067
 20
122.8718561784672971
 30
0.0
 11
3845.0389576375268916
 21
122.8148234131164003
 31
0.0
  0
LINE
  5
15689
  8
0
 10
3845.0389576375268916
 20
122.8148234131164003
 30
0.0
 11
3845.0409261414270077
 21
122.8148234131164003
 31
0.0
  0
LINE
  5
1568A
  8
0
 10
3845.0409261414270077
 20
122.8148234131164003
 30
0.0
 11
3845.0743782816161911
 21
122.871825732697701
 31
0.0
  0
ARC
  5
1568B
  8
0
 10
3299.413493376281167
 20
70.5770341200082498
 30
0.0
 40
548.229642380263499
 50
5.4736795493975148
 51
5.511311645882067
  0
LINE
  5
1568C
  8
0
 10
3845.039895298420106
 20
123.2301945322029013
 30
0.0
 11
3845.0734064564271648
 21
123.2872643580164009
 31
0.0
  0
LINE
  5
1568D
  8
0
 10
3845.0734064564271648
 20
123.2872643580164009
 30
0.0
 11
3845.0753749603268261
 21
123.2872643580164009
 31
0.0
  0
LINE
  5
1568E
  8
0
 10
3845.0753749603268261
 20
123.2872643580164009
 30
0.0
 11
3845.1088107826140003
 21
123.2302519247609069
 31
0.0
  0
LINE
  5
1568F
  8
0
 10
3845.0743907083769955
 20
123.2872643580164009
 30
0.0
 11
3845.1088395272781781
 21
122.8148234131164003
 31
0.0
  0
LINE
  5
15690
  8
0
 10
3845.0743503149919889
 20
122.8718561784672971
 30
0.0
 11
3845.1078552753278927
 21
122.8148234131164003
 31
0.0
  0
LINE
  5
15691
  8
0
 10
3845.1078552753278927
 20
122.8148234131164003
 30
0.0
 11
3845.1098237792270993
 21
122.8148234131164003
 31
0.0
  0
LINE
  5
15692
  8
0
 10
3845.1098237792270993
 20
122.8148234131164003
 30
0.0
 11
3845.143275919415828
 21
122.871825732697701
 31
0.0
  0
ARC
  5
15693
  8
0
 10
3299.4823910140821681
 20
70.5770341200082498
 30
0.0
 40
548.229642380263499
 50
5.4736795493975148
 51
5.511311645882067
  0
LINE
  5
15694
  8
0
 10
3845.1087929362188333
 20
123.2301945322029013
 30
0.0
 11
3845.1423040942281659
 21
123.2872643580164009
 31
0.0
  0
LINE
  5
15695
  8
0
 10
3845.1423040942281659
 20
123.2872643580164009
 30
0.0
 11
3845.1442725981278272
 21
123.2872643580164009
 31
0.0
  0
LINE
  5
15696
  8
0
 10
3845.1442725981278272
 20
123.2872643580164009
 30
0.0
 11
3845.1777084204131825
 21
123.2302519247609069
 31
0.0
  0
LINE
  5
15697
  8
0
 10
3845.1432883461770871
 20
123.2872643580164009
 30
0.0
 11
3845.177737165077815
 21
122.8148234131164003
 31
0.0
  0
LINE
  5
15698
  8
0
 10
3845.14324795279299
 20
122.8718561784672971
 30
0.0
 11
3845.1767529131279844
 21
122.8148234131164003
 31
0.0
  0
LINE
  5
15699
  8
0
 10
3845.1767529131279844
 20
122.8148234131164003
 30
0.0
 11
3845.1787214170281004
 21
122.8148234131164003
 31
0.0
  0
LINE
  5
1569A
  8
0
 10
3845.1787214170281004
 20
122.8148234131164003
 30
0.0
 11
3845.2121735572168291
 21
122.871825732697701
 31
0.0
  0
ARC
  5
1569B
  8
0
 10
3299.551288651881805
 20
70.5770341200082498
 30
0.0
 40
548.229642380263499
 50
5.4736795493975148
 51
5.511311645882067
  0
LINE
  5
1569C
  8
0
 10
3845.1776905740198345
 20
123.2301945322029013
 30
0.0
 11
3845.2112017320268933
 21
123.2872643580164009
 31
0.0
  0
LINE
  5
1569D
  8
0
 10
3845.2112017320268933
 20
123.2872643580164009
 30
0.0
 11
3845.2131702359279188
 21
123.2872643580164009
 31
0.0
  0
LINE
  5
1569E
  8
0
 10
3845.2131702359279188
 20
123.2872643580164009
 30
0.0
 11
3845.2466060582128193
 21
123.2302519247609069
 31
0.0
  0
LINE
  5
1569F
  8
0
 10
3845.2121859839771787
 20
123.2872643580164009
 30
0.0
 11
3845.2466348028769971
 21
122.8148234131164003
 31
0.0
  0
LINE
  5
156A0
  8
0
 10
3845.2121455905921721
 20
122.8718561784672971
 30
0.0
 11
3845.245650550928076
 21
122.8148234131164003
 31
0.0
  0
LINE
  5
156A1
  8
0
 10
3845.245650550928076
 20
122.8148234131164003
 30
0.0
 11
3845.2476190548268278
 21
122.8148234131164003
 31
0.0
  0
LINE
  5
156A2
  8
0
 10
3845.2476190548268278
 20
122.8148234131164003
 30
0.0
 11
3845.2810711950160112
 21
122.871825732697701
 31
0.0
  0
ARC
  5
156A3
  8
0
 10
3299.6201862896818966
 20
70.5770341200082498
 30
0.0
 40
548.229642380263499
 50
5.4736795493975148
 51
5.511311645882067
  0
LINE
  5
156A4
  8
0
 10
3845.2465882118199261
 20
123.2301945322029013
 30
0.0
 11
3845.2800993698278944
 21
123.2872643580164009
 31
0.0
  0
LINE
  5
156A5
  8
0
 10
3845.2800993698278944
 20
123.2872643580164009
 30
0.0
 11
3845.2820678737280105
 21
123.2872643580164009
 31
0.0
  0
LINE
  5
156A6
  8
0
 10
3845.2820678737280105
 20
123.2872643580164009
 30
0.0
 11
3845.3155036960138204
 21
123.2302519247609069
 31
0.0
  0
LINE
  5
156A7
  8
0
 10
3845.2810836217768156
 20
123.2872643580164009
 30
0.0
 11
3845.3155324406770887
 21
122.8148234131164003
 31
0.0
  0
LINE
  5
156A8
  8
0
 10
3845.2810432283931732
 20
122.8718561784672971
 30
0.0
 11
3845.3145481887281676
 21
122.8148234131164003
 31
0.0
  0
LINE
  5
156A9
  8
0
 10
3845.3145481887281676
 20
122.8148234131164003
 30
0.0
 11
3845.3165166926278289
 21
122.8148234131164003
 31
0.0
  0
LINE
  5
156AA
  8
0
 10
3845.3165166926278289
 20
122.8148234131164003
 30
0.0
 11
3845.3499688328170123
 21
122.871825732697701
 31
0.0
  0
ARC
  5
156AB
  8
0
 10
3299.6890839274819882
 20
70.5770341200082498
 30
0.0
 40
548.229642380263499
 50
5.4736795493975148
 51
5.511311645882067
  0
LINE
  5
156AC
  8
0
 10
3845.3154858496191082
 20
123.2301945322029013
 30
0.0
 11
3845.3489970076270765
 21
123.2872643580164009
 31
0.0
  0
LINE
  5
156AD
  8
0
 10
3845.3489970076270765
 20
123.2872643580164009
 30
0.0
 11
3845.3509655115281021
 21
123.2872643580164009
 31
0.0
  0
LINE
  5
156AE
  8
0
 10
3845.3509655115281021
 20
123.2872643580164009
 30
0.0
 11
3845.3844013338130026
 21
123.2302519247609069
 31
0.0
  0
LINE
  5
156AF
  8
0
 10
3845.3499812595769072
 20
123.2872643580164009
 30
0.0
 11
3845.3844300784771804
 21
122.8148234131164003
 31
0.0
  0
LINE
  5
156B0
  8
0
 10
3845.3499408661919006
 20
122.8718561784672971
 30
0.0
 11
3845.3834458265278045
 21
122.8148234131164003
 31
0.0
  0
LINE
  5
156B1
  8
0
 10
3845.3834458265278045
 20
122.8148234131164003
 30
0.0
 11
3845.385414330427011
 21
122.8148234131164003
 31
0.0
  0
LINE
  5
156B2
  8
0
 10
3845.385414330427011
 20
122.8148234131164003
 30
0.0
 11
3845.4188664706161944
 21
122.871825732697701
 31
0.0
  0
ARC
  5
156B3
  8
0
 10
3299.7579815652820798
 20
70.5770341200082498
 30
0.0
 40
548.229642380263499
 50
5.4736795493975148
 51
5.511311645882067
  0
LINE
  5
156B4
  8
0
 10
3845.3843834874191998
 20
123.2301945322029013
 30
0.0
 11
3845.4178946454271681
 21
123.2872643580164009
 31
0.0
  0
LINE
  5
156B5
  8
0
 10
3845.4178946454271681
 20
123.2872643580164009
 30
0.0
 11
3845.4198631493281937
 21
123.2872643580164009
 31
0.0
  0
LINE
  5
156B6
  8
0
 10
3845.4198631493281937
 20
123.2872643580164009
 30
0.0
 11
3845.4532989716140037
 21
123.2302519247609069
 31
0.0
  0
LINE
  5
156B7
  8
0
 10
3845.4188788973779083
 20
123.2872643580164009
 30
0.0
 11
3845.4533277162781815
 21
122.8148234131164003
 31
0.0
  0
LINE
  5
156B8
  8
0
 10
3845.4188385039929017
 20
122.8718561784672971
 30
0.0
 11
3845.4523434643269866
 21
122.8148234131164003
 31
0.0
  0
LINE
  5
156B9
  8
0
 10
3845.4523434643269866
 20
122.8148234131164003
 30
0.0
 11
3845.4543119682271026
 21
122.8148234131164003
 31
0.0
  0
LINE
  5
156BA
  8
0
 10
3845.4543119682271026
 20
122.8148234131164003
 30
0.0
 11
3845.4877641084171955
 21
122.871825732697701
 31
0.0
  0
ARC
  5
156BB
  8
0
 10
3299.8268792030821714
 20
70.5770341200082498
 30
0.0
 40
548.229642380263499
 50
5.4736795493975148
 51
5.511311645882067
  0
LINE
  5
156BC
  8
0
 10
3845.4532811252202009
 20
123.2301945322029013
 30
0.0
 11
3845.486792283226805
 21
123.2872643580164009
 31
0.0
  0
LINE
  5
156BD
  8
0
 10
3845.486792283226805
 20
123.2872643580164009
 30
0.0
 11
3845.4887607871278306
 21
123.2872643580164009
 31
0.0
  0
LINE
  5
156BE
  8
0
 10
3845.4887607871278306
 20
123.2872643580164009
 30
0.0
 11
3845.5221966094140953
 21
123.2302519247609069
 31
0.0
  0
LINE
  5
156BF
  8
0
 10
3845.4877765351779999
 20
123.2872643580164009
 30
0.0
 11
3845.5222253540769088
 21
122.8148234131164003
 31
0.0
  0
LINE
  5
156C0
  8
0
 10
3845.4877361417929933
 20
122.8718561784672971
 30
0.0
 11
3845.5212411021270782
 21
122.8148234131164003
 31
0.0
  0
LINE
  5
156C1
  8
0
 10
3845.5212411021270782
 20
122.8148234131164003
 30
0.0
 11
3845.5232096060271942
 21
122.8148234131164003
 31
0.0
  0
LINE
  5
156C2
  8
0
 10
3845.5232096060271942
 20
122.8148234131164003
 30
0.0
 11
3845.5566617462168324
 21
122.871825732697701
 31
0.0
  0
ARC
  5
156C3
  8
0
 10
3299.8957768408818083
 20
70.5770341200082498
 30
0.0
 40
548.229642380263499
 50
5.4736795493975148
 51
5.511311645882067
  0
LINE
  5
156C4
  8
0
 10
3845.5221787630189283
 20
123.2301945322029013
 30
0.0
 11
3845.5556899210268966
 21
123.2872643580164009
 31
0.0
  0
LINE
  5
156C5
  8
0
 10
3845.5556899210268966
 20
123.2872643580164009
 30
0.0
 11
3845.5576584249270127
 21
123.2872643580164009
 31
0.0
  0
LINE
  5
156C6
  8
0
 10
3845.5576584249270127
 20
123.2872643580164009
 30
0.0
 11
3845.5910942472141869
 21
123.2302519247609069
 31
0.0
  0
LINE
  5
156C7
  8
0
 10
3845.5566741729780915
 20
123.2872643580164009
 30
0.0
 11
3845.5911229918770005
 21
122.8148234131164003
 31
0.0
  0
LINE
  5
156C8
  8
0
 10
3845.5566337795930849
 20
122.8718561784672971
 30
0.0
 11
3845.5901387399271698
 21
122.8148234131164003
 31
0.0
  0
LINE
  5
156C9
  8
0
 10
3845.5901387399271698
 20
122.8148234131164003
 30
0.0
 11
3845.5921072438268311
 21
122.8148234131164003
 31
0.0
  0
LINE
  5
156CA
  8
0
 10
3845.5921072438268311
 20
122.8148234131164003
 30
0.0
 11
3845.625559384016924
 21
122.871825732697701
 31
0.0
  0
ARC
  5
156CB
  8
0
 10
3299.9646744786818999
 20
70.5770341200082498
 30
0.0
 40
548.229642380263499
 50
5.4736795493975148
 51
5.511311645882067
  0
LINE
  5
156CC
  8
0
 10
3845.5910764008199294
 20
123.2301945322029013
 30
0.0
 11
3845.6245875588269882
 21
123.2872643580164009
 31
0.0
  0
LINE
  5
156CD
  8
0
 10
3845.6245875588269882
 20
123.2872643580164009
 30
0.0
 11
3845.6265560627271043
 21
123.2872643580164009
 31
0.0
  0
LINE
  5
156CE
  8
0
 10
3845.6265560627271043
 20
123.2872643580164009
 30
0.0
 11
3845.6599918850138238
 21
123.2302519247609069
 31
0.0
  0
LINE
  5
156CF
  8
0
 10
3845.6255718107781831
 20
123.2872643580164009
 30
0.0
 11
3845.6600206296770921
 21
122.8148234131164003
 31
0.0
  0
LINE
  5
156D0
  8
0
 10
3845.6255314173931765
 20
122.8718561784672971
 30
0.0
 11
3845.6590363777268067
 21
122.8148234131164003
 31
0.0
  0
LINE
  5
156D1
  8
0
 10
3845.6590363777268067
 20
122.8148234131164003
 30
0.0
 11
3845.6610048816269227
 21
122.8148234131164003
 31
0.0
  0
LINE
  5
156D2
  8
0
 10
3845.6610048816269227
 20
122.8148234131164003
 30
0.0
 11
3845.6944570218170156
 21
122.871825732697701
 31
0.0
  0
ARC
  5
156D3
  8
0
 10
3300.033572116482901
 20
70.5770341200082498
 30
0.0
 40
548.229642380263499
 50
5.4736795493975148
 51
5.511311645882067
  0
LINE
  5
156D4
  8
0
 10
3845.6599740386191115
 20
123.2301945322029013
 30
0.0
 11
3845.6934851966279894
 21
123.2872643580164009
 31
0.0
  0
LINE
  5
156D5
  8
0
 10
3845.6934851966279894
 20
123.2872643580164009
 30
0.0
 11
3845.6954537005271959
 21
123.2872643580164009
 31
0.0
  0
LINE
  5
156D6
  8
0
 10
3845.6954537005271959
 20
123.2872643580164009
 30
0.0
 11
3845.7288895228139154
 21
123.2302519247609069
 31
0.0
  0
LINE
  5
156D7
  8
0
 10
3845.69446944857782
 20
123.2872643580164009
 30
0.0
 11
3845.7289182674771837
 21
122.8148234131164003
 31
0.0
  0
LINE
  5
156D8
  8
0
 10
3845.6944290551928134
 20
122.8718561784672971
 30
0.0
 11
3845.7279340155278078
 21
122.8148234131164003
 31
0.0
  0
LINE
  5
156D9
  8
0
 10
3845.7279340155278078
 20
122.8148234131164003
 30
0.0
 11
3845.7299025194279238
 21
122.8148234131164003
 31
0.0
  0
LINE
  5
156DA
  8
0
 10
3845.7299025194279238
 20
122.8148234131164003
 30
0.0
 11
3845.7633546596171072
 21
122.871825732697701
 31
0.0
  0
ARC
  5
156DB
  8
0
 10
3300.1024697542820832
 20
70.5770341200082498
 30
0.0
 40
548.229642380263499
 50
5.4736795493975148
 51
5.511311645882067
  0
LINE
  5
156DC
  8
0
 10
3845.7288716764192031
 20
123.2301945322029013
 30
0.0
 11
3845.762382834428081
 21
123.2872643580164009
 31
0.0
  0
LINE
  5
156DD
  8
0
 10
3845.762382834428081
 20
123.2872643580164009
 30
0.0
 11
3845.764351338328197
 21
123.2872643580164009
 31
0.0
  0
LINE
  5
156DE
  8
0
 10
3845.764351338328197
 20
123.2872643580164009
 30
0.0
 11
3845.797787160614007
 21
123.2302519247609069
 31
0.0
  0
LINE
  5
156DF
  8
0
 10
3845.7633670863770021
 20
123.2872643580164009
 30
0.0
 11
3845.7978159052768206
 21
122.8148234131164003
 31
0.0
  0
LINE
  5
156E0
  8
0
 10
3845.7633266929919955
 20
122.8718561784672971
 30
0.0
 11
3845.7968316533269899
 21
122.8148234131164003
 31
0.0
  0
LINE
  5
156E1
  8
0
 10
3845.7968316533269899
 20
122.8148234131164003
 30
0.0
 11
3845.7988001572280155
 21
122.8148234131164003
 31
0.0
  0
LINE
  5
156E2
  8
0
 10
3845.7988001572280155
 20
122.8148234131164003
 30
0.0
 11
3845.8322522974158346
 21
122.871825732697701
 31
0.0
  0
ARC
  5
156E3
  8
0
 10
3300.1713673920821748
 20
70.5770341200082498
 30
0.0
 40
548.229642380263499
 50
5.4736795493975148
 51
5.511311645882067
  0
LINE
  5
156E4
  8
0
 10
3845.79776931421884
 20
123.2301945322029013
 30
0.0
 11
3845.8312804722281726
 21
123.2872643580164009
 31
0.0
  0
LINE
  5
156E5
  8
0
 10
3845.8312804722281726
 20
123.2872643580164009
 30
0.0
 11
3845.8332489761269244
 21
123.2872643580164009
 31
0.0
  0
LINE
  5
156E6
  8
0
 10
3845.8332489761269244
 20
123.2872643580164009
 30
0.0
 11
3845.8666847984140986
 21
123.2302519247609069
 31
0.0
  0
LINE
  5
156E7
  8
0
 10
3845.8322647241770937
 20
123.2872643580164009
 30
0.0
 11
3845.8667135430769122
 21
122.8148234131164003
 31
0.0
  0
LINE
  5
156E8
  8
0
 10
3845.8322243307929966
 20
122.8718561784672971
 30
0.0
 11
3845.8657292911270815
 21
122.8148234131164003
 31
0.0
  0
LINE
  5
156E9
  8
0
 10
3845.8657292911270815
 20
122.8148234131164003
 30
0.0
 11
3845.8676977950281071
 21
122.8148234131164003
 31
0.0
  0
LINE
  5
156EA
  8
0
 10
3845.8676977950281071
 20
122.8148234131164003
 30
0.0
 11
3845.9011499352168357
 21
122.871825732697701
 31
0.0
  0
ARC
  5
156EB
  8
0
 10
3300.2402650298818116
 20
70.5770341200082498
 30
0.0
 40
548.229642380263499
 50
5.4736795493975148
 51
5.511311645882067
  0
LINE
  5
156EC
  8
0
 10
3845.8666669520189316
 20
123.2301945322029013
 30
0.0
 11
3845.9001781100278095
 21
123.2872643580164009
 31
0.0
  0
LINE
  5
156ED
  8
0
 10
3845.9001781100278095
 20
123.2872643580164009
 30
0.0
 11
3845.902146613927016
 21
123.2872643580164009
 31
0.0
  0
LINE
  5
156EE
  8
0
 10
3845.902146613927016
 20
123.2872643580164009
 30
0.0
 11
3845.9355824362141902
 21
123.2302519247609069
 31
0.0
  0
LINE
  5
156EF
  8
0
 10
3845.9011623619780949
 20
123.2872643580164009
 30
0.0
 11
3845.9356111808770038
 21
122.8148234131164003
 31
0.0
  0
LINE
  5
156F0
  8
0
 10
3845.9011219685930882
 20
122.8718561784672971
 30
0.0
 11
3845.9346269289271731
 21
122.8148234131164003
 31
0.0
  0
LINE
  5
156F1
  8
0
 10
3845.9346269289271731
 20
122.8148234131164003
 30
0.0
 11
3845.9365954328281987
 21
122.8148234131164003
 31
0.0
  0
LINE
  5
156F2
  8
0
 10
3845.9365954328281987
 20
122.8148234131164003
 30
0.0
 11
3845.9700475730169273
 21
122.871825732697701
 31
0.0
  0
ARC
  5
156F3
  8
0
 10
3300.3091626676327905
 20
70.5770341200082498
 30
0.0
 40
548.229642380263499
 50
5.4736795493975148
 51
5.511311645882067
  0
LINE
  5
156F4
  8
0
 10
3845.935564589769001
 20
123.2301945322029013
 30
0.0
 11
3845.9690757477778789
 21
123.2872643580164009
 31
0.0
  0
LINE
  5
156F5
  8
0
 10
3845.9690757477778789
 20
123.2872643580164009
 30
0.0
 11
3845.9710442516770854
 21
123.2872643580164009
 31
0.0
  0
LINE
  5
156F6
  8
0
 10
3845.9710442516770854
 20
123.2872643580164009
 30
0.0
 11
3846.0044800739628954
 21
123.2302519247609069
 31
0.0
  0
LINE
  5
156F7
  8
0
 10
3845.9700599997281643
 20
123.2872643580164009
 30
0.0
 11
3846.0045088186270732
 21
122.8148234131164003
 31
0.0
  0
LINE
  5
156F8
  8
0
 10
3845.9700196063431576
 20
122.8718561784672971
 30
0.0
 11
3846.003524566678152
 21
122.8148234131164003
 31
0.0
  0
LINE
  5
156F9
  8
0
 10
3846.003524566678152
 20
122.8148234131164003
 30
0.0
 11
3846.0054930705778133
 21
122.8148234131164003
 31
0.0
  0
LINE
  5
156FA
  8
0
 10
3846.0054930705778133
 20
122.8148234131164003
 30
0.0
 11
3846.0389452107669968
 21
122.871825732697701
 31
0.0
  0
ARC
  5
156FB
  8
0
 10
3300.3780603054319727
 20
70.5770341200082498
 30
0.0
 40
548.229642380263499
 50
5.4736795493975148
 51
5.511311645882067
  0
LINE
  5
156FC
  8
0
 10
3846.0044622275700021
 20
123.2301945322029013
 30
0.0
 11
3846.037973385577061
 21
123.2872643580164009
 31
0.0
  0
LINE
  5
156FD
  8
0
 10
3846.037973385577061
 20
123.2872643580164009
 30
0.0
 11
3846.0399418894780865
 21
123.2872643580164009
 31
0.0
  0
LINE
  5
156FE
  8
0
 10
3846.0399418894780865
 20
123.2872643580164009
 30
0.0
 11
3846.073377711762987
 21
123.2302519247609069
 31
0.0
  0
LINE
  5
156FF
  8
0
 10
3846.0389576375278011
 20
123.2872643580164009
 30
0.0
 11
3846.0734064564271648
 21
122.8148234131164003
 31
0.0
  0
LINE
  5
15700
  8
0
 10
3846.0389172441427945
 20
122.8718561784672971
 30
0.0
 11
3846.0724222044768794
 21
122.8148234131164003
 31
0.0
  0
LINE
  5
15701
  8
0
 10
3846.0724222044768794
 20
122.8148234131164003
 30
0.0
 11
3846.0743907083769955
 21
122.8148234131164003
 31
0.0
  0
LINE
  5
15702
  8
0
 10
3846.0743907083769955
 20
122.8148234131164003
 30
0.0
 11
3846.1078428485661789
 21
122.871825732697701
 31
0.0
  0
ARC
  5
15703
  8
0
 10
3300.4469579432320643
 20
70.5770341200082498
 30
0.0
 40
548.229642380263499
 50
5.4736795493975148
 51
5.511311645882067
  0
LINE
  5
15704
  8
0
 10
3846.0733598653691843
 20
123.2301945322029013
 30
0.0
 11
3846.1068710233780621
 21
123.2872643580164009
 31
0.0
  0
LINE
  5
15705
  8
0
 10
3846.1068710233780621
 20
123.2872643580164009
 30
0.0
 11
3846.1088395272781781
 21
123.2872643580164009
 31
0.0
  0
LINE
  5
15706
  8
0
 10
3846.1088395272781781
 20
123.2872643580164009
 30
0.0
 11
3846.1422753495630786
 21
123.2302519247609069
 31
0.0
  0
LINE
  5
15707
  8
0
 10
3846.1078552753269832
 20
123.2872643580164009
 30
0.0
 11
3846.1423040942268017
 21
122.8148234131164003
 31
0.0
  0
LINE
  5
15708
  8
0
 10
3846.1078148819428861
 20
122.8718561784672971
 30
0.0
 11
3846.141319842276971
 21
122.8148234131164003
 31
0.0
  0
LINE
  5
15709
  8
0
 10
3846.141319842276971
 20
122.8148234131164003
 30
0.0
 11
3846.1432883461779966
 21
122.8148234131164003
 31
0.0
  0
LINE
  5
1570A
  8
0
 10
3846.1432883461779966
 20
122.8148234131164003
 30
0.0
 11
3846.17674048636718
 21
122.871825732697701
 31
0.0
  0
LINE
  5
1570B
  8
0
 10
3846.1422753495630786
 20
123.2302519247610064
 30
0.0
 11
3846.175768661127222
 21
123.2872643580164009
 31
0.0
  0
LINE
  5
1570C
  8
0
 10
3846.175768661127222
 20
123.2872643580164009
 30
0.0
 11
3846.1777371651278372
 21
123.2872643580164009
 31
0.0
  0
LINE
  5
1570D
  8
0
 10
3846.1777371651278372
 20
123.2872643580164009
 30
0.0
 11
3846.1970666035272188
 21
123.2545207268162955
 31
0.0
  0
LINE
  5
1570E
  8
0
 10
3846.1767529131270749
 20
123.2872643580164009
 30
0.0
 11
3846.1970665638277751
 21
122.9652935552163058
 31
0.0
  0
ARC
  5
1570F
  8
0
 10
3846.0564705840079114
 20
123.3393137897665071
 30
0.0
 40
0.1968547198986805
 50
194.540765010779694
 51
206.1019400291486932
  0
ARC
  5
15710
  8
0
 10
3846.0564665669771784
 20
125.2877119059294984
 30
0.0
 40
0.1968502884867926
 50
89.9999895361660265
 51
165.4595508742143011
  0
ARC
  5
15711
  8
0
 10
3846.1478168771268429
 20
125.2877118007162949
 30
0.0
 40
0.1968503937000364
 50
75.511326562564804
 51
90.0
  0
LINE
  5
15712
  8
0
 10
3846.0564666029267755
 20
125.484562194416398
 30
0.0
 11
3846.1478168771268429
 21
125.484562194416398
 31
0.0
  0
LINE
  5
15713
  8
0
 10
3847.7718697531281578
 20
125.7354879385163002
 30
0.0
 11
3848.956578386927049
 21
125.7354879385163002
 31
0.0
  0
LINE
  5
15714
  8
0
 10
3847.7718697531281578
 20
125.6914646975162952
 30
0.0
 11
3848.9529721153271566
 21
125.6914645222664006
 31
0.0
  0
ARC
  5
15715
  8
0
 10
3302.1005012503328544
 20
70.5770341200082498
 30
0.0
 40
548.229642380263499
 50
5.4736795493975148
 51
5.511311645882067
  0
LINE
  5
15716
  8
0
 10
3847.7718697531281578
 20
123.2710879255240997
 30
0.0
 11
3847.7958186566629593
 21
123.2302519247609069
 31
0.0
  0
LINE
  5
15717
  8
0
 10
3847.7718697531281578
 20
123.1436597312777934
 30
0.0
 11
3847.795847401327137
 21
122.8148234131164003
 31
0.0
  0
LINE
  5
15718
  8
0
 10
3847.7718697531281578
 20
122.8539631989823988
 30
0.0
 11
3847.7948631493782159
 21
122.8148234131164003
 31
0.0
  0
LINE
  5
15719
  8
0
 10
3847.7948631493782159
 20
122.8148234131164003
 30
0.0
 11
3847.7968316532778772
 21
122.8148234131164003
 31
0.0
  0
LINE
  5
1571A
  8
0
 10
3847.7968316532778772
 20
122.8148234131164003
 30
0.0
 11
3847.8302837934670606
 21
122.871825732697701
 31
0.0
  0
ARC
  5
1571B
  8
0
 10
3302.1693988881320365
 20
70.5770341200082498
 30
0.0
 40
548.229642380263499
 50
5.4736795493975148
 51
5.511311645882067
  0
LINE
  5
1571C
  8
0
 10
3847.7958008102691565
 20
123.2301945322029013
 30
0.0
 11
3847.8293119682780343
 21
123.2872643580164009
 31
0.0
  0
LINE
  5
1571D
  8
0
 10
3847.8293119682780343
 20
123.2872643580164009
 30
0.0
 11
3847.8312804721781504
 21
123.2872643580164009
 31
0.0
  0
LINE
  5
1571E
  8
0
 10
3847.8312804721781504
 20
123.2872643580164009
 30
0.0
 11
3847.8647162944630509
 21
123.2302519247609069
 31
0.0
  0
LINE
  5
1571F
  8
0
 10
3847.8302962202269555
 20
123.2872643580164009
 30
0.0
 11
3847.8647450391267739
 21
122.8148234131164003
 31
0.0
  0
LINE
  5
15720
  8
0
 10
3847.8302558268419489
 20
122.8718561784672971
 30
0.0
 11
3847.8637607871769433
 21
122.8148234131164003
 31
0.0
  0
LINE
  5
15721
  8
0
 10
3847.8637607871769433
 20
122.8148234131164003
 30
0.0
 11
3847.8657292910779688
 21
122.8148234131164003
 31
0.0
  0
LINE
  5
15722
  8
0
 10
3847.8657292910779688
 20
122.8148234131164003
 30
0.0
 11
3847.899181431265788
 21
122.871825732697701
 31
0.0
  0
ARC
  5
15723
  8
0
 10
3302.2382965259321281
 20
70.5770341200082498
 30
0.0
 40
548.229642380263499
 50
5.4736795493975148
 51
5.511311645882067
  0
LINE
  5
15724
  8
0
 10
3847.8646984480687934
 20
123.2301945322029013
 30
0.0
 11
3847.8982096060781259
 21
123.2872643580164009
 31
0.0
  0
LINE
  5
15725
  8
0
 10
3847.8982096060781259
 20
123.2872643580164009
 30
0.0
 11
3847.9001781099768777
 21
123.2872643580164009
 31
0.0
  0
LINE
  5
15726
  8
0
 10
3847.9001781099768777
 20
123.2872643580164009
 30
0.0
 11
3847.933613932264052
 21
123.2302519247609069
 31
0.0
  0
LINE
  5
15727
  8
0
 10
3847.8991938580270471
 20
123.2872643580164009
 30
0.0
 11
3847.9336426769268655
 21
122.8148234131164003
 31
0.0
  0
LINE
  5
15728
  8
0
 10
3847.89915346464295
 20
122.8718561784672971
 30
0.0
 11
3847.9326584249770349
 21
122.8148234131164003
 31
0.0
  0
LINE
  5
15729
  8
0
 10
3847.9326584249770349
 20
122.8148234131164003
 30
0.0
 11
3847.9346269288780604
 21
122.8148234131164003
 31
0.0
  0
LINE
  5
1572A
  8
0
 10
3847.9346269288780604
 20
122.8148234131164003
 30
0.0
 11
3847.9680790690667891
 21
122.871825732697701
 31
0.0
  0
ARC
  5
1572B
  8
0
 10
3302.3071941636808333
 20
70.5770341200082498
 30
0.0
 40
548.229642380263499
 50
5.4736795493975148
 51
5.511311645882067
  0
LINE
  5
1572C
  8
0
 10
3847.933596085820227
 20
123.2301945322029013
 30
0.0
 11
3847.9671072438268311
 21
123.2872643580164009
 31
0.0
  0
LINE
  5
1572D
  8
0
 10
3847.9671072438268311
 20
123.2872643580164009
 30
0.0
 11
3847.9690757477269472
 21
123.2872643580164009
 31
0.0
  0
LINE
  5
1572E
  8
0
 10
3847.9690757477269472
 20
123.2872643580164009
 30
0.0
 11
3848.0025115700132119
 21
123.2302519247609069
 31
0.0
  0
LINE
  5
1572F
  8
0
 10
3847.968091495778026
 20
123.2872643580164009
 30
0.0
 11
3848.0025403146769349
 21
122.8148234131164003
 31
0.0
  0
LINE
  5
15730
  8
0
 10
3847.9680511023930194
 20
122.8718561784672971
 30
0.0
 11
3848.0015560627271043
 21
122.8148234131164003
 31
0.0
  0
LINE
  5
15731
  8
0
 10
3848.0015560627271043
 20
122.8148234131164003
 30
0.0
 11
3848.0035245666272203
 21
122.8148234131164003
 31
0.0
  0
LINE
  5
15732
  8
0
 10
3848.0035245666272203
 20
122.8148234131164003
 30
0.0
 11
3848.036976706815949
 21
122.871825732697701
 31
0.0
  0
ARC
  5
15733
  8
0
 10
3302.3760918014818344
 20
70.5770341200082498
 30
0.0
 40
548.229642380263499
 50
5.4736795493975148
 51
5.511311645882067
  0
LINE
  5
15734
  8
0
 10
3848.0024937236189544
 20
123.2301945322029013
 30
0.0
 11
3848.0360048816278322
 21
123.2872643580164009
 31
0.0
  0
LINE
  5
15735
  8
0
 10
3848.0360048816278322
 20
123.2872643580164009
 30
0.0
 11
3848.0379733855270388
 21
123.2872643580164009
 31
0.0
  0
LINE
  5
15736
  8
0
 10
3848.0379733855270388
 20
123.2872643580164009
 30
0.0
 11
3848.0714092078128488
 21
123.2302519247609069
 31
0.0
  0
LINE
  5
15737
  8
0
 10
3848.0369891335781176
 20
123.2872643580164009
 30
0.0
 11
3848.0714379524770266
 21
122.8148234131164003
 31
0.0
  0
LINE
  5
15738
  8
0
 10
3848.036948740193111
 20
122.8718561784672971
 30
0.0
 11
3848.0704537005281054
 21
122.8148234131164003
 31
0.0
  0
LINE
  5
15739
  8
0
 10
3848.0704537005281054
 20
122.8148234131164003
 30
0.0
 11
3848.0724222044282214
 21
122.8148234131164003
 31
0.0
  0
LINE
  5
1573A
  8
0
 10
3848.0724222044282214
 20
122.8148234131164003
 30
0.0
 11
3848.1058743446160406
 21
122.871825732697701
 31
0.0
  0
ARC
  5
1573B
  8
0
 10
3302.445022388381858
 20
70.5770341200082498
 30
0.0
 40
548.229642380263499
 50
5.4736795493975148
 51
5.511311645882067
  0
LINE
  5
1573C
  8
0
 10
3848.0714243105198875
 20
123.2301945322029013
 30
0.0
 11
3848.1049354685278558
 21
123.2872643580164009
 31
0.0
  0
LINE
  5
1573D
  8
0
 10
3848.1049354685278558
 20
123.2872643580164009
 30
0.0
 11
3848.1069039724270624
 21
123.2872643580164009
 31
0.0
  0
LINE
  5
1573E
  8
0
 10
3848.1069039724270624
 20
123.2872643580164009
 30
0.0
 11
3848.1403397947137819
 21
123.2302519247609069
 31
0.0
  0
LINE
  5
1573F
  8
0
 10
3848.105919720476777
 20
123.2872643580164009
 30
0.0
 11
3848.1403685393770502
 21
122.8148234131164003
 31
0.0
  0
LINE
  5
15740
  8
0
 10
3848.1058793270931346
 20
122.8718561784672971
 30
0.0
 11
3848.139384287428129
 21
122.8148234131164003
 31
0.0
  0
LINE
  5
15741
  8
0
 10
3848.139384287428129
 20
122.8148234131164003
 30
0.0
 11
3848.1413527913277903
 21
122.8148234131164003
 31
0.0
  0
LINE
  5
15742
  8
0
 10
3848.1413527913277903
 20
122.8148234131164003
 30
0.0
 11
3848.1748049315169737
 21
122.871825732697701
 31
0.0
  0
ARC
  5
15743
  8
0
 10
3302.5120512830822008
 20
70.5803380656082595
 30
0.0
 40
548.229642380263499
 50
5.4736795493975148
 51
5.511311645882067
  0
LINE
  5
15744
  8
0
 10
3848.1384532052188661
 20
123.2334984778028968
 30
0.0
 11
3848.1719643632281986
 21
123.2905683036162969
 31
0.0
  0
LINE
  5
15745
  8
0
 10
3848.1719643632281986
 20
123.2905683036162969
 30
0.0
 11
3848.1739328671278599
 21
123.2905683036162969
 31
0.0
  0
LINE
  5
15746
  8
0
 10
3848.1739328671278599
 20
123.2905683036162969
 30
0.0
 11
3848.2073686894132152
 21
123.2335558703609024
 31
0.0
  0
LINE
  5
15747
  8
0
 10
3848.1729486151771198
 20
123.2905683036162969
 30
0.0
 11
3848.2073974340769382
 21
122.8181273587163957
 31
0.0
  0
LINE
  5
15748
  8
0
 10
3848.1729082217930227
 20
122.8751601240673068
 30
0.0
 11
3848.2064131821280171
 21
122.8181273587163957
 31
0.0
  0
LINE
  5
15749
  8
0
 10
3848.2064131821280171
 20
122.8181273587163957
 30
0.0
 11
3848.2083816860281331
 21
122.8181273587163957
 31
0.0
  0
LINE
  5
1574A
  8
0
 10
3848.2083816860281331
 20
122.8181273587163957
 30
0.0
 11
3848.2418338262168618
 21
122.8751296782976965
 31
0.0
  0
ARC
  5
1574B
  8
0
 10
3879.6359733287868039
 20
125.9033324090018056
 30
0.0
 40
31.4716607131481005
 50
184.8744070216255864
 51
185.5177832076041113
  0
LINE
  5
1574C
  8
0
 10
3848.2073508430198672
 20
123.2334984778028968
 30
0.0
 11
3848.240862001026926
 21
123.2905683036162969
 31
0.0
  0
LINE
  5
1574D
  8
0
 10
3848.240862001026926
 20
123.2905683036162969
 30
0.0
 11
3848.2428305049270421
 21
123.2905683036162969
 31
0.0
  0
LINE
  5
1574E
  8
0
 10
3848.2428305049270421
 20
123.2905683036162969
 30
0.0
 11
3848.2781345667781352
 21
123.2291266915301975
 31
0.0
  0
LINE
  5
1574F
  8
0
 10
3848.2418462529772114
 20
123.2905683036162969
 30
0.0
 11
3848.2762950718770298
 21
122.8181273587163957
 31
0.0
  0
LINE
  5
15750
  8
0
 10
3848.2418058595931143
 20
122.8751601240673068
 30
0.0
 11
3848.2753108199281087
 21
122.8181273587163957
 31
0.0
  0
LINE
  5
15751
  8
0
 10
3848.2753108199281087
 20
122.8181273587163957
 30
0.0
 11
3848.2772793238268605
 21
122.8181273587163957
 31
0.0
  0
LINE
  5
15752
  8
0
 10
3848.2772793238268605
 20
122.8181273587163957
 30
0.0
 11
3848.310139631993934
 21
122.8771844872290018
 31
0.0
  0
LINE
  5
15753
  8
0
 10
3848.2781345667781352
 20
123.2291266915301975
 30
0.0
 11
3848.3073987061279695
 21
123.2798693001164025
 31
0.0
  0
LINE
  5
15754
  8
0
 10
3848.3073987061279695
 20
123.2798693001164025
 30
0.0
 11
3848.3324563828268765
 21
123.2543977513164037
 31
0.0
  0
LINE
  5
15755
  8
0
 10
3848.3324563828268765
 20
123.2543977513164037
 30
0.0
 11
3848.3427358948279107
 21
123.2365772001164004
 31
0.0
  0
LINE
  5
15756
  8
0
 10
3848.3427358948279107
 20
123.2365772001164004
 30
0.0
 11
3848.3427358948270012
 21
122.8581706775162985
 31
0.0
  0
LINE
  5
15757
  8
0
 10
3848.3427358948270012
 20
122.8581706775162985
 30
0.0
 11
3848.3291147777272272
 21
122.8442873771164017
 31
0.0
  0
LINE
  5
15758
  8
0
 10
3848.3291147777272272
 20
122.8442873771164017
 30
0.0
 11
3848.310139631993934
 21
122.8771844872290018
 31
0.0
  0
LINE
  5
15759
  8
0
 10
3848.3291147777272272
 20
122.8442873771164017
 30
0.0
 11
3848.309780803699141
 21
123.2774478579657966
 31
0.0
  0
ARC
  5
1575A
  8
0
 10
3846.3151768397269734
 20
154.3108864052163938
 30
0.0
 40
0.1181102362000033
 50
90.0
 51
179.9999999999951115
  0
ARC
  5
1575B
  8
0
 10
3847.6537595169270389
 20
154.3108864052163938
 30
0.0
 40
0.1181102362000104
 50
0.0000000000081422
 51
90.0
  0
ARC
  5
1575C
  8
0
 10
3846.7876177846269456
 20
155.8069493974163038
 30
0.0
 40
0.3937007874000002
 50
90.0
 51
180.0
  0
ARC
  5
1575D
  8
0
 10
3847.3699067526767976
 20
155.7987013419430014
 30
0.0
 40
0.401963170732843
 50
0.0527386165287808
 51
89.5116833789998765
  0
ARC
  5
1575E
  8
0
 10
3846.4726571547271305
 20
155.0589179013163914
 30
0.0
 40
0.1574803149999724
 50
120.0001451475058047
 51
180.0000000000081002
  0
ARC
  5
1575F
  8
0
 10
3846.3545426949690409
 20
154.5864727329579011
 30
0.0
 40
0.0590508947926154
 50
179.9959020715263875
 51
270.0040979284621017
  0
ARC
  5
15760
  8
0
 10
3846.3545469184277863
 20
154.5864769564163907
 30
0.0
 40
0.1574803150000079
 50
180.0000000000032117
 51
270.0
  0
ARC
  5
15761
  8
0
 10
3849.5165637548270752
 20
153.6612801060163065
 30
0.0
 40
0.0787401575000004
 50
9.3964774341811257
 51
90.0
  0
ARC
  5
15762
  8
0
 10
3844.6394878631881511
 20
152.8541934919144012
 30
0.0
 40
5.0221456694395252
 50
350.6035226233271942
 51
9.3964773766711751
  0
ARC
  5
15763
  8
0
 10
3849.5165637548411723
 20
152.0471068776786865
 30
0.0
 40
0.0787401574623417
 50
269.9999999899428076
 51
350.6035226699733016
  0
LINE
  5
15764
  8
0
 10
3849.5165637548270752
 20
153.7400202635164135
 30
0.0
 11
3849.5041532176278452
 21
153.7400089696164116
 31
0.0
  0
LINE
  5
15765
  8
0
 10
3849.5041532176278452
 20
153.7400089696164116
 30
0.0
 11
3849.5065887181281141
 21
151.9683667202164088
 31
0.0
  0
LINE
  5
15766
  8
0
 10
3849.5065887181281141
 20
151.9683667202164088
 30
0.0
 11
3849.5165637548270752
 21
151.9683667202164088
 31
0.0
  0
LINE
  5
15767
  8
0
 10
3849.5942473927270839
 20
153.6741356420124873
 30
0.0
 11
3849.5942473927170795
 21
152.034251341765497
 31
0.0
  0
LINE
  5
15768
  8
0
 10
3849.4930486390858277
 20
153.5234798903998126
 30
0.0
 11
3849.5041532176369401
 21
153.5189947035339912
 31
0.0
  0
LINE
  5
15769
  8
0
 10
3846.7876177846269456
 20
156.2006501848163111
 30
0.0
 11
3847.3781689657271272
 21
156.2006501848163111
 31
0.0
  0
LINE
  5
1576A
  8
0
 10
3846.3939169972268246
 20
155.8069493974163038
 30
0.0
 11
3846.3939169972268246
 21
154.4289966415163065
 31
0.0
  0
LINE
  5
1576B
  8
0
 10
3846.3151768397269734
 20
154.4289966414164041
 30
0.0
 11
3849.4254130602271289
 21
154.4289966414164041
 31
0.0
  0
LINE
  5
1576C
  8
0
 10
3849.4254130602271289
 20
154.4289966414164041
 30
0.0
 11
3849.4254130602271289
 21
155.0195478226162891
 31
0.0
  0
ARC
  5
1576D
  8
0
 10
3847.9693580033558646
 20
155.3359492830865065
 30
0.0
 40
0.1982922537012912
 50
175.061492371142208
 51
269.8156935049544245
  0
ARC
  5
1576E
  8
0
 10
3849.3073028238559345
 20
155.0195478224455883
 30
0.0
 40
0.1181102363707147
 50
0.0000000828145195
 51
89.9999999657114813
  0
ARC
  5
1576F
  8
0
 10
3848.7167528920299446
 20
155.1573432766149949
 30
0.0
 40
0.0393699003033348
 50
90.0005696168649365
 51
179.9999999979791028
  0
ARC
  5
15770
  8
0
 10
3849.2679314960278134
 20
155.1573432766163023
 30
0.0
 40
0.039369900300005
 50
0.0000000000048853
 51
90.0005543865102879
  0
LINE
  5
15771
  8
0
 10
3846.1970666034280839
 20
154.5864769564163907
 30
0.0
 11
3846.1970666034280839
 21
155.1376580588164131
 31
0.0
  0
LINE
  5
15772
  8
0
 10
3846.1970666034280839
 20
155.1376580588164131
 30
0.0
 11
3846.2954918003269995
 21
155.1376580588164131
 31
0.0
  0
LINE
  5
15773
  8
0
 10
3846.2954918003269995
 20
155.1376580588164131
 30
0.0
 11
3846.2954918003269995
 21
154.5864769564163907
 31
0.0
  0
LINE
  5
15774
  8
0
 10
3846.3939169972268246
 20
154.6258470352163954
 30
0.0
 11
3846.3151768397269734
 21
154.6258470352163954
 31
0.0
  0
LINE
  5
15775
  8
0
 10
3846.3151768397269734
 20
154.6258470352163954
 30
0.0
 11
3846.3151768397269734
 21
155.0589179013163061
 31
0.0
  0
LINE
  5
15776
  8
0
 10
3846.3545469184277863
 20
154.5274218383163998
 30
0.0
 11
3846.3939169972268246
 21
154.5274218383163998
 31
0.0
  0
ARC
  5
15777
  8
0
 10
3846.74824747702678
 20
154.380676560516406
 30
0.0
 40
0.4330707391998682
 50
145.5198226101589114
 51
159.9806566472045972
  0
LINE
  5
15778
  8
0
 10
3848.7167516428271483
 20
154.4289966414164041
 30
0.0
 11
3848.716752175927013
 21
154.2912013659164074
 31
0.0
  0
LINE
  5
15779
  8
0
 10
3848.716752175927013
 20
154.2912013659164074
 30
0.0
 11
3849.2679322121271071
 21
154.2912013659164074
 31
0.0
  0
LINE
  5
1577A
  8
0
 10
3849.2679322121271071
 20
154.2912013659164074
 30
0.0
 11
3849.2679322121271071
 21
154.4289966414164041
 31
0.0
  0
LINE
  5
1577B
  8
0
 10
3848.7167532729658888
 20
155.1967131769144999
 30
0.0
 11
3849.2679311150900503
 21
155.1967131769144999
 31
0.0
  0
LINE
  5
1577C
  8
0
 10
3849.3073028238559345
 20
155.1376580588164131
 30
0.0
 11
3847.9687211557338742
 21
155.1376580553001929
 31
0.0
  0
LINE
  5
1577D
  8
0
 10
3848.6773829917269723
 20
155.1573432766149949
 30
0.0
 11
3848.6773829917269723
 21
155.1376580588164131
 31
0.0
  0
LINE
  5
1577E
  8
0
 10
3849.3073013963280573
 20
155.1573432766163023
 30
0.0
 11
3849.3073028239268751
 21
155.1376580588164131
 31
0.0
  0
LINE
  5
1577F
  8
0
 10
3848.7957919885270712
 20
154.2908597200164138
 30
0.0
 11
3848.8191701477271636
 21
154.2775550320164086
 31
0.0
  0
LINE
  5
15780
  8
0
 10
3848.8191701477271636
 20
154.2775550320164086
 30
0.0
 11
3848.8191701477271636
 21
154.2736991484163127
 31
0.0
  0
LINE
  5
15781
  8
0
 10
3848.8191701477271636
 20
154.2736991484163127
 30
0.0
 11
3848.7954918003269995
 21
154.2596861796164092
 31
0.0
  0
LINE
  5
15782
  8
0
 10
3848.7954918003269995
 20
154.2596861796164092
 30
0.0
 11
3848.7954918003269995
 21
154.2518339161163112
 31
0.0
  0
LINE
  5
15783
  8
0
 10
3848.7954918003269995
 20
154.2518339161163112
 30
0.0
 11
3848.8191365500269967
 21
154.2381988481164115
 31
0.0
  0
LINE
  5
15784
  8
0
 10
3848.8191365500269967
 20
154.2381988481164115
 30
0.0
 11
3848.8191365500269967
 21
154.234180668663214
 31
0.0
  0
LINE
  5
15785
  8
0
 10
3848.8191365500269967
 20
154.234180668663214
 30
0.0
 11
3848.8155417559278249
 21
154.232101332616395
 31
0.0
  0
LINE
  5
15786
  8
0
 10
3848.8155417559278249
 20
154.232101332616395
 30
0.0
 11
3848.8348619241269262
 21
154.2124612084163005
 31
0.0
  0
LINE
  5
15787
  8
0
 10
3848.8348619241269262
 20
154.2124612084163005
 30
0.0
 11
3849.1498224567271791
 21
154.2124612084163005
 31
0.0
  0
LINE
  5
15788
  8
0
 10
3849.1498224567271791
 20
154.2124612084163005
 30
0.0
 11
3849.1816615645270758
 21
154.2443003268163864
 31
0.0
  0
LINE
  5
15789
  8
0
 10
3849.1816615645270758
 20
154.2443003268163864
 30
0.0
 11
3849.1654730936270425
 21
154.2536359883164039
 31
0.0
  0
LINE
  5
1578A
  8
0
 10
3849.1654730936270425
 20
154.2536359883164039
 30
0.0
 11
3849.1654730936270425
 21
154.257451388616289
 31
0.0
  0
LINE
  5
1578B
  8
0
 10
3849.1654730936270425
 20
154.257451388616289
 30
0.0
 11
3849.1891907542271838
 21
154.2715163314163078
 31
0.0
  0
LINE
  5
1578C
  8
0
 10
3849.1891907542271838
 20
154.2715163314163078
 30
0.0
 11
3849.1891925877271206
 21
154.2793499373163115
 31
0.0
  0
LINE
  5
1578D
  8
0
 10
3849.1891925877271206
 20
154.2793499373163115
 30
0.0
 11
3849.1690365086269594
 21
154.2912013659164074
 31
0.0
  0
LINE
  5
1578E
  8
0
 10
3848.8191701477271636
 20
154.2756270902164033
 30
0.0
 11
3849.1690365086269594
 21
154.2912013659164074
 31
0.0
  0
LINE
  5
1578F
  8
0
 10
3849.1891916709778343
 20
154.2754331343664091
 30
0.0
 11
3848.7954918003269995
 21
154.2557600478664028
 31
0.0
  0
LINE
  5
15790
  8
0
 10
3848.8191365500269967
 20
154.236099914966303
 30
0.0
 11
3849.1654730936270425
 21
154.2555436884663891
 31
0.0
  0
LINE
  5
15791
  8
0
 10
3849.181704652326971
 20
154.2443434147164112
 30
0.0
 11
3848.8154607078267873
 21
154.2318624384163002
 31
0.0
  0
CIRCLE
  5
15792
  8
0
 10
3847.0828933751267869
 20
155.8069493974163038
 30
0.0
 40
0.1574803150000008
  0
LINE
  5
15793
  8
0
 10
3847.7718697531281578
 20
155.799071333916288
 30
0.0
 11
3847.7718018771779498
 21
155.3530195756164005
 31
0.0
  0
LINE
  5
15794
  8
0
 10
3847.7718572876501639
 20
155.7380495021533875
 30
0.0
 11
3848.3686264880961971
 21
155.7378805853857955
 31
0.0
  0
LINE
  5
15795
  8
0
 10
3847.7718449851968217
 20
155.6525636313184009
 30
0.0
 11
3848.2821323577281873
 21
155.6779042088163862
 31
0.0
  0
LINE
  5
15796
  8
0
 10
3848.2821323577281873
 20
155.6779042088163862
 30
0.0
 11
3848.3387988869280889
 21
155.7118050156163918
 31
0.0
  0
LINE
  5
15797
  8
0
 10
3848.3387988869280889
 20
155.7118050156163918
 30
0.0
 11
3848.3387988869280889
 21
155.7157420266163967
 31
0.0
  0
LINE
  5
15798
  8
0
 10
3848.3387988869280889
 20
155.7157420266163967
 30
0.0
 11
3848.3006600551498195
 21
155.7380495982793889
 31
0.0
  0
LINE
  5
15799
  8
0
 10
3847.7718550405911628
 20
155.7224353917447104
 30
0.0
 11
3848.1225255004278551
 21
155.7380495808164085
 31
0.0
  0
LINE
  5
1579A
  8
0
 10
3847.7718348061971483
 20
155.5818329645452991
 30
0.0
 11
3848.2813646421268459
 21
155.6074736711163098
 31
0.0
  0
LINE
  5
1579B
  8
0
 10
3848.2813646421268459
 20
155.6074736711163098
 30
0.0
 11
3848.3387988869280889
 21
155.6409496974162892
 31
0.0
  0
LINE
  5
1579C
  8
0
 10
3848.3387988869280889
 20
155.6409496974162892
 30
0.0
 11
3848.3387988869280889
 21
155.6448727339164009
 31
0.0
  0
LINE
  5
1579D
  8
0
 10
3848.3387988869280889
 20
155.6448727339164009
 30
0.0
 11
3848.2821323577281873
 21
155.6779042088163862
 31
0.0
  0
LINE
  5
1579E
  8
0
 10
3847.7718400653861863
 20
155.6183774128521975
 30
0.0
 11
3848.3387988869280889
 21
155.6429112156664019
 31
0.0
  0
LINE
  5
1579F
  8
0
 10
3847.7718246071399335
 20
155.5109629268553988
 30
0.0
 11
3848.2813646421268459
 21
155.5366041466664058
 31
0.0
  0
LINE
  5
157A0
  8
0
 10
3848.2813646421268459
 20
155.5366041466664058
 30
0.0
 11
3848.3387988869280889
 21
155.5700801729664136
 31
0.0
  0
LINE
  5
157A1
  8
0
 10
3848.3387988869280889
 20
155.5700801729664136
 30
0.0
 11
3848.3387988869280889
 21
155.5740032094664116
 31
0.0
  0
LINE
  5
157A2
  8
0
 10
3848.3387988869280889
 20
155.5740032094664116
 30
0.0
 11
3848.2821323577281873
 21
155.6070346843663117
 31
0.0
  0
LINE
  5
157A3
  8
0
 10
3847.771829866338976
 20
155.5475074470625998
 30
0.0
 11
3848.3387988869280889
 21
155.5720416912164126
 31
0.0
  0
LINE
  5
157A4
  8
0
 10
3847.7718246086787985
 20
155.5109736202327895
 30
0.0
 11
3848.2813646421268459
 21
155.5366148399662904
 31
0.0
  0
LINE
  5
157A5
  8
0
 10
3847.7718144096220385
 20
155.4401035825428892
 30
0.0
 11
3848.2813646421268459
 21
155.4657453155163012
 31
0.0
  0
LINE
  5
157A6
  8
0
 10
3848.2813646421268459
 20
155.4657453155163012
 30
0.0
 11
3848.3387988869280889
 21
155.499221341816309
 31
0.0
  0
LINE
  5
157A7
  8
0
 10
3848.3387988869280889
 20
155.499221341816309
 30
0.0
 11
3848.3387988869280889
 21
155.5031443783163922
 31
0.0
  0
LINE
  5
157A8
  8
0
 10
3848.3387988869280889
 20
155.5031443783163922
 30
0.0
 11
3848.2821323577281873
 21
155.5361758532162924
 31
0.0
  0
LINE
  5
157A9
  8
0
 10
3847.7718196688319949
 20
155.4766481746395073
 30
0.0
 11
3848.3387988869280889
 21
155.5011828600663932
 31
0.0
  0
LINE
  5
157AA
  8
0
 10
3847.7718144089808447
 20
155.4400991311607072
 30
0.0
 11
3848.2813646421268459
 21
155.4657408641664063
 31
0.0
  0
LINE
  5
157AB
  8
0
 10
3847.7718042099231752
 20
155.3692290934708069
 30
0.0
 11
3848.2813646421268459
 21
155.3948713397163033
 31
0.0
  0
LINE
  5
157AC
  8
0
 10
3848.2813646421268459
 20
155.3948713397163033
 30
0.0
 11
3848.3387988869280889
 21
155.4283473660163111
 31
0.0
  0
LINE
  5
157AD
  8
0
 10
3848.3387988869280889
 20
155.4283473660163111
 30
0.0
 11
3848.3387988869280889
 21
155.4322704025163091
 31
0.0
  0
LINE
  5
157AE
  8
0
 10
3848.3387988869280889
 20
155.4322704025163091
 30
0.0
 11
3848.2821323577281873
 21
155.4653018774164082
 31
0.0
  0
LINE
  5
157AF
  8
0
 10
3847.7718094691431361
 20
155.4057737574721045
 30
0.0
 11
3848.3387988869280889
 21
155.4303088842663101
 31
0.0
  0
LINE
  5
157B0
  8
0
 10
3847.7718042111769137
 20
155.3692378086838914
 30
0.0
 11
3848.2813646421268459
 21
155.3948800548664053
 31
0.0
  0
LINE
  5
157B1
  8
0
 10
3847.7751840255277784
 20
155.2985383642212014
 30
0.0
 11
3848.2813646421268459
 21
155.3240105304163876
 31
0.0
  0
LINE
  5
157B2
  8
0
 10
3848.2813646421268459
 20
155.3240105304163876
 30
0.0
 11
3848.3387988869280889
 21
155.3574865567163101
 31
0.0
  0
LINE
  5
157B3
  8
0
 10
3848.3387988869280889
 20
155.3574865567163101
 30
0.0
 11
3848.3387988869280889
 21
155.3614095932163082
 31
0.0
  0
LINE
  5
157B4
  8
0
 10
3848.3387988869280889
 20
155.3614095932163082
 30
0.0
 11
3848.2821323577281873
 21
155.3944410681164072
 31
0.0
  0
LINE
  5
157B5
  8
0
 10
3847.7718697531281578
 20
155.3349155568189985
 30
0.0
 11
3848.3387988869280889
 21
155.3594480749663092
 31
0.0
  0
LINE
  5
157B6
  8
0
 10
3847.7751847185841143
 20
155.2985346354473961
 30
0.0
 11
3848.2813646421268459
 21
155.324006766766388
 31
0.0
  0
LINE
  5
157B7
  8
0
 10
3847.8036150337788968
 20
155.2273152664209022
 30
0.0
 11
3848.2813646421268459
 21
155.2531372423163134
 31
0.0
  0
LINE
  5
157B8
  8
0
 10
3848.2813646421268459
 20
155.2531372423163134
 30
0.0
 11
3848.3387988869280889
 21
155.2866132686164065
 31
0.0
  0
LINE
  5
157B9
  8
0
 10
3848.3387988869280889
 20
155.2866132686164065
 30
0.0
 11
3848.3387988869280889
 21
155.2905363051164045
 31
0.0
  0
LINE
  5
157BA
  8
0
 10
3848.3387988869280889
 20
155.2905363051164045
 30
0.0
 11
3848.2821323577281873
 21
155.3235677800163899
 31
0.0
  0
LINE
  5
157BB
  8
0
 10
3847.7847023598410487
 20
155.2645975694406104
 30
0.0
 11
3848.3387988869280889
 21
155.2885747868662918
 31
0.0
  0
LINE
  5
157BC
  8
0
 10
3848.2813674776271
 20
155.2531468628164077
 30
0.0
 11
3848.3387460170310987
 21
155.2194964927093963
 31
0.0
  0
LINE
  5
157BD
  8
0
 10
3847.7718502636721496
 20
155.6892420968264048
 30
0.0
 11
3848.3387988869280889
 21
155.713773521116309
 31
0.0
  0
ARC
  5
157BE
  8
0
 10
3845.509764880207058
 20
156.0141178829001092
 30
0.0
 40
2.8721763068435568
 50
354.4809328946492997
 51
3.9876491776591791
  0
ARC
  5
157BF
  8
0
 10
3844.6767358344741297
 20
156.0134262453848919
 30
0.0
 40
3.6940905465955951
 50
356.6734615099026087
 51
3.1101661569374608
  0
ARC
  5
157C0
  8
0
 10
3846.0749870552490393
 20
156.0129587973725904
 30
0.0
 40
2.2896215547516778
 50
354.6398377206093073
 51
5.0336783525647508
  0
ARC
  5
157C1
  8
0
 10
3842.0692023752949353
 20
156.0121440233010901
 30
0.0
 40
6.2627703503177958
 50
358.0503001797652018
 51
1.84730531770347
  0
ARC
  5
157C2
  8
0
 10
3846.2532370995550082
 20
156.013417255110113
 30
0.0
 40
2.0666986938498222
 50
354.0469110613445878
 51
5.5654992688003952
  0
ARC
  5
157C3
  8
0
 10
3779.1295723483281108
 20
155.8899010227445956
 30
0.0
 40
69.1383091895094708
 50
359.9247282818693066
 51
0.2684639676597309
  0
ARC
  5
157C4
  8
0
 10
3859.2655715644759766
 20
156.0133794256830981
 30
0.0
 40
11.0831666819957899
 50
178.9635713053600909
 51
181.1079609915211108
  0
ARC
  5
157C5
  8
0
 10
3846.2451704530540155
 20
156.0134045990043035
 30
0.0
 40
2.0055482332713179
 50
353.8650746662183906
 51
5.7361369836714351
  0
ARC
  5
157C6
  8
0
 10
3847.7177035743620763
 20
156.1923580239561886
 30
0.0
 40
0.2334726422613712
 50
174.7174701212724131
 51
181.8868052534498929
  0
ARC
  5
157C7
  8
0
 10
3846.2705942045731717
 20
156.3030797299325911
 30
0.0
 40
1.2227277925182951
 50
354.3988444994766951
 51
355.8152007133716097
  0
LINE
  5
157C8
  8
0
 10
3847.5082855732280223
 20
156.2138531440164115
 30
0.0
 11
3847.5068342726890478
 21
156.1773240668015887
 31
0.0
  0
LINE
  5
157C9
  8
0
 10
3847.5225055469250037
 20
156.2138528883336051
 30
0.0
 11
3847.5190196255889532
 21
156.1727025708113104
 31
0.0
  0
LINE
  5
157CA
  8
0
 10
3847.557807946387129
 20
156.2138539392329051
 30
0.0
 11
3847.5568229898640311
 21
156.1552759319961012
 31
0.0
  0
LINE
  5
157CB
  8
0
 10
3847.5805125926790424
 20
156.2138528947955933
 30
0.0
 11
3847.574785270447137
 21
156.1452051033336943
 31
0.0
  0
LINE
  5
157CC
  8
0
 10
3847.6280047693271626
 20
156.2321422001164137
 30
0.0
 11
3847.6280047693271626
 21
156.1071863054596065
 31
0.0
  0
LINE
  5
157CD
  8
0
 10
3847.6290782654500617
 20
156.2321422001164137
 30
0.0
 11
3847.6306744667899693
 21
156.2138531440164115
 31
0.0
  0
LINE
  5
157CE
  8
0
 10
3847.6306744667899693
 20
156.2138531440164115
 30
0.0
 11
3847.6311264351729733
 21
156.1045102388879968
 31
0.0
  0
LINE
  5
157CF
  8
0
 10
3847.651626090596892
 20
156.085432532677487
 30
0.0
 11
3847.6604383874750965
 21
156.2138528946175882
 31
0.0
  0
LINE
  5
157D0
  8
0
 10
3847.6604383874750965
 20
156.2138528946175882
 30
0.0
 11
3847.6887829281531594
 21
156.2321422001164137
 31
0.0
  0
LINE
  5
157D1
  8
0
 10
3847.6306744622597762
 20
156.2138539392246059
 30
0.0
 11
3847.6604389095268743
 21
156.2138531440164115
 31
0.0
  0
LINE
  5
157D2
  8
0
 10
3847.5133131931402204
 20
156.2321422001164137
 30
0.0
 11
3847.490062500527074
 21
156.2138531440164115
 31
0.0
  0
LINE
  5
157D3
  8
0
 10
3847.490062500527074
 20
156.2138531440164115
 30
0.0
 11
3847.485222533203796
 21
156.2138531440162978
 31
0.0
  0
LINE
  5
157D4
  8
0
 10
3847.485222533203796
 20
156.2138531440162978
 30
0.0
 11
3847.5036026554271302
 21
156.2321422001164137
 31
0.0
  0
LINE
  5
157D5
  8
0
 10
3847.5036026554271302
 20
156.2321422001164137
 30
0.0
 11
3848.3553522865267951
 21
156.2321422001164137
 31
0.0
  0
LINE
  5
157D6
  8
0
 10
3848.3553522865267951
 20
156.2321422001164137
 30
0.0
 11
3848.3749878319267737
 21
156.2138531440164115
 31
0.0
  0
LINE
  5
157D7
  8
0
 10
3848.3749878319267737
 20
156.2138531440164115
 30
0.0
 11
3848.374567242878129
 21
156.2138539383487057
 31
0.0
  0
LINE
  5
157D8
  8
0
 10
3848.374567242878129
 20
156.2138539383487057
 30
0.0
 11
3848.3535864877972017
 21
156.2321422001164137
 31
0.0
  0
LINE
  5
157D9
  8
0
 10
3848.3498945060568985
 20
156.2321420950902962
 30
0.0
 11
3848.3653852045590611
 21
156.213852768149394
 31
0.0
  0
LINE
  5
157DA
  8
0
 10
3848.3653852045590611
 20
156.213852768149394
 30
0.0
 11
3848.3557760213047914
 21
156.213853769214893
 31
0.0
  0
LINE
  5
157DB
  8
0
 10
3848.3557760213047914
 20
156.213853769214893
 30
0.0
 11
3848.3306229314189295
 21
156.2321422490838927
 31
0.0
  0
LINE
  5
157DC
  8
0
 10
3848.3197771912368808
 20
156.2321421909855133
 30
0.0
 11
3848.328805516509874
 21
156.2138529891068117
 31
0.0
  0
LINE
  5
157DD
  8
0
 10
3848.328805516509874
 20
156.2138529891068117
 30
0.0
 11
3848.3101933328271116
 21
156.2138531440164115
 31
0.0
  0
LINE
  5
157DE
  8
0
 10
3848.3101933328271116
 20
156.2138531440164115
 30
0.0
 11
3848.2824459436951656
 21
156.2321422001164137
 31
0.0
  0
LINE
  5
157DF
  8
0
 10
3848.2651278184112016
 20
156.2321422001089104
 30
0.0
 11
3848.2671225851408963
 21
156.2138529271142033
 31
0.0
  0
LINE
  5
157E0
  8
0
 10
3848.2671225851408963
 20
156.2138529271142033
 30
0.0
 11
3848.240678665228188
 21
156.2138531440164115
 31
0.0
  0
LINE
  5
157E1
  8
0
 10
3848.240678665228188
 20
156.2138531440164115
 30
0.0
 11
3848.2120825917218099
 21
156.2321422001164137
 31
0.0
  0
LINE
  5
157E2
  8
0
 10
3848.1893802766931003
 20
156.2321422001164137
 30
0.0
 11
3848.1842169835567802
 21
156.2138529477551003
 31
0.0
  0
LINE
  5
157E3
  8
0
 10
3848.1842169835567802
 20
156.2138529477551003
 30
0.0
 11
3848.1516020769267925
 21
156.2138531440164115
 31
0.0
  0
LINE
  5
157E4
  8
0
 10
3848.1516020769267925
 20
156.2138531440164115
 30
0.0
 11
3848.1239540729870896
 21
156.2321422392824957
 31
0.0
  0
LINE
  5
157E5
  8
0
 10
3847.7136618651020399
 20
156.2321422793554859
 30
0.0
 11
3847.7223078826250457
 21
156.213853947295604
 31
0.0
  0
LINE
  5
157E6
  8
0
 10
3847.7223078826250457
 20
156.213853947295604
 30
0.0
 11
3847.7572608710270288
 21
156.2138529284164008
 31
0.0
  0
LINE
  5
157E7
  8
0
 10
3847.7572608710270288
 20
156.2138529284164008
 30
0.0
 11
3847.7837743815548492
 21
156.2321422001164137
 31
0.0
  0
LINE
  5
157E8
  8
0
 10
3847.8117978201298683
 20
156.2321423608252928
 30
0.0
 11
3847.8269506123110659
 21
156.213854037385488
 31
0.0
  0
LINE
  5
157E9
  8
0
 10
3847.8269506123110659
 20
156.213854037385488
 30
0.0
 11
3847.8648964179637915
 21
156.2138528748056103
 31
0.0
  0
LINE
  5
157EA
  8
0
 10
3847.8648964179637915
 20
156.2138528748056103
 30
0.0
 11
3847.8879128745920752
 21
156.2321422001164137
 31
0.0
  0
LINE
  5
157EB
  8
0
 10
3847.9173199445531282
 20
156.2321422001164137
 30
0.0
 11
3847.9380271073641779
 21
156.213853770402892
 31
0.0
  0
LINE
  5
157EC
  8
0
 10
3847.9380271073641779
 20
156.213853770402892
 30
0.0
 11
3847.9765819168060261
 21
156.2138527555617884
 31
0.0
  0
LINE
  5
157ED
  8
0
 10
3847.9765820394268303
 20
156.2138531440164115
 30
0.0
 11
3847.9946554556340743
 21
156.2321420874991986
 31
0.0
  0
LINE
  5
157EE
  8
0
 10
3848.0235980036468391
 20
156.2321422001164137
 30
0.0
 11
3848.0485586803351907
 21
156.213853769044988
 31
0.0
  0
LINE
  5
157EF
  8
0
 10
3848.0485586803351907
 20
156.213853769044988
 30
0.0
 11
3848.0852995376280887
 21
156.2138531440164115
 31
0.0
  0
LINE
  5
157F0
  8
0
 10
3848.0852995376280887
 20
156.2138531440164115
 30
0.0
 11
3848.0972940806977931
 21
156.2321422001164137
 31
0.0
  0
LINE
  5
157F1
  8
0
 10
3848.1053611925281075
 20
156.2321422001164137
 30
0.0
 11
3848.1053611925281075
 21
155.799071333916288
 31
0.0
  0
LINE
  5
157F2
  8
0
 10
3848.1928521110271504
 20
155.799071333916288
 30
0.0
 11
3848.1928521110271504
 21
156.2321422001164137
 31
0.0
  0
LINE
  5
157F3
  8
0
 10
3848.006810847727138
 20
156.2321422001164137
 30
0.0
 11
3848.006810847727138
 21
155.799071333916288
 31
0.0
  0
LINE
  5
157F4
  8
0
 10
3847.9033933572281967
 20
156.2321422001164137
 30
0.0
 11
3847.9033933572281967
 21
155.799071333916288
 31
0.0
  0
LINE
  5
157F5
  8
0
 10
3847.8016068223278126
 20
156.2321422001164137
 30
0.0
 11
3847.8016068223278126
 21
155.799071333916288
 31
0.0
  0
LINE
  5
157F6
  8
0
 10
3847.7078468654272001
 20
156.2321422001164137
 30
0.0
 11
3847.7078468654272001
 21
156.0165375859031087
 31
0.0
  0
ARC
  5
157F7
  8
0
 10
3841.1358603765129374
 20
156.0137803489162138
 30
0.0
 40
6.5894855610146958
 50
359.7657447411839939
 51
1.739913420197156
  0
ARC
  5
157F8
  8
0
 10
3849.9097790365308356
 20
156.0133669245394117
 30
0.0
 40
2.1618313829106168
 50
174.6787380097669029
 51
182.165382733341886
  0
ARC
  5
157F9
  8
0
 10
3844.0552799237862018
 20
156.0133861884478961
 30
0.0
 40
3.7769952003977401
 50
356.7471630001714971
 51
3.0424476155781308
  0
ARC
  5
157FA
  8
0
 10
3850.3474263173930012
 20
156.0134087287536886
 30
0.0
 40
2.4906085308805839
 50
175.383837769602394
 51
184.9159457037698928
  0
ARC
  5
157FB
  8
0
 10
3845.1807826779167954
 20
156.0134166669004969
 30
0.0
 40
2.764521675748099
 50
355.553147142194689
 51
4.1577715417045704
  0
ARC
  5
157FC
  8
0
 10
3851.1375681253221046
 20
156.013394179112197
 30
0.0
 40
3.1673360180592911
 50
176.3713632708168007
 51
183.8799781852897013
  0
ARC
  5
157FD
  8
0
 10
3845.7610786763370925
 20
156.0134168859943031
 30
0.0
 40
2.296246533523743
 50
354.6438673715933874
 51
5.0076441084152368
  0
ARC
  5
157FE
  8
0
 10
3852.8936446866960068
 20
156.0125445658989918
 30
0.0
 40
4.8125573467951464
 50
177.6026263498669948
 51
182.5423343306433139
  0
ARC
  5
157FF
  8
0
 10
3846.0873102347450185
 20
156.0134031196051865
 30
0.0
 40
2.0739991490503691
 50
354.0683338083129001
 51
5.5462564632592226
  0
LINE
  5
15800
  8
0
 10
3847.5206419065270893
 20
156.2321422001164137
 30
0.0
 11
3847.5082867715891553
 21
156.2138539502030881
 31
0.0
  0
LINE
  5
15801
  8
0
 10
3847.5082867715891553
 20
156.2138539502030881
 30
0.0
 11
3847.5225060643269899
 21
156.2138531440164115
 31
0.0
  0
LINE
  5
15802
  8
0
 10
3847.5225060643269899
 20
156.2138531440164115
 30
0.0
 11
3847.5491660111770216
 21
156.2321422001164137
 31
0.0
  0
LINE
  5
15803
  8
0
 10
3847.5633620109961157
 20
156.2321422000609914
 30
0.0
 11
3847.5578072297280414
 21
156.2138531440164115
 31
0.0
  0
LINE
  5
15804
  8
0
 10
3847.5578072297280414
 20
156.2138531440164115
 30
0.0
 11
3847.5805125926790424
 21
156.2138528947955933
 31
0.0
  0
LINE
  5
15805
  8
0
 10
3847.5805125926790424
 20
156.2138528947955933
 30
0.0
 11
3847.6089071756878184
 21
156.2321422001164137
 31
0.0
  0
LINE
  5
15806
  8
0
 10
3847.7718697531281578
 20
155.799071333916288
 30
0.0
 11
3847.8261858086270877
 21
155.799071333916288
 31
0.0
  0
LINE
  5
15807
  8
0
 10
3847.8660603615280706
 20
155.799071333916288
 30
0.0
 11
3847.9369822668281813
 21
155.799071333916288
 31
0.0
  0
LINE
  5
15808
  8
0
 10
3847.9774916869259869
 20
155.7990711640333075
 30
0.0
 11
3848.0472986326271894
 21
155.799071333916288
 31
0.0
  0
LINE
  5
15809
  8
0
 10
3848.0859059515278204
 20
155.799071333916288
 30
0.0
 11
3848.1502043154268904
 21
155.799071333916288
 31
0.0
  0
LINE
  5
1580A
  8
0
 10
3848.1844770459401843
 20
155.799071301264803
 30
0.0
 11
3848.2392328812279629
 21
155.799071333916288
 31
0.0
  0
LINE
  5
1580B
  8
0
 10
3848.2678218745609229
 20
155.799071333916288
 30
0.0
 11
3848.3087903869281945
 21
155.799071333916288
 31
0.0
  0
LINE
  5
1580C
  8
0
 10
3848.3283470844271505
 20
155.799071333916288
 30
0.0
 11
3848.354506261926872
 21
155.799071333916288
 31
0.0
  0
LINE
  5
1580D
  8
0
 10
3848.3646080007638375
 20
155.799071063169805
 30
0.0
 11
3848.3739688517498507
 21
155.7990303318923111
 31
0.0
  0
LINE
  5
1580E
  8
0
 10
3847.5356492806267852
 20
156.2321422001164137
 30
0.0
 11
3847.5356492806267852
 21
156.2400162158164107
 31
0.0
  0
LINE
  5
1580F
  8
0
 10
3848.3230508554270273
 20
156.2321422001164137
 30
0.0
 11
3848.3230508554270273
 21
156.2400162158164107
 31
0.0
  0
ARC
  5
15810
  8
0
 10
3848.2915547925281317
 20
156.2400162158164107
 30
0.0
 40
0.0314960629999952
 50
359.9999999999935199
 51
90.0
  0
ARC
  5
15811
  8
0
 10
3847.567145349286875
 20
156.2400162134719039
 30
0.0
 40
0.0314960686601349
 50
89.973709887469127
 51
179.9999957350123907
  0
LINE
  5
15812
  8
0
 10
3847.567159801228172
 20
156.2715122788162887
 30
0.0
 11
3848.2915547925281317
 21
156.2715122788162887
 31
0.0
  0
LINE
  5
15813
  8
0
 10
3848.3387460170310987
 20
155.2194964927093963
 30
0.0
 11
3848.3387988869280889
 21
155.2157401412164006
 31
0.0
  0
LINE
  5
15814
  8
0
 10
3848.3387988869280889
 20
155.2157401412164006
 30
0.0
 11
3848.2813668059848169
 21
155.1822783910448891
 31
0.0
  0
LINE
  5
15815
  8
0
 10
3848.2813668059848169
 20
155.1822783910448891
 30
0.0
 11
3848.3383259999268375
 21
155.1493482554164132
 31
0.0
  0
LINE
  5
15816
  8
0
 10
3848.4432145766968461
 20
155.1376580565465986
 30
0.0
 11
3848.4314075984270858
 21
155.1494650347163997
 31
0.0
  0
LINE
  5
15817
  8
0
 10
3848.4314075984270858
 20
155.1494650347163997
 30
0.0
 11
3847.9019529368720214
 21
155.1494650347163997
 31
0.0
  0
LINE
  5
15818
  8
0
 10
3847.8728368835631954
 20
155.1627341240740918
 30
0.0
 11
3848.2813668059911834
 21
155.182278391041109
 31
0.0
  0
LINE
  5
15819
  8
0
 10
3848.3387724519789117
 20
155.2176183169628985
 30
0.0
 11
3847.8296325395940585
 21
155.1952488472155949
 31
0.0
  0
LINE
  5
1581A
  8
0
 10
3849.4017910129268785
 20
133.7912011904338954
 30
0.0
 11
3847.7718697531281578
 21
133.7912011904338954
 31
0.0
  0
LINE
  5
1581B
  8
0
 10
3847.7718697531281578
 20
134.3896265627163871
 30
0.0
 11
3847.8896807767278005
 21
134.3896265627163871
 31
0.0
  0
LINE
  5
1581C
  8
0
 10
3847.8896807767278005
 20
134.3896265627163871
 30
0.0
 11
3847.8896807767278005
 21
135.2185079941164076
 31
0.0
  0
LINE
  5
1581D
  8
0
 10
3847.8896807767278005
 20
135.2185079941164076
 30
0.0
 11
3848.7558225090269843
 21
136.214890079116401
 31
0.0
  0
LINE
  5
1581E
  8
0
 10
3847.8896807767278005
 20
134.9408076651164095
 30
0.0
 11
3849.6222634539271894
 21
134.9408076651164095
 31
0.0
  0
LINE
  5
1581F
  8
0
 10
3849.5966729027268229
 20
134.5923824682164138
 30
0.0
 11
3849.5966729027268229
 21
134.9408076651164095
 31
0.0
  0
LINE
  5
15820
  8
0
 10
3848.8372254703049293
 20
136.1831528629147954
 30
0.0
 11
3848.8519494497959386
 21
135.3398141522380911
 31
0.0
  0
LINE
  5
15821
  8
0
 10
3848.874747304426819
 20
135.0726931135162943
 30
0.0
 11
3848.874747304426819
 21
136.2251165223163127
 31
0.0
  0
LINE
  5
15822
  8
0
 10
3847.9875312850172122
 20
135.3310721274825141
 30
0.0
 11
3848.8090371170269464
 21
135.3310739081163092
 31
0.0
  0
LINE
  5
15823
  8
0
 10
3847.8896807767278005
 20
135.0640965682567867
 30
0.0
 11
3848.874747304426819
 21
135.0726931135162943
 31
0.0
  0
ARC
  5
15824
  8
0
 10
3848.6604967552812013
 20
136.2073454079184955
 30
0.0
 40
0.2145609655599684
 50
5.0283948255337307
 51
90.4143232551417526
  0
ARC
  5
15825
  8
0
 10
3848.6994508376437807
 20
136.1809651439116067
 30
0.0
 40
0.137795277498952
 50
1.0056100158404091
 51
65.7342739833817262
  0
LINE
  5
15826
  8
0
 10
3848.7558225090269843
 20
136.214890079116401
 30
0.0
 11
3848.7558225090269843
 21
136.312364843873695
 31
0.0
  0
LINE
  5
15827
  8
0
 10
3848.7558225090269843
 20
136.312364843873695
 30
0.0
 11
3847.7718697531281578
 21
136.3187604210164068
 31
0.0
  0
LINE
  5
15828
  8
0
 10
3847.7718697531281578
 20
136.4358354874163979
 30
0.0
 11
3847.8309248712271255
 21
136.4358354874163979
 31
0.0
  0
LINE
  5
15829
  8
0
 10
3847.8309248712271255
 20
136.4358354874163979
 30
0.0
 11
3847.8309292118979101
 21
136.4216474415443088
 31
0.0
  0
LINE
  5
1582A
  8
0
 10
3847.8309292118979101
 20
136.4216474415443088
 30
0.0
 11
3848.6589452130278914
 21
136.4219007636162928
 31
0.0
  0
ARC
  5
1582B
  8
0
 10
3848.8068567808732041
 20
135.460871266975488
 30
0.0
 40
0.1298166791039434
 50
270.9645125135247099
 51
290.331768977834713
  0
LINE
  5
1582C
  8
0
 10
3847.8896807767278005
 20
135.1376580588164131
 30
0.0
 11
3848.8742319578268507
 21
135.1376580588164131
 31
0.0
  0
ARC
  5
1582D
  8
0
 10
3848.7256149355162052
 20
135.7148635433466097
 30
0.0
 40
0.8966522817495267
 50
300.3138924470998745
 51
0.1660016273269622
  0
LINE
  5
1582E
  8
0
 10
3849.6222634539271894
 20
134.9408076651164095
 30
0.0
 11
3849.7169070495710912
 21
147.3024970021191109
 31
0.0
  0
LINE
  5
1582F
  8
0
 10
3849.7169070495710912
 20
147.3024970021191109
 30
0.0
 11
3848.0276517105271523
 21
147.3030424418163875
 31
0.0
  0
LINE
  5
15830
  8
0
 10
3848.0276517105271523
 20
147.3030424418163875
 30
0.0
 11
3848.0276517106872234
 21
147.3171703049164023
 31
0.0
  0
LINE
  5
15831
  8
0
 10
3848.0276517106872234
 20
147.3171703049164023
 30
0.0
 11
3847.7718697531281578
 21
147.3171703078164114
 31
0.0
  0
LINE
  5
15832
  8
0
 10
3847.7718697531281578
 20
147.3423824682163001
 30
0.0
 11
3849.6616335326280023
 21
147.3423824682163001
 31
0.0
  0
LINE
  5
15833
  8
0
 10
3849.6616335326280023
 20
147.3423824682163001
 30
0.0
 11
3849.6616335326280023
 21
148.1494690824162888
 31
0.0
  0
LINE
  5
15834
  8
0
 10
3849.6616335326280023
 20
148.1494690824162888
 30
0.0
 11
3847.7718697531281578
 21
148.1494690824162888
 31
0.0
  0
LINE
  5
15835
  8
0
 10
3847.7718697531281578
 20
148.0510438856163091
 30
0.0
 11
3847.7822890466268291
 21
148.0510438856163091
 31
0.0
  0
LINE
  5
15836
  8
0
 10
3847.7822890466268291
 20
148.0510438856163091
 30
0.0
 11
3847.7822892658277851
 21
147.8345084525163884
 31
0.0
  0
LINE
  5
15837
  8
0
 10
3847.7822892658277851
 20
147.8345084525163884
 30
0.0
 11
3847.7718697531281578
 21
147.8345084525163884
 31
0.0
  0
LINE
  5
15838
  8
0
 10
3849.6616335326280023
 20
148.0510438856163091
 30
0.0
 11
3847.8610291766021874
 21
148.0507998484378049
 31
0.0
  0
LINE
  5
15839
  8
0
 10
3847.8610291766021874
 20
148.0507998484378049
 30
0.0
 11
3847.8610291766021874
 21
147.8345084525163884
 31
0.0
  0
LINE
  5
1583A
  8
0
 10
3847.8610291766021874
 20
147.8345084525163884
 30
0.0
 11
3849.6616335326280023
 21
147.8345084525163884
 31
0.0
  0
LINE
  5
1583B
  8
0
 10
3849.5394117048272165
 20
148.2072249879163905
 30
0.0
 11
3849.6276768397269734
 21
148.2072249879163053
 31
0.0
  0
LINE
  5
1583C
  8
0
 10
3849.6676374696271523
 20
148.1672643580164106
 30
0.0
 11
3849.6676374696271523
 21
148.0074218383163043
 31
0.0
  0
LINE
  5
1583D
  8
0
 10
3847.7718697531281578
 20
147.7360832556163928
 30
0.0
 11
3849.6616335326280023
 21
147.7360832556163075
 31
0.0
  0
LINE
  5
1583E
  8
0
 10
3849.4855233959269754
 20
154.3822135589163054
 30
0.0
 11
3849.539915732927966
 21
148.1494690824162888
 31
0.0
  0
LINE
  5
1583F
  8
0
 10
3849.5407748195739259
 20
148.0510275055497118
 30
0.0
 11
3849.5426643527271153
 21
147.8345084525163884
 31
0.0
  0
ARC
  5
15840
  8
0
 10
3849.6276768397269734
 20
148.1672643580162969
 30
0.0
 40
0.0399606299000119
 50
0.000000000014656
 51
90.0
  0
ARC
  5
15841
  8
0
 10
3849.6276768397269734
 20
148.0074218383163043
 30
0.0
 40
0.0399606298999865
 50
328.2472529712970868
 51
0.0000000000048853
  0
LINE
  5
15842
  8
0
 10
3849.6581977578839542
 20
147.3423824682163001
 30
0.0
 11
3849.6578835418281415
 21
147.3020699709163068
 31
0.0
  0
ARC
  5
15843
  8
0
 10
3849.0304755043298428
 20
150.8347748305916127
 30
0.0
 40
0.1072657250456712
 50
274.8882446119192196
 51
84.8701339187256849
  0
LINE
  5
15844
  8
0
 10
3847.7718697531281578
 20
150.9637473874145996
 30
0.0
 11
3849.0400665063671113
 21
150.9416109127431014
 31
0.0
  0
LINE
  5
15845
  8
0
 10
3847.9683078662278604
 20
150.7091995013163057
 30
0.0
 11
3849.0396158850280699
 21
150.7278992524163073
 31
0.0
  0
ARC
  5
15846
  8
0
 10
3849.0304755043298428
 20
148.9681003421412129
 30
0.0
 40
0.1072657250456712
 50
275.1298660812743151
 51
85.1117553880808231
  0
LINE
  5
15847
  8
0
 10
3847.7718697531281578
 20
148.8391277853181123
 30
0.0
 11
3849.0400665063671113
 21
148.8612642599896105
 31
0.0
  0
LINE
  5
15848
  8
0
 10
3847.9683078662278604
 20
149.0936756714162925
 30
0.0
 11
3849.0396158850280699
 21
149.074975920316291
 31
0.0
  0
LINE
  5
15849
  8
0
 10
3847.9683078662278604
 20
150.7091995013163057
 30
0.0
 11
3847.9682180689101187
 21
149.0923014371614954
 31
0.0
  0
LINE
  5
1584A
  8
0
 10
3849.4254130602271289
 20
154.5274218383163998
 30
0.0
 11
3849.4591030620122183
 21
154.5274281765487956
 31
0.0
  0
ARC
  5
1584B
  8
0
 10
3849.0524690179249774
 20
154.378434451343594
 30
0.0
 40
0.4330708671354572
 50
0.4999866737770641
 51
20.1223151390848791
  0
LINE
  5
1584C
  8
0
 10
3843.7797437688268474
 20
154.1022249879162871
 30
0.0
 11
3843.7797437688268474
 21
148.5352958541164128
 31
0.0
  0
LINE
  5
1584D
  8
0
 10
3843.7797437688268474
 20
148.5825399485163985
 30
0.0
 11
3843.7167516428280578
 21
148.5825399485163985
 31
0.0
  0
LINE
  5
1584E
  8
0
 10
3843.7167516428280578
 20
148.5825399485163985
 30
0.0
 11
3843.7167516428280578
 21
154.0549808934163991
 31
0.0
  0
LINE
  5
1584F
  8
0
 10
3843.7167516428280578
 20
154.0549808934163991
 30
0.0
 11
3843.7797437688268474
 21
154.0549808934163991
 31
0.0
  0
LINE
  5
15850
  8
0
 10
3843.7167516428280578
 20
153.9762407359162921
 30
0.0
 11
3843.3230508554279368
 21
153.9762407359162921
 31
0.0
  0
LINE
  5
15851
  8
0
 10
3843.3230508554279368
 20
153.9762407359162921
 30
0.0
 11
3843.3230508554279368
 21
148.6612801060163065
 31
0.0
  0
LINE
  5
15852
  8
0
 10
3843.3230508554279368
 20
148.6612801060163065
 30
0.0
 11
3843.7167516428280578
 21
148.6612801060163065
 31
0.0
  0
LINE
  5
15853
  8
0
 10
3843.71084613102812
 20
148.6612801060163065
 30
0.0
 11
3843.71084613102812
 21
148.6022249879162871
 31
0.0
  0
LINE
  5
15854
  8
0
 10
3843.71084613102812
 20
148.6022249879162871
 30
0.0
 11
3843.7167516428280578
 21
148.6022249879162871
 31
0.0
  0
LINE
  5
15855
  8
0
 10
3843.71084613102812
 20
153.9762407359162921
 30
0.0
 11
3843.71084613102812
 21
154.0352958541164128
 31
0.0
  0
LINE
  5
15856
  8
0
 10
3843.71084613102812
 20
154.0352958541164128
 30
0.0
 11
3843.7167516428280578
 21
154.0352958541164128
 31
0.0
  0
LINE
  5
15857
  8
0
 10
3843.7167516428280578
 20
153.8187604210164068
 30
0.0
 11
3843.7797437688268474
 21
153.8187604210164068
 31
0.0
  0
LINE
  5
15858
  8
0
 10
3843.7167516428280578
 20
148.8187604210164068
 30
0.0
 11
3843.7797437688268474
 21
148.8187604210164068
 31
0.0
  0
LINE
  5
15859
  8
0
 10
3843.7797437688268474
 20
148.7200554296163091
 30
0.0
 11
3843.9321985469277934
 21
148.7200554296163091
 31
0.0
  0
LINE
  5
1585A
  8
0
 10
3843.9321985469277934
 20
148.7200554296163091
 30
0.0
 11
3843.9321985469277934
 21
153.9176858443163098
 31
0.0
  0
LINE
  5
1585B
  8
0
 10
3843.9321985469277934
 20
153.9176858443163098
 30
0.0
 11
3843.7797437688268474
 21
153.9174654124163055
 31
0.0
  0
LINE
  5
1585C
  8
0
 10
3843.7797437688268474
 20
154.1022249879162871
 30
0.0
 11
3843.9321985469277934
 21
154.1027571576163098
 31
0.0
  0
LINE
  5
1585D
  8
0
 10
3843.9321985469277934
 20
154.1027571576163098
 30
0.0
 11
3844.1104524302281789
 21
154.0156108147162968
 31
0.0
  0
LINE
  5
1585E
  8
0
 10
3844.1104524302281789
 20
154.0156108147162968
 30
0.0
 11
3844.1104524302281789
 21
154.1033793836164136
 31
0.0
  0
LINE
  5
1585F
  8
0
 10
3844.1104524302281789
 20
154.1033793836164136
 30
0.0
 11
3844.1276533906270743
 21
154.1034394265163883
 31
0.0
  0
LINE
  5
15860
  8
0
 10
3844.1276533906270743
 20
154.1034394265163883
 30
0.0
 11
3844.3073028239277846
 21
154.0156108147162968
 31
0.0
  0
LINE
  5
15861
  8
0
 10
3844.3073028239277846
 20
154.0156108147162968
 30
0.0
 11
3844.3073028239277846
 21
154.1040665239162877
 31
0.0
  0
LINE
  5
15862
  8
0
 10
3844.3073028239277846
 20
154.1040665239162877
 30
0.0
 11
3844.3231082343268099
 21
154.1041216954164099
 31
0.0
  0
LINE
  5
15863
  8
0
 10
3844.3231082343268099
 20
154.1041216954164099
 30
0.0
 11
3844.5041532176269357
 21
154.0156108147162968
 31
0.0
  0
LINE
  5
15864
  8
0
 10
3844.5041532176269357
 20
154.0156108147162968
 30
0.0
 11
3844.5041532176269357
 21
154.1047536642163891
 31
0.0
  0
LINE
  5
15865
  8
0
 10
3844.5041532176269357
 20
154.1047536642163891
 30
0.0
 11
3844.5185630781279542
 21
154.1048039643164032
 31
0.0
  0
LINE
  5
15866
  8
0
 10
3844.5185630781279542
 20
154.1048039643164032
 30
0.0
 11
3844.7010036113269962
 21
154.0156108147162968
 31
0.0
  0
LINE
  5
15867
  8
0
 10
3844.7010036113269962
 20
154.0156108147162968
 30
0.0
 11
3844.70069004804418
 21
154.1054397099694881
 31
0.0
  0
LINE
  5
15868
  8
0
 10
3844.70069004804418
 20
154.1054397099694881
 30
0.0
 11
3844.7141130830141265
 21
154.1054397099694881
 31
0.0
  0
LINE
  5
15869
  8
0
 10
3844.7141130830141265
 20
154.1054397099694881
 30
0.0
 11
3844.8978540050270567
 21
154.0156108147162968
 31
0.0
  0
LINE
  5
1586A
  8
0
 10
3844.8978540050270567
 20
154.0156108147162968
 30
0.0
 11
3844.8978540050270567
 21
154.106127944816393
 31
0.0
  0
LINE
  5
1586B
  8
0
 10
3844.8978540050270567
 20
154.106127944816393
 30
0.0
 11
3844.9094727655269708
 21
154.1061685021163044
 31
0.0
  0
LINE
  5
1586C
  8
0
 10
3844.9094727655269708
 20
154.1061685021163044
 30
0.0
 11
3845.0947043987271172
 21
154.0156108147162968
 31
0.0
  0
LINE
  5
1586D
  8
0
 10
3845.0947043987271172
 20
154.0156108147162968
 30
0.0
 11
3845.0947043987271172
 21
154.1068150851164091
 31
0.0
  0
LINE
  5
1586E
  8
0
 10
3845.0947043987271172
 20
154.1068150851164091
 30
0.0
 11
3845.1049276092271612
 21
154.10685077091631
 31
0.0
  0
LINE
  5
1586F
  8
0
 10
3845.1049276092271612
 20
154.10685077091631
 30
0.0
 11
3845.2915547925272222
 21
154.0156108147162968
 31
0.0
  0
LINE
  5
15870
  8
0
 10
3845.2915547925272222
 20
154.0156108147162968
 30
0.0
 11
3845.2915547925272222
 21
154.1075022254163969
 31
0.0
  0
LINE
  5
15871
  8
0
 10
3845.2915547925272222
 20
154.1075022254163969
 30
0.0
 11
3845.3004454823822016
 21
154.1075022254163969
 31
0.0
  0
LINE
  5
15872
  8
0
 10
3845.3004454823822016
 20
154.1075022254163969
 30
0.0
 11
3845.4884051862268279
 21
154.0156108147162968
 31
0.0
  0
LINE
  5
15873
  8
0
 10
3845.4884051862268279
 20
154.0156108147162968
 30
0.0
 11
3845.4884051862268279
 21
154.1081893656163118
 31
0.0
  0
LINE
  5
15874
  8
0
 10
3845.4884051862268279
 20
154.1081893656163118
 30
0.0
 11
3845.4958372966279967
 21
154.1082153087164102
 31
0.0
  0
LINE
  5
15875
  8
0
 10
3845.4958372966279967
 20
154.1082153087164102
 30
0.0
 11
3845.6852555799268885
 21
154.0156108147162968
 31
0.0
  0
LINE
  5
15876
  8
0
 10
3845.6852555799268885
 20
154.0156108147162968
 30
0.0
 11
3845.6852555799268885
 21
154.1110753549164087
 31
0.0
  0
LINE
  5
15877
  8
0
 10
3845.6852555799268885
 20
154.1110753549164087
 30
0.0
 11
3846.1970666035272188
 21
154.1110753549164087
 31
0.0
  0
LINE
  5
15878
  8
0
 10
3845.6852555799268885
 20
154.0589179013163061
 30
0.0
 11
3845.5966729027350084
 21
154.0589179013163061
 31
0.0
  0
LINE
  5
15879
  8
0
 10
3845.4884051862268279
 20
154.0589179013163061
 30
0.0
 11
3845.3998225090281267
 21
154.0589179013163061
 31
0.0
  0
LINE
  5
1587A
  8
0
 10
3845.2915547925272222
 20
154.0589179013163061
 30
0.0
 11
3845.2029721153271566
 21
154.0589179013163061
 31
0.0
  0
LINE
  5
1587B
  8
0
 10
3845.0947043987271172
 20
154.0589179013163061
 30
0.0
 11
3845.006121721647105
 21
154.0589179013163061
 31
0.0
  0
LINE
  5
1587C
  8
0
 10
3844.8978540050270567
 20
154.0589179013163061
 30
0.0
 11
3844.8092713279270356
 21
154.0589179013163061
 31
0.0
  0
LINE
  5
1587D
  8
0
 10
3844.7008524404568561
 20
154.0589179013163061
 30
0.0
 11
3844.6124209342260656
 21
154.0589179013163061
 31
0.0
  0
LINE
  5
1587E
  8
0
 10
3844.5041532176269357
 20
154.0589179013163061
 30
0.0
 11
3844.4155705405269146
 21
154.0589179013163061
 31
0.0
  0
LINE
  5
1587F
  8
0
 10
3844.3073028239277846
 20
154.0589179013163061
 30
0.0
 11
3844.218720146826854
 21
154.0589179013163061
 31
0.0
  0
LINE
  5
15880
  8
0
 10
3844.1104524302281789
 20
154.0589179013163061
 30
0.0
 11
3844.0218697531267935
 21
154.0589179013163061
 31
0.0
  0
LINE
  5
15881
  8
0
 10
3843.9321985469277934
 20
153.9176858443163098
 30
0.0
 11
3844.1104524302281789
 21
154.005712147616407
 31
0.0
  0
LINE
  5
15882
  8
0
 10
3844.1104524302281789
 20
154.005712147616407
 30
0.0
 11
3844.1104524302281789
 21
148.6318086943163053
 31
0.0
  0
LINE
  5
15883
  8
0
 10
3844.1104524302281789
 20
148.6318086943163053
 30
0.0
 11
3843.9321985469277934
 21
148.7198349977163048
 31
0.0
  0
LINE
  5
15884
  8
0
 10
3843.7797437688268474
 20
148.5352958541164128
 30
0.0
 11
3843.9321985469277934
 21
148.5347636843162888
 31
0.0
  0
LINE
  5
15885
  8
0
 10
3843.9321985469277934
 20
148.5347636843162888
 30
0.0
 11
3844.1104524302281789
 21
148.6219100273162894
 31
0.0
  0
LINE
  5
15886
  8
0
 10
3844.1104524302281789
 20
148.6219100273162894
 30
0.0
 11
3844.1101460622189734
 21
148.5341425278481893
 31
0.0
  0
LINE
  5
15887
  8
0
 10
3844.1101460622189734
 20
148.5341425278481893
 30
0.0
 11
3844.1276533906270743
 21
148.5340814154162956
 31
0.0
  0
LINE
  5
15888
  8
0
 10
3844.1276533906270743
 20
148.5340814154162956
 30
0.0
 11
3844.3073028239277846
 21
148.6219100273162894
 31
0.0
  0
LINE
  5
15889
  8
0
 10
3844.3073028239277846
 20
148.6219100273162894
 30
0.0
 11
3844.3073028239277846
 21
148.5334543181162985
 31
0.0
  0
LINE
  5
1588A
  8
0
 10
3844.3073028239277846
 20
148.5334543181162985
 30
0.0
 11
3844.3231082343268099
 21
148.5333991466164036
 31
0.0
  0
LINE
  5
1588B
  8
0
 10
3844.3231082343268099
 20
148.5333991466164036
 30
0.0
 11
3844.5041532176269357
 21
148.6219100273162894
 31
0.0
  0
LINE
  5
1588C
  8
0
 10
3844.5041532176269357
 20
148.6219100273162894
 30
0.0
 11
3844.5041532176269357
 21
148.5327671778163108
 31
0.0
  0
LINE
  5
1588D
  8
0
 10
3844.5041532176269357
 20
148.5327671778163108
 30
0.0
 11
3844.5185630781279542
 21
148.5327168777164104
 31
0.0
  0
LINE
  5
1588E
  8
0
 10
3844.5185630781279542
 20
148.5327168777164104
 30
0.0
 11
3844.7010036113269962
 21
148.6219100273162894
 31
0.0
  0
LINE
  5
1588F
  8
0
 10
3844.7010036113269962
 20
148.6219100273162894
 30
0.0
 11
3844.7010036113269962
 21
148.5320800375164083
 31
0.0
  0
LINE
  5
15890
  8
0
 10
3844.7010036113269962
 20
148.5320800375164083
 30
0.0
 11
3844.7140179218267804
 21
148.5320346088163035
 31
0.0
  0
LINE
  5
15891
  8
0
 10
3844.7140179218267804
 20
148.5320346088163035
 30
0.0
 11
3844.8978540050270567
 21
148.6219100273162894
 31
0.0
  0
LINE
  5
15892
  8
0
 10
3844.8978540050270567
 20
148.6219100273162894
 30
0.0
 11
3844.8978540050270567
 21
148.5313928972163069
 31
0.0
  0
LINE
  5
15893
  8
0
 10
3844.8978540050270567
 20
148.5313928972163069
 30
0.0
 11
3844.9094727655269708
 21
148.5313523399163103
 31
0.0
  0
LINE
  5
15894
  8
0
 10
3844.9094727655269708
 20
148.5313523399163103
 30
0.0
 11
3845.0947043987271172
 21
148.6219100273162894
 31
0.0
  0
LINE
  5
15895
  8
0
 10
3845.0947043987271172
 20
148.6219100273162894
 30
0.0
 11
3845.0947043987271172
 21
148.5307057569164044
 31
0.0
  0
LINE
  5
15896
  8
0
 10
3845.0947043987271172
 20
148.5307057569164044
 30
0.0
 11
3845.1050006031141493
 21
148.5307057569164044
 31
0.0
  0
LINE
  5
15897
  8
0
 10
3845.1050006031141493
 20
148.5307057569164044
 30
0.0
 11
3845.2915547925272222
 21
148.6219100273162894
 31
0.0
  0
LINE
  5
15898
  8
0
 10
3845.2915547925272222
 20
148.6219100273162894
 30
0.0
 11
3845.2912340333177781
 21
148.5300197362826964
 31
0.0
  0
LINE
  5
15899
  8
0
 10
3845.2912340333177781
 20
148.5300197362826964
 30
0.0
 11
3845.3003824529278063
 21
148.5299878021164091
 31
0.0
  0
LINE
  5
1589A
  8
0
 10
3845.3003824529278063
 20
148.5299878021164091
 30
0.0
 11
3845.4884051862268279
 21
148.6219100273162894
 31
0.0
  0
LINE
  5
1589B
  8
0
 10
3845.4884051862268279
 20
148.6219100273162894
 30
0.0
 11
3845.4884051862268279
 21
148.5293314763162869
 31
0.0
  0
LINE
  5
1589C
  8
0
 10
3845.4884051862268279
 20
148.5293314763162869
 30
0.0
 11
3845.4958372966279967
 21
148.5293055333164034
 31
0.0
  0
LINE
  5
1589D
  8
0
 10
3845.4958372966279967
 20
148.5293055333164034
 30
0.0
 11
3845.6852555799268885
 21
148.6219100273162894
 31
0.0
  0
LINE
  5
1589E
  8
0
 10
3845.6852555799268885
 20
148.6219100273162894
 30
0.0
 11
3845.6852555799268885
 21
148.5286443360164128
 31
0.0
  0
LINE
  5
1589F
  8
0
 10
3845.6852555799268885
 20
148.5286443360164128
 30
0.0
 11
3846.1970666035272188
 21
148.5268577713164007
 31
0.0
  0
LINE
  5
158A0
  8
0
 10
3846.1970666035272188
 20
148.7165602613162889
 30
0.0
 11
3845.6852555799268885
 21
148.7165602613162889
 31
0.0
  0
LINE
  5
158A1
  8
0
 10
3845.6852555799268885
 20
148.6240345894163113
 30
0.0
 11
3845.4958372966279967
 21
148.7175741575163102
 31
0.0
  0
LINE
  5
158A2
  8
0
 10
3845.4958372966279967
 20
148.7175741575163102
 30
0.0
 11
3845.4884051862268279
 21
148.7175741575163102
 31
0.0
  0
LINE
  5
158A3
  8
0
 10
3845.4884051862268279
 20
148.7175741575163102
 30
0.0
 11
3845.4884051862268279
 21
148.625006352516408
 31
0.0
  0
LINE
  5
158A4
  8
0
 10
3845.4884051862268279
 20
148.625006352516408
 30
0.0
 11
3845.3003824529278063
 21
148.7178567625163055
 31
0.0
  0
LINE
  5
158A5
  8
0
 10
3845.3003824529278063
 20
148.7178567625163055
 30
0.0
 11
3845.2915547925272222
 21
148.7178567625163055
 31
0.0
  0
LINE
  5
158A6
  8
0
 10
3845.6852555799268885
 20
154.0134862526163033
 30
0.0
 11
3845.4958372966279967
 21
153.9199466845163897
 31
0.0
  0
LINE
  5
158A7
  8
0
 10
3845.4958372966279967
 20
153.9199466845163897
 30
0.0
 11
3845.4884051862268279
 21
153.919935938516403
 31
0.0
  0
LINE
  5
158A8
  8
0
 10
3845.4884051862268279
 20
154.0125144895164055
 30
0.0
 11
3845.4884051862268279
 21
148.7175849035164106
 31
0.0
  0
LINE
  5
158A9
  8
0
 10
3845.4884051862268279
 20
154.0125144895164055
 30
0.0
 11
3845.3003824529278063
 21
153.9196640795163091
 31
0.0
  0
LINE
  5
158AA
  8
0
 10
3845.3003824529278063
 20
153.9196640795163091
 30
0.0
 11
3845.2915547925272222
 21
153.9196513157164077
 31
0.0
  0
LINE
  5
158AB
  8
0
 10
3845.2916876568519911
 20
148.7178693342096096
 30
0.0
 11
3845.2915547925272222
 21
154.0115427264163088
 31
0.0
  0
LINE
  5
158AC
  8
0
 10
3845.2915547925272222
 20
154.0115427264163088
 30
0.0
 11
3845.1049276092271612
 21
153.9193814744164115
 31
0.0
  0
LINE
  5
158AD
  8
0
 10
3845.1049276092271612
 20
153.9193814744164115
 30
0.0
 11
3845.0947043987271172
 21
153.9193666929164124
 31
0.0
  0
LINE
  5
158AE
  8
0
 10
3845.0947043987271172
 20
148.6269498787164025
 30
0.0
 11
3845.0947043987271172
 21
154.0105709632163951
 31
0.0
  0
LINE
  5
158AF
  8
0
 10
3845.0947043987271172
 20
154.0105709632163951
 30
0.0
 11
3844.9094727655269708
 21
153.9190988694163877
 31
0.0
  0
LINE
  5
158B0
  8
0
 10
3844.9094727655269708
 20
153.9190988694163877
 30
0.0
 11
3844.8978540050270567
 21
153.9190820700162874
 31
0.0
  0
LINE
  5
158B1
  8
0
 10
3844.8978540050270567
 20
148.6279216419164015
 30
0.0
 11
3844.8978540050270567
 21
154.009599200116412
 31
0.0
  0
LINE
  5
158B2
  8
0
 10
3844.8978540050270567
 20
154.009599200116412
 30
0.0
 11
3844.7140179218267804
 21
153.9188162644163071
 31
0.0
  0
LINE
  5
158B3
  8
0
 10
3844.7140179218267804
 20
153.9188162644163071
 30
0.0
 11
3844.7010036113269962
 21
153.9187974472162921
 31
0.0
  0
LINE
  5
158B4
  8
0
 10
3844.7010036113269962
 20
148.628893405016413
 30
0.0
 11
3844.7010036113269962
 21
154.0086274370162869
 31
0.0
  0
LINE
  5
158B5
  8
0
 10
3844.7010036113269962
 20
154.0086274370162869
 30
0.0
 11
3844.5185630781279542
 21
153.9185336594163118
 31
0.0
  0
LINE
  5
158B6
  8
0
 10
3844.5185630781279542
 20
153.9185336594163118
 30
0.0
 11
3844.5041532176269357
 21
153.9185128244162968
 31
0.0
  0
LINE
  5
158B7
  8
0
 10
3844.5041532176269357
 20
153.9185128244162968
 30
0.0
 11
3844.5041532176269357
 21
154.0076556739163038
 31
0.0
  0
LINE
  5
158B8
  8
0
 10
3844.5041532176269357
 20
154.0076556739163038
 30
0.0
 11
3844.3231082343268099
 21
153.9182510543164142
 31
0.0
  0
LINE
  5
158B9
  8
0
 10
3844.3231082343268099
 20
153.9182510543164142
 30
0.0
 11
3844.3073028239277846
 21
153.9182282016163867
 31
0.0
  0
LINE
  5
158BA
  8
0
 10
3844.3073028239277846
 20
148.6308369312164075
 30
0.0
 11
3844.3073028239277846
 21
154.0066839108162924
 31
0.0
  0
LINE
  5
158BB
  8
0
 10
3844.3073028239277846
 20
154.0066839108162924
 30
0.0
 11
3844.1276533906270743
 21
153.9179684493163904
 31
0.0
  0
LINE
  5
158BC
  8
0
 10
3844.1276533906270743
 20
153.9179684493163904
 30
0.0
 11
3844.1104524302281789
 21
153.9179435787162902
 31
0.0
  0
LINE
  5
158BD
  8
0
 10
3844.1104524302281789
 20
148.7195772633164097
 30
0.0
 11
3844.1276533906270743
 21
148.7195523927163094
 31
0.0
  0
LINE
  5
158BE
  8
0
 10
3844.1276533906270743
 20
148.7195523927163094
 30
0.0
 11
3844.3073028239277846
 21
148.6308369312164075
 31
0.0
  0
LINE
  5
158BF
  8
0
 10
3844.3073028239277846
 20
148.7192926404163131
 30
0.0
 11
3844.3231082343268099
 21
148.7192697876164118
 31
0.0
  0
LINE
  5
158C0
  8
0
 10
3844.3231082343268099
 20
148.7192697876164118
 30
0.0
 11
3844.5041532176269357
 21
148.6298651681163108
 31
0.0
  0
LINE
  5
158C1
  8
0
 10
3844.5041532176269357
 20
148.6298651681163108
 30
0.0
 11
3844.5041532176269357
 21
153.9185128244162968
 31
0.0
  0
LINE
  5
158C2
  8
0
 10
3844.1276533906270743
 20
153.9179684493163904
 30
0.0
 11
3844.1276533906270743
 21
148.7195523927163094
 31
0.0
  0
LINE
  5
158C3
  8
0
 10
3844.3231082343268099
 20
148.7192697876164118
 30
0.0
 11
3844.3231082343268099
 21
153.9182510543164142
 31
0.0
  0
LINE
  5
158C4
  8
0
 10
3844.5185630781279542
 20
153.9185336594163118
 30
0.0
 11
3844.5185630781279542
 21
148.7189871826163881
 31
0.0
  0
LINE
  5
158C5
  8
0
 10
3844.5041532176269357
 20
148.7190080176162894
 30
0.0
 11
3844.5185630781279542
 21
148.7189871826163881
 31
0.0
  0
LINE
  5
158C6
  8
0
 10
3844.5185630781279542
 20
148.7189871826163881
 30
0.0
 11
3844.7010036113269962
 21
148.628893405016413
 31
0.0
  0
LINE
  5
158C7
  8
0
 10
3844.7010036113269962
 20
148.7187233948162941
 30
0.0
 11
3844.7140179218267804
 21
148.7187045776163075
 31
0.0
  0
LINE
  5
158C8
  8
0
 10
3844.7140179218267804
 20
148.7187045776163075
 30
0.0
 11
3844.8978540050270567
 21
148.6279216419164015
 31
0.0
  0
LINE
  5
158C9
  8
0
 10
3844.8978540050270567
 20
148.7184387719163112
 30
0.0
 11
3844.9094727655269708
 21
148.7184219726163121
 31
0.0
  0
LINE
  5
158CA
  8
0
 10
3844.9094727655269708
 20
148.7184219726163121
 30
0.0
 11
3845.0947043987271172
 21
148.6269498787164025
 31
0.0
  0
LINE
  5
158CB
  8
0
 10
3845.0947043987271172
 20
148.7181541491162875
 30
0.0
 11
3845.1049276092271612
 21
148.7181393675163861
 31
0.0
  0
LINE
  5
158CC
  8
0
 10
3845.1049276092271612
 20
148.7181393675163861
 30
0.0
 11
3845.2915547925272222
 21
148.6259781156163911
 31
0.0
  0
LINE
  5
158CD
  8
0
 10
3845.2915547925272222
 20
148.6259781156163911
 30
0.0
 11
3845.2916876568519911
 21
148.7178693342096096
 31
0.0
  0
LINE
  5
158CE
  8
0
 10
3845.3003824529278063
 20
148.7178567625163055
 30
0.0
 11
3845.3003824529278063
 21
153.9196640795163091
 31
0.0
  0
LINE
  5
158CF
  8
0
 10
3845.1049276092271612
 20
148.7181393675163861
 30
0.0
 11
3845.1049276092271612
 21
153.9193814744164115
 31
0.0
  0
LINE
  5
158D0
  8
0
 10
3844.9094727655269708
 20
148.7184219726163121
 30
0.0
 11
3844.9094727655269708
 21
153.9190988694163877
 31
0.0
  0
LINE
  5
158D1
  8
0
 10
3844.7140179218267804
 20
148.7187045776163075
 30
0.0
 11
3844.7140179218267804
 21
153.9188162644163071
 31
0.0
  0
LINE
  5
158D2
  8
0
 10
3845.6852555799268885
 20
148.6240345894163113
 30
0.0
 11
3845.6852555799268885
 21
154.0134862526163033
 31
0.0
  0
LINE
  5
158D3
  8
0
 10
3845.6852555799268885
 20
153.9202205613163983
 30
0.0
 11
3846.1970666035272188
 21
153.9202205613163983
 31
0.0
  0
LINE
  5
158D4
  8
0
 10
3845.4958372966279967
 20
153.9199466845163897
 30
0.0
 11
3845.4958372966279967
 21
148.7175741575163102
 31
0.0
  0
LINE
  5
158D5
  8
0
 10
3845.6852555799268885
 20
148.5786029407163085
 30
0.0
 11
3845.5966729027350084
 21
148.5786029407163085
 31
0.0
  0
LINE
  5
158D6
  8
0
 10
3845.3998225091208951
 20
148.5786029407163085
 30
0.0
 11
3845.4884051862268279
 21
148.5786029407163085
 31
0.0
  0
LINE
  5
158D7
  8
0
 10
3845.2914036215302076
 20
148.5786029407163085
 30
0.0
 11
3845.2029721154108302
 21
148.5786029407163085
 31
0.0
  0
LINE
  5
158D8
  8
0
 10
3845.0947043987271172
 20
148.5786029407163085
 30
0.0
 11
3845.0061217216280056
 21
148.5786029407163085
 31
0.0
  0
LINE
  5
158D9
  8
0
 10
3844.8978540050270567
 20
148.5786029407163085
 30
0.0
 11
3844.80927132793704
 21
148.5786029407163085
 31
0.0
  0
LINE
  5
158DA
  8
0
 10
3844.7010036113269962
 20
148.5786029407163085
 30
0.0
 11
3844.6124209342269751
 21
148.5786029407163085
 31
0.0
  0
LINE
  5
158DB
  8
0
 10
3844.5041532176269357
 20
148.5786029407163085
 30
0.0
 11
3844.4155705405269146
 21
148.5786029407163085
 31
0.0
  0
LINE
  5
158DC
  8
0
 10
3844.3073028239277846
 20
148.5786029407163085
 30
0.0
 11
3844.2187201468568674
 21
148.5786029407163085
 31
0.0
  0
LINE
  5
158DD
  8
0
 10
3844.1103012591679544
 20
148.5786029407163085
 30
0.0
 11
3844.0218697531449834
 21
148.5786029407163085
 31
0.0
  0
LINE
  5
158DE
  8
0
 10
3845.6852555799268885
 20
151.3778155391163978
 30
0.0
 11
3845.5966729027281872
 21
151.3778155391163978
 31
0.0
  0
LINE
  5
158DF
  8
0
 10
3845.5966729027281872
 20
151.3778155391163978
 30
0.0
 11
3845.5966729027281872
 21
151.2597053029163874
 31
0.0
  0
LINE
  5
158E0
  8
0
 10
3845.5966729027281872
 20
151.2597053029163874
 30
0.0
 11
3845.6852555799268885
 21
151.2597053029163874
 31
0.0
  0
LINE
  5
158E1
  8
0
 10
3845.4884051862268279
 20
151.3778155391163978
 30
0.0
 11
3845.3998225090281267
 21
151.3778155391163978
 31
0.0
  0
LINE
  5
158E2
  8
0
 10
3845.3998225090281267
 20
151.3778155391163978
 30
0.0
 11
3845.3998225090281267
 21
151.2597053029163874
 31
0.0
  0
LINE
  5
158E3
  8
0
 10
3845.3998225090281267
 20
151.2597053029163874
 30
0.0
 11
3845.4884051862268279
 21
151.2597053029163874
 31
0.0
  0
LINE
  5
158E4
  8
0
 10
3845.2915547925272222
 20
151.3778155391163978
 30
0.0
 11
3845.2029721153271566
 21
151.3778155391163978
 31
0.0
  0
LINE
  5
158E5
  8
0
 10
3845.2029721153271566
 20
151.3778155391163978
 30
0.0
 11
3845.2029721153271566
 21
151.2597053029163874
 31
0.0
  0
LINE
  5
158E6
  8
0
 10
3845.2029721153271566
 20
151.2597053029163874
 30
0.0
 11
3845.2915547925272222
 21
151.2597053029163874
 31
0.0
  0
LINE
  5
158E7
  8
0
 10
3845.0947043988271616
 20
151.3778155391163978
 30
0.0
 11
3845.0061217216280056
 21
151.3778155391163978
 31
0.0
  0
LINE
  5
158E8
  8
0
 10
3845.0061217216280056
 20
151.3778155391163978
 30
0.0
 11
3845.0061217216280056
 21
151.2597053029163874
 31
0.0
  0
LINE
  5
158E9
  8
0
 10
3845.0061217216280056
 20
151.2597053029163874
 30
0.0
 11
3845.0947043988271616
 21
151.2597053029163874
 31
0.0
  0
LINE
  5
158EA
  8
0
 10
3844.8978540051271011
 20
151.3778155391163978
 30
0.0
 11
3844.8092713279270356
 21
151.3778155391163978
 31
0.0
  0
LINE
  5
158EB
  8
0
 10
3844.8092713279270356
 20
151.3778155391163978
 30
0.0
 11
3844.8092713279270356
 21
151.2597053029163874
 31
0.0
  0
LINE
  5
158EC
  8
0
 10
3844.8092713279270356
 20
151.2597053029163874
 30
0.0
 11
3844.8978540051271011
 21
151.2597053029163874
 31
0.0
  0
LINE
  5
158ED
  8
0
 10
3844.7010036114270406
 20
151.3778155391163978
 30
0.0
 11
3844.6124209342269751
 21
151.3778155391163978
 31
0.0
  0
LINE
  5
158EE
  8
0
 10
3844.6124209342269751
 20
151.3778155391163978
 30
0.0
 11
3844.6124209342269751
 21
151.2597053029163874
 31
0.0
  0
LINE
  5
158EF
  8
0
 10
3844.6124209342269751
 20
151.2597053029163874
 30
0.0
 11
3844.7010036114270406
 21
151.2597053029163874
 31
0.0
  0
LINE
  5
158F0
  8
0
 10
3844.5041532177278896
 20
151.3778155391163978
 30
0.0
 11
3844.4155705405269146
 21
151.3778155391163978
 31
0.0
  0
LINE
  5
158F1
  8
0
 10
3844.4155705405269146
 20
151.3778155391163978
 30
0.0
 11
3844.4155705405269146
 21
151.2597053029163874
 31
0.0
  0
LINE
  5
158F2
  8
0
 10
3844.4155705405269146
 20
151.2597053029163874
 30
0.0
 11
3844.5041532177278896
 21
151.2597053029163874
 31
0.0
  0
LINE
  5
158F3
  8
0
 10
3844.307302824027829
 20
151.3778155391163978
 30
0.0
 11
3844.218720146826854
 21
151.3778155391163978
 31
0.0
  0
LINE
  5
158F4
  8
0
 10
3844.218720146826854
 20
151.3778155391163978
 30
0.0
 11
3844.218720146826854
 21
151.2597053029163874
 31
0.0
  0
LINE
  5
158F5
  8
0
 10
3844.218720146826854
 20
151.2597053029163874
 30
0.0
 11
3844.307302824027829
 21
151.2597053029163874
 31
0.0
  0
LINE
  5
158F6
  8
0
 10
3844.1104524303282233
 20
151.3778155391163978
 30
0.0
 11
3844.0218697531267935
 21
151.3778155391163978
 31
0.0
  0
LINE
  5
158F7
  8
0
 10
3844.0218697531267935
 20
151.3778155391163978
 30
0.0
 11
3844.0218697531267935
 21
151.2597053029163874
 31
0.0
  0
LINE
  5
158F8
  8
0
 10
3844.0218697531267935
 20
151.2597053029163874
 30
0.0
 11
3844.1104524303282233
 21
151.2597053029163874
 31
0.0
  0
LINE
  5
158F9
  8
0
 10
3846.1970666035272188
 20
147.317138420916308
 30
0.0
 11
3846.1416695318271195
 21
147.3166549780164019
 31
0.0
  0
LINE
  5
158FA
  8
0
 10
3846.1416695318271195
 20
147.3166549780164019
 30
0.0
 11
3846.1970666035272188
 21
140.9687793099164139
 31
0.0
  0
LINE
  5
158FB
  8
0
 10
3846.1447089974058144
 20
146.9683667202164088
 30
0.0
 11
3846.1238637616270353
 21
146.9683667202164088
 31
0.0
  0
LINE
  5
158FC
  8
0
 10
3846.1238637616270353
 20
146.9683667202164088
 30
0.0
 11
3846.1340399524269742
 21
146.8844553824164052
 31
0.0
  0
LINE
  5
158FD
  8
0
 10
3846.1340399524269742
 20
146.8844553824164052
 30
0.0
 11
3846.1455416378771588
 21
146.8729555725666955
 31
0.0
  0
ARC
  5
158FF
  8
0
 10
3846.1840234375918044
 20
134.3541424519806071
 30
0.0
 40
0.1298702298937832
 50
179.9774823453929002
 51
270.0225176546038028
  0
ARC
  5
15900
  8
0
 10
3846.1840744775267922
 20
134.4408076651164095
 30
0.0
 40
0.1299212598000068
 50
90.0
 51
180.0000000000015916
  0
LINE
  5
15901
  8
0
 10
3846.054153217727162
 20
134.4408076651164095
 30
0.0
 11
3846.0541532176271176
 21
134.3541934919163054
 31
0.0
  0
LINE
  5
15902
  8
0
 10
3846.1840234375918044
 20
134.2242722220867961
 30
0.0
 11
3846.1970666035272188
 21
134.2242598508337892
 31
0.0
  0
LINE
  5
15903
  8
0
 10
3846.1840790891269535
 20
134.5707289249164091
 30
0.0
 11
3846.1970666035272188
 21
134.5707289249164091
 31
0.0
  0
ARC
  5
15904
  8
0
 10
3850.1931295954568668
 20
154.7636423108870929
 30
0.0
 40
0.039370078870725
 50
270.0000002484613901
 51
359.9999998970741899
  0
ARC
  5
15905
  8
0
 10
3850.1931295954568668
 20
154.7636423108870076
 30
0.0
 40
0.2362204725706967
 50
270.0000000414016199
 51
359.9999999828525006
  0
LINE
  5
15906
  8
0
 10
3850.2324996743282099
 20
154.7636423108870929
 30
0.0
 11
3850.2324996743282099
 21
156.4565556966163058
 31
0.0
  0
LINE
  5
15907
  8
0
 10
3850.2324996743282099
 20
156.4565556966163058
 30
0.0
 11
3850.4293500680278157
 21
156.4565556966163058
 31
0.0
  0
LINE
  5
15908
  8
0
 10
3850.4293500680278157
 20
156.4565556966163058
 30
0.0
 11
3850.4293500680278157
 21
154.7636423108870076
 31
0.0
  0
LINE
  5
15909
  8
0
 10
3849.4254130602271289
 20
154.724272232066312
 30
0.0
 11
3850.1931295956269423
 21
154.724272232066312
 31
0.0
  0
LINE
  5
1590A
  8
0
 10
3850.1931295956269423
 20
154.5274218384163873
 30
0.0
 11
3849.4591030620122183
 21
154.5274281765487956
 31
0.0
  0
ENDSEC
  0
EOF
