  0
SECTION
  2
HEADER
  9
$ACADVER
  1
AC1009
  9
$INSBASE
 10
3856.0143567190598333
 20
270.1075083761085125
 30
0.0
  9
$EXTMIN
 10
3811.1139694749631417
 20
250.9634948914645065
 30
0.0
  9
$EXTMAX
 10
3871.8285057541102105
 20
288.7966052195852171
 30
0.0
  9
$LIMMIN
 10
0.0
 20
0.0
  9
$LIMMAX
 10
11.6929133858000007
 20
8.2677165353999982
  9
$ORTHOMODE
 70
     0
  9
$REGENMODE
 70
     1
  9
$FILLMODE
 70
     1
  9
$QTEXTMODE
 70
     0
  9
$MIRRTEXT
 70
     0
  9
$DRAGMODE
 70
     2
  9
$LTSCALE
 40
0.6431102362
  9
$OSMODE
 70
  4095
  9
$ATTMODE
 70
     1
  9
$TEXTSIZE
 40
0.2
  9
$TRACEWID
 40
0.05
  9
$TEXTSTYLE
  7
STANDARD
  9
$CLAYER
  8
0
  9
$CELTYPE
  6
BYLAYER
  9
$CECOLOR
 62
   256
  9
$DIMSCALE
 40
1.0
  9
$DIMASZ
 40
0.1875
  9
$DIMEXO
 40
0.0625
  9
$DIMDLI
 40
0.4443307087
  9
$DIMRND
 40
0.0
  9
$DIMDLE
 40
0.0
  9
$DIMEXE
 40
0.125
  9
$DIMTP
 40
0.01
  9
$DIMTM
 40
0.01
  9
$DIMTXT
 40
2.0
  9
$DIMCEN
 40
0.1052362205
  9
$DIMTSZ
 40
0.0
  9
$DIMTOL
 70
     1
  9
$DIMLIM
 70
     0
  9
$DIMTIH
 70
     1
  9
$DIMTOH
 70
     1
  9
$DIMSE1
 70
     0
  9
$DIMSE2
 70
     0
  9
$DIMTAD
 70
     0
  9
$DIMZIN
 70
     0
  9
$DIMBLK
  1

  9
$DIMASO
 70
     1
  9
$DIMSHO
 70
     1
  9
$DIMPOST
  1
\X
  9
$DIMAPOST
  1

  9
$DIMALT
 70
     1
  9
$DIMALTD
 70
     2
  9
$DIMALTF
 40
25.3999999999999986
  9
$DIMLFAC
 40
1.0
  9
$DIMTOFL
 70
     0
  9
$DIMTVP
 40
0.0
  9
$DIMTIX
 70
     0
  9
$DIMSOXD
 70
     0
  9
$DIMSAH
 70
     0
  9
$DIMBLK1
  1

  9
$DIMBLK2
  1

  9
$DIMSTYLE
  2
STANDARD
  9
$DIMCLRD
 70
     0
  9
$DIMCLRE
 70
     0
  9
$DIMCLRT
 70
     0
  9
$DIMTFAC
 40
1.0
  9
$DIMGAP
 40
0.09
  9
$LUNITS
 70
     2
  9
$LUPREC
 70
     4
  9
$SKETCHINC
 40
0.1
  9
$FILLETRAD
 40
0.0
  9
$AUNITS
 70
     0
  9
$AUPREC
 70
     0
  9
$MENU
  1
.
  9
$ELEVATION
 40
0.0
  9
$PELEVATION
 40
0.0
  9
$THICKNESS
 40
0.0
  9
$LIMCHECK
 70
     0
  9
$BLIPMODE
 70
     0
  9
$CHAMFERA
 40
0.0
  9
$CHAMFERB
 40
0.0
  9
$SKPOLY
 70
     0
  9
$TDCREATE
 40
2458060.468368056230247
  9
$TDUPDATE
 40
2459114.5656134258024395
  9
$TDINDWG
 40
0.8148450231
  9
$TDUSRTIMER
 40
0.8148450231
  9
$USRTIMER
 70
     1
  9
$ANGBASE
 50
0.0
  9
$ANGDIR
 70
     0
  9
$PDMODE
 70
     0
  9
$PDSIZE
 40
0.3125
  9
$PLINEWID
 40
0.0
  9
$COORDS
 70
     1
  9
$SPLFRAME
 70
     0
  9
$SPLINETYPE
 70
     6
  9
$SPLINESEGS
 70
     8
  9
$ATTDIA
 70
     1
  9
$ATTREQ
 70
     1
  9
$HANDLING
 70
     1
  9
$HANDSEED
  5
163C1
  9
$SURFTAB1
 70
     6
  9
$SURFTAB2
 70
     6
  9
$SURFTYPE
 70
     6
  9
$SURFU
 70
     6
  9
$SURFV
 70
     6
  9
$UCSNAME
  2

  9
$UCSORG
 10
0.0
 20
0.0
 30
0.0
  9
$UCSXDIR
 10
1.0
 20
0.0
 30
0.0
  9
$UCSYDIR
 10
0.0
 20
1.0
 30
0.0
  9
$PUCSNAME
  2

  9
$PUCSORG
 10
0.0
 20
0.0
 30
0.0
  9
$PUCSXDIR
 10
1.0
 20
0.0
 30
0.0
  9
$PUCSYDIR
 10
0.0
 20
1.0
 30
0.0
  9
$USERI1
 70
     0
  9
$USERI2
 70
     0
  9
$USERI3
 70
     0
  9
$USERI4
 70
     0
  9
$USERI5
 70
     0
  9
$USERR1
 40
0.0
  9
$USERR2
 40
0.0
  9
$USERR3
 40
0.0
  9
$USERR4
 40
0.0
  9
$USERR5
 40
0.0
  9
$WORLDVIEW
 70
     1
  9
$SHADEDGE
 70
     3
  9
$SHADEDIF
 70
    70
  9
$TILEMODE
 70
     1
  9
$MAXACTVP
 70
    64
  9
$PLIMCHECK
 70
     0
  9
$PEXTMIN
 10
1.0000000000000000E+20
 20
1.0000000000000000E+20
 30
1.0000000000000000E+20
  9
$PEXTMAX
 10
-1.0000000000000000E+20
 20
-1.0000000000000000E+20
 30
-1.0000000000000000E+20
  9
$PLIMMIN
 10
0.0
 20
0.0
  9
$PLIMMAX
 10
12.0
 20
9.0
  9
$UNITMODE
 70
     0
  9
$VISRETAIN
 70
     1
  9
$PLINEGEN
 70
     0
  9
$PSLTSCALE
 70
     1
  0
ENDSEC
  0
SECTION
  2
TABLES
  0
TABLE
  2
VPORT
 70
     1
  0
VPORT
  2
*ACTIVE
 70
     0
 10
0.0
 20
0.0
 11
1.0
 21
1.0
 12
285.0419244624231965
 22
91.8908758417069151
 13
0.0
 23
0.0
 14
1.0
 24
1.0
 15
0.0
 25
0.0
 16
0.0
 26
0.0
 36
164.6715580216130093
 17
3560.6256103515629547
 27
166.8485788232432867
 37
0.0
 40
108.4536337762344971
 41
2.005224660397074
 42
50.0
 43
0.0
 44
0.0
 50
0.0
 51
0.0
 71
     0
 72
  1000
 73
     1
 74
     1
 75
     0
 76
     0
 77
     0
 78
     0
  0
ENDTAB
  0
TABLE
  2
LTYPE
 70
     2
  0
LTYPE
  2
CONTINUOUS
 70
     0
  3
Solid line
 72
    65
 73
     0
 40
0.0
  0
LTYPE
  2
PHANTOM2
 70
     0
  3
___ _ _ ___ _ _ ___ _ _ ___ _ _
 72
    65
 73
     6
 40
1.25
 49
0.625
 49
-0.125
 49
0.125
 49
-0.125
 49
0.125
 49
-0.125
  0
ENDTAB
  0
TABLE
  2
LAYER
 70
     2
  0
LAYER
  2
0
 70
     0
 62
   255
  6
CONTINUOUS
  0
LAYER
  2
DEFPOINTS
 70
     0
 62
     7
  6
CONTINUOUS
  0
ENDTAB
  0
TABLE
  2
STYLE
 70
     1
  0
STYLE
  2
STANDARD
 70
     0
 40
0.0
 41
0.8
 50
0.0
 71
     0
 42
0.2
  3
txt
  4

  0
ENDTAB
  0
TABLE
  2
VIEW
 70
     0
  0
ENDTAB
  0
TABLE
  2
UCS
 70
     0
  0
ENDTAB
  0
TABLE
  2
APPID
 70
    10
  0
APPID
  2
ACAD
 70
     0
  0
APPID
  2
ACAD_MLEADERVER
 70
     0
  0
APPID
  2
ACAD_EXEMPT_FROM_CAD_STANDARDS
 70
     0
  0
APPID
  2
ACAD_NAV_VCDISPLAY
 70
     0
  0
APPID
  2
ACAECLAYERSTANDARD
 70
     0
  0
APPID
  2
ACCMTRANSPARENCY
 70
     0
  0
APPID
  2
ACAD_DSTYLE_DIMJAG
 70
     0
  0
APPID
  2
ACAD_DSTYLE_DIMTALN
 70
     0
  0
APPID
  2
ACDBATTR
 70
     0
  0
APPID
  2
ACAD_PSEXT
 70
     0
  0
ENDTAB
  0
TABLE
  2
DIMSTYLE
 70
     1
  0
DIMSTYLE
  2
STANDARD
 70
     0
  3

  4

  5

  6

  7

 40
1.0
 41
0.1875
 42
0.0625
 43
0.38
 44
0.125
 45
0.0
 46
0.0
 47
0.01
 48
0.01
140
0.15625
141
0.09
142
0.0
143
25.3999999999999986
144
1.0
145
0.0
146
1.0
147
0.09
 71
     1
 72
     0
 73
     1
 74
     1
 75
     0
 76
     0
 77
     0
 78
     4
170
     0
171
     2
172
     0
173
     0
174
     0
175
     0
176
     0
177
     0
178
     0
  0
ENDTAB
  0
ENDSEC
  0
SECTION
  2
BLOCKS
  0
BLOCK
  8
0
  2
$MODEL_SPACE
 70
     0
 10
0.0
 20
0.0
 30
0.0
  3
$MODEL_SPACE
  1

  0
ENDBLK
  5
21
  8
0
  0
BLOCK
 67
     1
  8
0
  2
$PAPER_SPACE
 70
     0
 10
0.0
 20
0.0
 30
0.0
  3
$PAPER_SPACE
  1

  0
ENDBLK
  5
1D
 67
     1
  8
0
  0
BLOCK
  8
0
  2
_FILLED
 70
     0
 10
0.0
 20
0.0
 30
0.0
  3
_FILLED
  1

  0
SOLID
  5
B630
  8
0
  6
BYBLOCK
 62
     0
 10
0.0
 20
0.0
 30
0.0
 11
-1.0
 21
0.1666666667
 31
0.0
 12
-1.0
 22
-0.1666666667
 32
0.0
 13
-1.0
 23
-0.1666666667
 33
0.0
  0
ENDBLK
  5
B631
  8
0
  6
BYBLOCK
 62
     0
  0
BLOCK
  8
0
  2
_CLOSED
 70
     0
 10
0.0
 20
0.0
 30
0.0
  3
_CLOSED
  1

  0
LINE
  5
ECF3
  8
0
  6
BYBLOCK
 62
     0
 10
0.0
 20
0.0
 30
0.0
 11
-1.0
 21
0.1666666667
 31
0.0
  0
LINE
  5
ECF4
  8
0
  6
BYBLOCK
 62
     0
 10
-1.0
 20
0.1666666667
 30
0.0
 11
-1.0
 21
-0.1666666667
 31
0.0
  0
LINE
  5
ECF5
  8
0
  6
BYBLOCK
 62
     0
 10
-1.0
 20
-0.1666666667
 30
0.0
 11
0.0
 21
0.0
 31
0.0
  0
LINE
  5
ECF6
  8
0
  6
BYBLOCK
 62
     0
 10
-1.0
 20
0.0
 30
0.0
 11
0.0
 21
0.0
 31
0.0
  0
ENDBLK
  5
ECF7
  8
0
  6
BYBLOCK
 62
     0
  0
BLOCK
  8
0
  2
A$C1E043E12
 70
     0
 10
0.0
 20
0.0
 30
0.0
  3
A$C1E043E12
  1

  0
LINE
  5
15CCE
  8
0
 10
134.169756797823112
 20
257.6585376049907836
 30
0.0
 11
134.169756797823112
 21
258.0716781329908258
 31
0.0
  0
LINE
  5
15CCF
  8
0
 10
134.169756797823112
 20
258.1509088879907949
 30
0.0
 11
134.169756797823112
 21
258.3671990222907766
 31
0.0
  0
LINE
  5
15CD0
  8
0
 10
133.9369674275230864
 20
258.4059748173908133
 30
0.0
 11
133.8685756954230897
 21
260.6703486285907729
 31
0.0
  0
LINE
  5
15CD1
  8
0
 10
133.8685756954230897
 20
260.6703486285907729
 30
0.0
 11
136.2110950301230901
 21
260.6703486285907729
 31
0.0
  0
LINE
  5
15CD2
  8
0
 10
136.2110950301230901
 20
260.6703486285907729
 30
0.0
 11
136.1427036484230939
 21
258.4059748173908133
 31
0.0
  0
LINE
  5
15CD3
  8
0
 10
135.9099142781230967
 20
257.6585376049907836
 30
0.0
 11
135.9099142781230967
 21
258.0716781329908258
 31
0.0
  0
LINE
  5
15CD4
  8
0
 10
135.870544199423108
 20
257.6191675262908234
 30
0.0
 11
134.2091268765231007
 21
257.6191675262908234
 31
0.0
  0
LINE
  5
15CD5
  8
0
 10
134.178193244608309
 20
258.082996812590693
 30
0.0
 11
135.9014778313378997
 21
258.082996812590693
 31
0.0
  0
LINE
  5
15CD6
  8
0
 10
135.9014778313378997
 20
258.139590208390814
 30
0.0
 11
134.1781941412261858
 21
258.1395899410554193
 31
0.0
  0
LINE
  5
15CD7
  8
0
 10
133.9566438141231117
 20
258.3868840616906937
 30
0.0
 11
136.1230275817231075
 21
258.3868840616906937
 31
0.0
  0
ARC
  5
15CD8
  8
0
 10
136.1230275817646884
 20
258.4065691009881789
 30
0.0
 40
0.0196850392974
 50
269.9999998789268147
 51
358.2700000833501122
  0
ARC
  5
15CD9
  8
0
 10
133.9566434941860109
 20
258.4065691009902253
 30
0.0
 40
0.0196850393020107
 50
181.7299999220994948
 51
270.0009312169548821
  0
ARC
  5
15CDA
  8
0
 10
134.1815678212186924
 20
258.0716781330585263
 30
0.0
 40
0.011811023395646
 50
106.6015419926420975
 51
180.0000003288317032
  0
ARC
  5
15CDB
  8
0
 10
134.169756797823112
 20
258.111293510490782
 30
0.0
 40
0.0295275590999991
 50
286.6015522881911011
 51
73.396632211512852
  0
ARC
  5
15CDC
  8
0
 10
134.1815678215916989
 20
258.1509088881467164
 30
0.0
 40
0.0118110237686195
 50
180.0000007563992028
 51
253.402995334268212
  0
ARC
  5
15CDD
  8
0
 10
134.2091268765231007
 20
257.6585376049907836
 30
0.0
 40
0.0393700786999958
 50
179.9999999999951115
 51
270.0000000000064801
  0
ARC
  5
15CDE
  8
0
 10
135.870544199423108
 20
257.6585376049907836
 30
0.0
 40
0.0393700786999958
 50
269.9999999999968168
 51
0.0000000000048853
  0
ARC
  5
15CDF
  8
0
 10
135.8981032545231074
 20
258.0716781329908258
 30
0.0
 40
0.0118110236000018
 50
0.0
 51
73.3984504008951433
  0
ARC
  5
15CE0
  8
0
 10
135.9099142778518114
 20
258.111293510692974
 30
0.0
 40
0.029527558828666
 50
106.6015518957307933
 51
253.3984508513061087
  0
ARC
  5
15CE1
  8
0
 10
135.8981032544857044
 20
258.1509088881031744
 30
0.0
 40
0.0118110236373837
 50
286.6015428666070193
 51
359.9999999398339128
  0
ARC
  5
15CE2
  8
0
 10
135.929599317523099
 20
258.3671990222907766
 30
0.0
 40
0.0196850393999952
 50
89.9999999999837144
 51
180.0
  0
LINE
  5
15CE3
  8
0
 10
135.9099142781230967
 20
258.1509088881031744
 30
0.0
 11
135.9099142781230967
 21
258.3671990222907766
 31
0.0
  0
ARC
  5
15CE4
  8
0
 10
134.1500717584231097
 20
258.3671990222907766
 30
0.0
 40
0.0196850394000006
 50
0.0000000000407111
 51
90.0
  0
ARC
  5
15CE5
  8
0
 10
126.6870426476010039
 20
271.0142057498308077
 30
0.0
 40
0.0199307485844151
 50
263.1074471507059798
 51
359.7077275234801164
  0
ARC
  5
15CE6
  8
0
 10
126.5582508977324068
 20
271.0129359377787068
 30
0.0
 40
0.0185769426411357
 50
274.60799462911001
 51
3.6052150631038771
  0
ARC
  5
15CE7
  8
0
 10
126.5582505952178991
 20
271.2121223563402737
 30
0.0
 40
0.0185772280864829
 50
356.3956499505296165
 51
85.3911393630269657
  0
ARC
  5
15CE8
  8
0
 10
126.6870426476564973
 20
271.2108528062736923
 30
0.0
 40
0.0199307485288419
 50
0.292272411296593
 51
96.892551972482309
  0
ARC
  5
15CE9
  8
0
 10
126.5811725278230995
 20
272.0322070338028766
 30
0.0
 40
0.7686748413104314
 50
268.6599510998473193
 51
277.4947750819246721
  0
ARC
  5
15CEA
  8
0
 10
126.5266133876677941
 20
269.3640570553545786
 30
0.0
 40
1.91231969370133
 50
85.3562466772052915
 51
93.06216189823175
  0
ARC
  5
15CEB
  8
0
 10
126.4186404873974965
 20
273.605922609079812
 30
0.0
 40
2.3446758377240631
 50
273.458176893955283
 51
274.9852136519907049
  0
ARC
  5
15CEC
  8
0
 10
126.5266279816233066
 20
269.5485940468905142
 30
0.0
 40
1.724177078306131
 50
86.8161132446429491
 51
93.3867282073324247
  0
ARC
  5
15CED
  8
0
 10
126.2781714443617034
 20
271.3676429072498877
 30
0.0
 40
0.0836224557195892
 50
234.3963833710467952
 51
266.810568059357422
  0
ARC
  5
15CEE
  8
0
 10
126.4815341159911952
 20
269.8223163038344978
 30
0.0
 40
1.5074087002275489
 50
92.1575214373028615
 51
97.5416245787484968
  0
ARC
  5
15CEF
  8
0
 10
126.300544829398504
 20
271.1430324312897255
 30
0.0
 40
0.1744689937813914
 50
95.5430922463724244
 51
113.0807676002129938
  0
ARC
  5
15CF0
  8
0
 10
126.2349129538563943
 20
271.2987898958725737
 30
0.0
 40
0.005492512511905
 50
120.2249995373588973
 51
170.9642622488599102
  0
ARC
  5
15CF1
  8
0
 10
126.4815583221028987
 20
269.3045534658037923
 30
0.0
 40
2.0292328693725121
 50
91.6130774997376278
 51
97.1850957711540673
  0
ARC
  5
15CF2
  8
0
 10
126.3453890920367968
 20
272.0669785725161773
 30
0.0
 40
0.7942817704257966
 50
260.4790555068717026
 51
263.9345732268805023
  0
ARC
  5
15CF3
  8
0
 10
126.2327531898565951
 20
271.4261521014444156
 30
0.0
 40
0.1437416831900667
 50
245.9004959340987
 51
262.5069524201387026
  0
ARC
  5
15CF4
  8
0
 10
126.2697068831724039
 20
271.003346217960825
 30
0.0
 40
0.3172911825474492
 50
97.5984306279185745
 51
105.1097551355930051
  0
ARC
  5
15CF5
  8
0
 10
126.1996910462473949
 20
271.2610709612761184
 30
0.0
 40
0.0502271908633519
 50
104.6369775295358977
 51
122.1267008058268999
  0
ARC
  5
15CF6
  8
0
 10
126.1765795459312045
 20
271.3006159998573139
 30
0.0
 40
0.0062106561140098
 50
188.784433236699698
 51
246.0683827907784007
  0
ARC
  5
15CF7
  8
0
 10
126.176031937788693
 20
271.2988527905501996
 30
0.0
 40
0.0056492555415577
 50
122.6930008090882041
 51
171.7078985003556966
  0
LINE
  5
15CF8
  8
0
 10
126.7524337879731036
 20
271.388119829190714
 30
0.0
 11
126.7524337879731036
 21
271.3487497504908106
 31
0.0
  0
LINE
  5
15CF9
  8
0
 10
126.7524337879731036
 20
271.3487497504908106
 30
0.0
 11
126.0831424493730992
 21
271.3487497504908106
 31
0.0
  0
LINE
  5
15CFA
  8
0
 10
126.0831424493730992
 20
271.3487497504908106
 30
0.0
 11
126.0831424493730992
 21
271.388119829190714
 31
0.0
  0
LINE
  5
15CFB
  8
0
 10
126.1704419762117055
 20
271.2996660070850794
 30
0.0
 11
126.1704419762117055
 21
271.3487497504908106
 31
0.0
  0
LINE
  5
15CFC
  8
0
 10
126.4247847695548046
 20
271.3286564052726817
 30
0.0
 11
126.4244358339731065
 21
271.3329821826907846
 31
0.0
  0
LINE
  5
15CFD
  8
0
 10
126.4244358339731065
 20
271.3329821826907846
 30
0.0
 11
126.4244358339731065
 21
271.3487497504908106
 31
0.0
  0
LINE
  5
15CFE
  8
0
 10
126.4247847695548046
 20
271.3286564052726817
 30
0.0
 11
126.4247847695548046
 21
271.3487497504908106
 31
0.0
  0
LINE
  5
15CFF
  8
0
 10
126.5904282217730952
 20
271.3233838857906903
 30
0.0
 11
126.590437292873105
 21
271.3265614852907106
 31
0.0
  0
LINE
  5
15D00
  8
0
 10
126.590437292873105
 20
271.3265614852907106
 30
0.0
 11
126.5600254863827985
 21
271.3442608199566735
 31
0.0
  0
LINE
  5
15D01
  8
0
 10
126.5600254863827985
 20
271.3442608199566735
 30
0.0
 11
126.567770915373103
 21
271.3487497504908106
 31
0.0
  0
ARC
  5
15D02
  8
0
 10
126.3936867203029948
 20
272.7531724489306839
 30
0.0
 40
1.418696753518025
 50
271.2561414035131975
 51
276.7332775126737943
  0
ARC
  5
15D03
  8
0
 10
126.5283243815576952
 20
269.7322562069974765
 30
0.0
 40
1.592339448339736
 50
84.4818593737244612
 51
93.740881514226885
  0
LINE
  5
15D04
  8
0
 10
126.6814352301730935
 20
271.2700991659907004
 30
0.0
 11
126.6814558673731028
 21
271.3172163406907771
 31
0.0
  0
LINE
  5
15D05
  8
0
 10
126.4247719737731046
 20
271.2697599165907718
 30
0.0
 11
126.4244231109730947
 21
271.2740847124907759
 31
0.0
  0
LINE
  5
15D06
  8
0
 10
126.4244230368730939
 20
271.2740857115908284
 30
0.0
 11
126.4244332753731044
 21
271.3212028708907724
 31
0.0
  0
LINE
  5
15D07
  8
0
 10
126.5677779401731016
 20
271.2306395142907718
 30
0.0
 11
126.590437292873105
 21
271.2438843198908103
 31
0.0
  0
LINE
  5
15D08
  8
0
 10
126.590437292873105
 20
271.2438843198908103
 30
0.0
 11
126.590437292873105
 21
271.2478213277908026
 31
0.0
  0
LINE
  5
15D09
  8
0
 10
126.590437292873105
 20
271.2478213277908026
 30
0.0
 11
126.5600711016731026
 21
271.265516248290794
 31
0.0
  0
LINE
  5
15D0A
  8
0
 10
126.2493103540731028
 20
271.2306395142907718
 30
0.0
 11
126.2755333930629007
 21
271.2458309472701785
 31
0.0
  0
LINE
  5
15D0B
  8
0
 10
126.2755333930629007
 20
271.2458309472701785
 30
0.0
 11
126.2451389444730978
 21
271.2635693592907842
 31
0.0
  0
LINE
  5
15D0C
  8
0
 10
126.2451389444730978
 20
271.2635693592907842
 30
0.0
 11
126.2451389444730978
 21
271.2675063671907765
 31
0.0
  0
LINE
  5
15D0D
  8
0
 10
126.2451389444730978
 20
271.2675063671907765
 30
0.0
 11
126.2762977653731014
 21
271.2857811659907838
 31
0.0
  0
LINE
  5
15D0E
  8
0
 10
126.2762977653731014
 20
271.2857811659907838
 30
0.0
 11
126.2455037945730965
 21
271.3026424763908153
 31
0.0
  0
LINE
  5
15D0F
  8
0
 10
126.2455037945730965
 20
271.3026424763908153
 30
0.0
 11
126.2451389444730978
 21
271.3068764458907935
 31
0.0
  0
ARC
  5
15D10
  8
0
 10
126.4617046684598023
 20
269.0552348456399727
 30
0.0
 40
2.2620324066612918
 50
90.9441257453198091
 51
95.4938808064847819
  0
ARC
  5
15D11
  8
0
 10
126.4803988209662009
 20
269.2945808682297866
 30
0.0
 40
2.0016332997574038
 50
91.6023556924964595
 51
95.8524651288278591
  0
ARC
  5
15D12
  8
0
 10
135.7897767638638982
 20
135.7897766918059972
 30
0.0
 40
135.7897767189344052
 50
93.8974305083307854
 51
94.0177767254858168
  0
LINE
  5
15D13
  8
0
 10
126.590437292873105
 20
271.245852823840778
 30
0.0
 11
126.292880648973096
 21
271.2306395142907718
 31
0.0
  0
LINE
  5
15D14
  8
0
 10
126.2451389444730978
 20
271.2655378632406951
 30
0.0
 11
126.4244234322119951
 21
271.2759050450189875
 31
0.0
  0
LINE
  5
15D15
  8
0
 10
126.2453079155726954
 20
271.3049155899611264
 30
0.0
 11
126.4244314972624039
 21
271.3130231349231281
 31
0.0
  0
ARC
  5
15D16
  8
0
 10
126.5737104208523931
 20
271.3781104367482726
 30
0.0
 40
0.0541958913988103
 50
270.969378813835192
 51
287.9771218459271722
  0
LINE
  5
15D17
  8
0
 10
126.6846508022730973
 20
270.9944190417908203
 30
0.0
 11
126.1499447517517041
 21
270.9944523556511058
 31
0.0
  0
LINE
  5
15D18
  8
0
 10
126.6846508026015954
 20
271.2306395142907718
 30
0.0
 11
126.1509254350731055
 21
271.2306395142907718
 31
0.0
  0
LINE
  5
15D19
  8
0
 10
126.5767910763730981
 20
271.0141040811907942
 30
0.0
 11
126.5767910767731053
 21
271.2109544748907979
 31
0.0
  0
LINE
  5
15D1A
  8
0
 10
126.7069731368731027
 20
271.2109544748907979
 30
0.0
 11
126.7069731368731027
 21
271.0141040811907942
 31
0.0
  0
ARC
  5
15D1B
  8
0
 10
126.1485335898451012
 20
271.0142057498308077
 30
0.0
 40
0.0199307485844151
 50
180.2922724765199121
 51
276.8925528492939065
  0
ARC
  5
15D1C
  8
0
 10
126.2773253397137978
 20
271.0129359377787068
 30
0.0
 40
0.0185769426411357
 50
176.3947849368960874
 51
265.3920053708898763
  0
ARC
  5
15D1D
  8
0
 10
126.277325642228206
 20
271.2121223563402737
 30
0.0
 40
0.0185772280864829
 50
94.6088606369730343
 51
183.6043500494687066
  0
ARC
  5
15D1E
  8
0
 10
126.1485335897896931
 20
271.2108528062736923
 30
0.0
 40
0.0199307485288419
 50
83.1074480275176768
 51
179.707727588703392
  0
LINE
  5
15D1F
  8
0
 10
126.2587851610731065
 20
271.0141040811907942
 30
0.0
 11
126.2587851606730993
 21
271.2109544748907979
 31
0.0
  0
LINE
  5
15D20
  8
0
 10
126.1286031005731019
 20
271.2109544748907979
 30
0.0
 11
126.1286031005731019
 21
271.0141040811907942
 31
0.0
  0
LINE
  5
15D21
  8
0
 10
126.5678851415731003
 20
270.9944190417908203
 30
0.0
 11
126.5601357440730936
 21
270.9899322348907731
 31
0.0
  0
LINE
  5
15D22
  8
0
 10
126.5601357440730936
 20
270.9899322348907731
 30
0.0
 11
126.5667538247003989
 21
270.9859044329181188
 31
0.0
  0
LINE
  5
15D23
  8
0
 10
126.5667538247003989
 20
270.9859044329181188
 30
0.0
 11
126.5358983548730976
 21
270.9550489630906895
 31
0.0
  0
LINE
  5
15D24
  8
0
 10
126.5358983548730976
 20
270.9550489630906895
 30
0.0
 11
126.2996778824731052
 21
270.9550489630906895
 31
0.0
  0
LINE
  5
15D25
  8
0
 10
126.2996778824731052
 20
270.9550489630906895
 30
0.0
 11
126.2603078037731024
 21
270.9944190417908203
 31
0.0
  0
LINE
  5
15D26
  8
0
 10
126.5667538251386048
 20
270.9859044326515232
 30
0.0
 11
126.3912537411172963
 21
270.978960372779909
 31
0.0
  0
LINE
  5
15D27
  8
0
 10
126.5601359935112953
 20
270.9899323793125063
 30
0.0
 11
126.3912537672777034
 21
270.9789603755627923
 31
0.0
  0
LINE
  5
15D28
  8
0
 10
126.6244810320230982
 20
271.5849702228907745
 30
0.0
 11
126.6244810320731062
 21
274.5377261283907728
 31
0.0
  0
LINE
  5
15D29
  8
0
 10
126.6244810320731062
 20
274.5377261283907728
 30
0.0
 11
126.2110952052730966
 21
274.5377261283907728
 31
0.0
  0
LINE
  5
15D2A
  8
0
 10
126.2110952052730966
 20
274.5377261283907728
 30
0.0
 11
126.2110952052730966
 21
271.5849702228907745
 31
0.0
  0
LINE
  5
15D2B
  8
0
 10
126.590437292873105
 20
274.5377261283907728
 30
0.0
 11
126.590437292873105
 21
274.5770962071907775
 31
0.0
  0
LINE
  5
15D2C
  8
0
 10
126.590437292873105
 20
274.5770962071907775
 30
0.0
 11
126.2451389444730978
 21
274.5770962071907775
 31
0.0
  0
LINE
  5
15D2D
  8
0
 10
126.2451389444730978
 20
274.5377261283907728
 30
0.0
 11
126.2451389444730978
 21
274.5770962071907775
 31
0.0
  0
LINE
  5
15D2E
  8
0
 10
126.590437292873105
 20
274.5770962071907775
 30
0.0
 11
126.6113815921731032
 21
274.8496704758907754
 31
0.0
  0
LINE
  5
15D2F
  8
0
 10
126.2451389444730978
 20
274.5770962071907775
 30
0.0
 11
126.2241946452166985
 21
274.8496704758907754
 31
0.0
  0
LINE
  5
15D30
  8
0
 10
126.5721272275731053
 20
274.89205683709082
 30
0.0
 11
126.2634490097730975
 21
274.89205683709082
 31
0.0
  0
ARC
  5
15D31
  8
0
 10
126.5721272275434046
 20
274.852686758322875
 30
0.0
 40
0.0393700787678614
 50
355.6060599278418977
 51
89.9999999568560014
  0
ARC
  5
15D32
  8
0
 10
126.2634490098026987
 20
274.852686758322875
 30
0.0
 40
0.0393700787678633
 50
90.0000000431439844
 51
184.3939400721565107
  0
ARC
  5
15D33
  8
0
 10
126.5965935503503061
 20
273.6972616955089279
 30
0.0
 40
0.0255344452895223
 50
236.5356743484533979
 51
281.180437104414807
  0
ARC
  5
15D34
  8
0
 10
126.4217180462968031
 20
273.7393665369637006
 30
0.0
 40
0.2012424625891699
 50
346.551322084729577
 51
3.1214028304075461
  0
ARC
  5
15D35
  8
0
 10
126.5910883463626959
 20
273.6967647945077147
 30
0.0
 40
0.0266867248157536
 50
293.067618139088097
 51
350.9405326218317214
  0
ARC
  5
15D36
  8
0
 10
126.4148078300989937
 20
273.7595100361978098
 30
0.0
 40
0.2080569786500478
 50
357.4696331003515866
 51
14.7124679201270006
  0
ARC
  5
15D37
  8
0
 10
126.5911064096827943
 20
273.8049724764010193
 30
0.0
 40
0.0260051457886133
 50
16.4807032402209899
 51
59.9130577658562729
  0
ARC
  5
15D38
  8
0
 10
126.5505025532731054
 20
273.7034815854033809
 30
0.0
 40
0.0422152360037714
 50
319.3125577758784175
 51
332.1206434213117973
  0
ARC
  5
15D39
  8
0
 10
126.5590611016820048
 20
273.8571263476524109
 30
0.0
 40
0.1757536624492626
 50
274.8675820794576907
 51
279.4171187327434041
  0
ARC
  5
15D3A
  8
0
 10
126.6166242715841008
 20
273.7331858498145039
 30
0.0
 40
0.0666208386474594
 50
230.1941025425635985
 51
239.2018617640511877
  0
ARC
  5
15D3B
  8
0
 10
126.6362519169292966
 20
273.7499217522699837
 30
0.0
 40
0.0921464563487104
 50
199.095886954817189
 51
227.4794903556893928
  0
ARC
  5
15D3C
  8
0
 10
126.6325057159235996
 20
273.7504207190543752
 30
0.0
 40
0.0887858575403305
 50
119.7898467902869015
 51
200.1911225145786091
  0
ARC
  5
15D3D
  8
0
 10
126.3514796723978009
 20
274.1152678893977281
 30
0.0
 40
0.4582961937191069
 50
296.4735431477922134
 51
301.426498496748593
  0
ARC
  5
15D3E
  8
0
 10
126.5431110941855053
 20
273.9710111779742192
 30
0.0
 40
0.2513083400371328
 50
271.382885367209326
 51
280.8547139084409991
  0
ARC
  5
15D3F
  8
0
 10
126.5619267447779066
 20
273.8043779351418721
 30
0.0
 40
0.0289444906368784
 50
9.9337876793074074
 51
42.926023267914573
  0
ARC
  5
15D40
  8
0
 10
126.1863016776812003
 20
273.7511717770076984
 30
0.0
 40
0.4083047420461843
 50
351.2574445768644864
 51
8.1947971706370915
  0
ARC
  5
15D41
  8
0
 10
126.5537976570565064
 20
273.6997667002476078
 30
0.0
 40
0.0376058683716153
 50
334.7770317980305208
 51
343.540445226036411
  0
LINE
  5
15D42
  8
0
 10
126.590437292873105
 20
273.7241992805908239
 30
0.0
 11
126.590437292873105
 21
273.8093711490907936
 31
0.0
  0
LINE
  5
15D43
  8
0
 10
126.6041431417730934
 20
274.5377261283907728
 30
0.0
 11
126.6041431417730934
 21
273.8274738368907038
 31
0.0
  0
LINE
  5
15D44
  8
0
 10
126.6041431417730934
 20
273.8274738368907038
 30
0.0
 11
126.5883951102730975
 21
273.8274738368907038
 31
0.0
  0
LINE
  5
15D45
  8
0
 10
126.5883951102730975
 20
273.8274738368907038
 30
0.0
 11
126.5883951102730975
 21
274.5377261283907728
 31
0.0
  0
ARC
  5
15D46
  8
0
 10
126.2389826869957972
 20
273.6972616955089279
 30
0.0
 40
0.0255344452895223
 50
258.819562895585193
 51
303.4643256515465737
  0
ARC
  5
15D47
  8
0
 10
126.4138581910493002
 20
273.7393665369637006
 30
0.0
 40
0.2012424625891699
 50
176.8785971695907904
 51
193.448677915268803
  0
ARC
  5
15D48
  8
0
 10
126.2444878909835069
 20
273.6967647945077147
 30
0.0
 40
0.0266867248157536
 50
189.0594673781683071
 51
246.9323818609103967
  0
ARC
  5
15D49
  8
0
 10
126.4207684072470954
 20
273.7595100361978098
 30
0.0
 40
0.2080569786500478
 50
165.2875320798731877
 51
182.5303668996467081
  0
ARC
  5
15D4A
  8
0
 10
126.2444698276632948
 20
273.8049724764010193
 30
0.0
 40
0.0260051457886133
 50
120.0869422341437058
 51
163.5192967597789959
  0
ARC
  5
15D4B
  8
0
 10
126.2850736840729979
 20
273.7034815854033809
 30
0.0
 40
0.0422152360037714
 50
207.879356578688089
 51
220.6874422241216109
  0
ARC
  5
15D4C
  8
0
 10
126.2765151356640985
 20
273.8571263476524109
 30
0.0
 40
0.1757536624492626
 50
260.5828812672565959
 51
265.1324179205423093
  0
ARC
  5
15D4D
  8
0
 10
126.2189519657620025
 20
273.7331858498145039
 30
0.0
 40
0.0666208386474594
 50
300.7981382359487839
 51
309.8058974574365152
  0
ARC
  5
15D4E
  8
0
 10
126.1993243204168067
 20
273.7499217522699837
 30
0.0
 40
0.0921464563487104
 50
312.5205096443106072
 51
340.9041130451827826
  0
ARC
  5
15D4F
  8
0
 10
126.2030705214225037
 20
273.7504207190543752
 30
0.0
 40
0.0887858575403305
 50
339.8088774854214194
 51
60.2101532097130487
  0
ARC
  5
15D50
  8
0
 10
126.4840965649484019
 20
274.1152678893977281
 30
0.0
 40
0.4582961937191069
 50
238.5735015032512933
 51
243.5264568522077866
  0
ARC
  5
15D51
  8
0
 10
126.2924651431606975
 20
273.9710111779742192
 30
0.0
 40
0.2513083400371328
 50
259.1452860915588872
 51
268.617114632790674
  0
ARC
  5
15D52
  8
0
 10
126.2736494925682962
 20
273.8043779351418721
 30
0.0
 40
0.0289444906368784
 50
137.0739767320854128
 51
170.0662123206926992
  0
ARC
  5
15D53
  8
0
 10
126.6492745596650025
 20
273.7511717770076984
 30
0.0
 40
0.4083047420461843
 50
171.8052028293629121
 51
188.7425554231338083
  0
ARC
  5
15D54
  8
0
 10
126.2817785802896964
 20
273.6997667002476078
 30
0.0
 40
0.0376058683716153
 50
196.4595547739635037
 51
205.2229682019709003
  0
LINE
  5
15D55
  8
0
 10
126.2451389444730978
 20
273.7241992805908239
 30
0.0
 11
126.2451389444730978
 21
273.8093711490907936
 31
0.0
  0
LINE
  5
15D56
  8
0
 10
126.2314330955730952
 20
274.5377261283907728
 30
0.0
 11
126.2314330955730952
 21
273.8274738368907038
 31
0.0
  0
LINE
  5
15D57
  8
0
 10
126.2314330955730952
 20
273.8274738368907038
 30
0.0
 11
126.2471811270731052
 21
273.8274738368907038
 31
0.0
  0
LINE
  5
15D58
  8
0
 10
126.2471811270731052
 20
273.8274738368907038
 30
0.0
 11
126.2471811270731052
 21
274.5377261283907728
 31
0.0
  0
LINE
  5
15D59
  8
0
 10
125.7681818194231056
 20
271.5849702228907745
 30
0.0
 11
127.0673944179230972
 21
271.5849702228907745
 31
0.0
  0
LINE
  5
15D5A
  8
0
 10
127.0673944179230972
 20
271.5849702228907745
 30
0.0
 11
127.0673944179230972
 21
270.5810332150908266
 31
0.0
  0
LINE
  5
15D5B
  8
0
 10
125.7681818194231056
 20
271.5849702228907745
 30
0.0
 11
125.7681818194231056
 21
270.5810332150908266
 31
0.0
  0
LINE
  5
15D5C
  8
0
 10
125.7681818194231056
 20
270.5810332150908266
 30
0.0
 11
125.6303865439230947
 21
270.5810332150908266
 31
0.0
  0
LINE
  5
15D5D
  8
0
 10
125.6303865439230947
 20
270.5810332150908266
 30
0.0
 11
125.6303865439230947
 21
267.3526867583908029
 31
0.0
  0
LINE
  5
15D5E
  8
0
 10
125.6303865439230947
 20
267.3526867583908029
 30
0.0
 11
130.9684051539917959
 21
267.3526867583908029
 31
0.0
  0
LINE
  5
15D5F
  8
0
 10
125.8347172525231059
 20
267.3526867583908029
 30
0.0
 11
125.8347172525231059
 21
267.3330017189907721
 31
0.0
  0
LINE
  5
15D60
  8
0
 10
125.8347172525231059
 20
267.3330017189907721
 30
0.0
 11
126.9886542604231039
 21
267.3330017189907721
 31
0.0
  0
LINE
  5
15D61
  8
0
 10
126.9886542604231039
 20
267.3330017189907721
 30
0.0
 11
126.9886542604231039
 21
267.3526867583908029
 31
0.0
  0
LINE
  5
15D62
  8
0
 10
125.6303865439230947
 20
267.5495371520908066
 30
0.0
 11
125.807551898223096
 21
267.5495371520908066
 31
0.0
  0
LINE
  5
15D63
  8
0
 10
125.807551898223096
 20
267.5495371520908066
 30
0.0
 11
125.807551898223096
 21
267.3526867583908029
 31
0.0
  0
LINE
  5
15D64
  8
0
 10
125.7288117407231027
 20
270.5810332150908266
 30
0.0
 11
125.7288117407231027
 21
267.5495371520908066
 31
0.0
  0
LINE
  5
15D65
  8
0
 10
125.6303865439230947
 20
269.1243403016907791
 30
0.0
 11
125.7288117407231027
 21
269.1243403016907791
 31
0.0
  0
LINE
  5
15D66
  8
0
 10
125.6303865439230947
 20
268.9274899079907755
 30
0.0
 11
125.7288117407231027
 21
268.9274899079907755
 31
0.0
  0
LINE
  5
15D67
  8
0
 10
125.6303865439230947
 20
268.533789120590825
 30
0.0
 11
125.7288117407231027
 21
268.533789120590825
 31
0.0
  0
LINE
  5
15D68
  8
0
 10
125.6303865439230947
 20
267.9432379394908139
 30
0.0
 11
125.7288117407231027
 21
267.9432379394908139
 31
0.0
  0
LINE
  5
15D69
  8
0
 10
125.6303865439230947
 20
270.4629229787906866
 30
0.0
 11
125.7288117407231027
 21
270.4629229787906866
 31
0.0
  0
LINE
  5
15D6A
  8
0
 10
127.0673944179230972
 20
270.5810332150908266
 30
0.0
 11
127.2051896935230957
 21
270.5810332150908266
 31
0.0
  0
LINE
  5
15D6B
  8
0
 10
127.2051896935230957
 20
270.5810332150908266
 30
0.0
 11
127.2051896935230957
 21
268.0613481756907959
 31
0.0
  0
LINE
  5
15D6C
  8
0
 10
127.1067644966231001
 20
270.5810332150908266
 30
0.0
 11
127.1067644966231001
 21
267.4707969945907848
 31
0.0
  0
ARC
  5
15D6D
  8
0
 10
127.0870794572230977
 20
267.4707969945907848
 30
0.0
 40
0.1181102362000033
 50
270.0000000000048885
 51
0.0000000000032569
  0
ARC
  5
15D6E
  8
0
 10
127.4512526856231034
 20
267.5889072307908236
 30
0.0
 40
0.236220472400004
 50
210.0000000000001137
 51
270.0000011337991737
  0
LINE
  5
15D6F
  8
0
 10
127.0280243391231068
 20
267.3526867583908029
 30
0.0
 11
127.0280243391231068
 21
267.5495371520908066
 31
0.0
  0
LINE
  5
15D70
  8
0
 10
127.0280243391231068
 20
267.5495371520908066
 30
0.0
 11
127.1067644966231001
 21
267.5495371520908066
 31
0.0
  0
LINE
  5
15D71
  8
0
 10
128.1728687163245866
 20
267.2972896869216015
 30
0.0
 11
130.9685985270230901
 21
267.2972896866907035
 31
0.0
  0
ARC
  5
15D72
  8
0
 10
128.1728746516230899
 20
267.8682268834907063
 30
0.0
 40
0.5709371965999495
 50
244.5658203938988891
 51
269.9994043696020185
  0
LINE
  5
15D73
  8
0
 10
127.2051896935230957
 20
268.9274899079907755
 30
0.0
 11
127.4020400872230994
 21
268.9274899079907755
 31
0.0
  0
LINE
  5
15D74
  8
0
 10
127.4020400872230994
 20
268.9274899079907755
 30
0.0
 11
127.4020400872230994
 21
268.0613481756907959
 31
0.0
  0
LINE
  5
15D75
  8
0
 10
142.9729062289231081
 20
268.0613481756907959
 30
0.0
 11
127.1067644966231001
 21
268.0613481756907959
 31
0.0
  0
LINE
  5
15D76
  8
0
 10
127.2150322131230951
 20
268.0613481756907959
 30
0.0
 11
127.2150322131230951
 21
268.4550489630908032
 31
0.0
  0
LINE
  5
15D77
  8
0
 10
127.2150322131230951
 20
268.4550489630908032
 30
0.0
 11
127.333142449423093
 21
268.4550489630908032
 31
0.0
  0
LINE
  5
15D78
  8
0
 10
127.333142449423093
 20
268.4550489630908032
 30
0.0
 11
127.333142449423093
 21
268.0613481756907959
 31
0.0
  0
LINE
  5
15D79
  8
0
 10
127.2150322131230951
 20
268.2581985693906859
 30
0.0
 11
127.333142449423093
 21
268.2581985693906859
 31
0.0
  0
ARC
  5
15D7A
  8
0
 10
127.6524135218579943
 20
270.0289366913543176
 30
0.0
 40
0.1979037666353587
 50
100.516471943207705
 51
125.0313622008278003
  0
ARC
  5
15D7B
  8
0
 10
127.6008298701141968
 20
270.2968531234188845
 30
0.0
 40
0.0749493290991995
 50
281.906053509989988
 51
334.6375104666809079
  0
ARC
  5
15D7C
  8
0
 10
128.1015976188230923
 20
270.2624876410907859
 30
0.0
 40
0.4330482467999915
 50
89.9999999999983658
 51
179.7007953730893917
  0
LINE
  5
15D7D
  8
0
 10
127.2051896935230957
 20
269.9569710727907932
 30
0.0
 11
127.5388204182681022
 21
270.1910061674224153
 31
0.0
  0
LINE
  5
15D7E
  8
0
 10
127.4020400872230994
 20
270.0950575771228728
 30
0.0
 11
127.4020400872230994
 21
270.5810332150908266
 31
0.0
  0
LINE
  5
15D7F
  8
0
 10
127.6455019304230944
 20
270.8172536874907905
 30
0.0
 11
134.9375957917170865
 21
270.8172536874907905
 31
0.0
  0
LINE
  5
15D80
  8
0
 10
135.1420749338290932
 20
270.8172536874907905
 30
0.0
 11
142.441410165923088
 21
270.8172536874907905
 31
0.0
  0
LINE
  5
15D81
  8
0
 10
128.1724750151230978
 20
270.8725272046564783
 30
0.0
 11
141.9063883139274935
 21
270.8725272047907993
 31
0.0
  0
LINE
  5
15D82
  8
0
 10
131.457158197423098
 20
270.890456529290816
 30
0.0
 11
132.0870794572226998
 21
270.8904565293207156
 31
0.0
  0
LINE
  5
15D83
  8
0
 10
132.165819614723091
 20
270.880907463790777
 30
0.0
 11
132.165819614723091
 21
270.8725272047907993
 31
0.0
  0
LINE
  5
15D84
  8
0
 10
131.3784180399231047
 20
270.8809074637906065
 30
0.0
 11
131.3784180399231047
 21
270.8725272047907993
 31
0.0
  0
ARC
  5
15D85
  8
0
 10
131.4445335997041866
 20
270.6651427836517882
 30
0.0
 40
0.2256671541023269
 50
86.7930025029019987
 51
107.0363417594214042
  0
ARC
  5
15D86
  8
0
 10
132.0997040549299868
 20
270.665142783593808
 30
0.0
 40
0.2256671541613368
 50
72.9636582419853852
 51
93.2069975010596892
  0
ARC
  5
15D87
  8
0
 10
128.1724812686231019
 20
270.3015872365908194
 30
0.0
 40
0.570939968099956
 50
90.0006275601218135
 51
115.4100961724005003
  0
ARC
  5
15D88
  8
0
 10
127.6384406133530973
 20
270.5809586343938236
 30
0.0
 40
0.2364005378946018
 50
88.2883124675779953
 51
179.98192407141849
  0
LINE
  5
15D89
  8
0
 10
125.807551898223096
 20
267.4511119552407763
 30
0.0
 11
127.0280243391231068
 21
267.4511119552407763
 31
0.0
  0
CIRCLE
  5
15D8A
  8
0
 10
126.4177881187230952
 20
270.1479623488908146
 30
0.0
 40
0.3937007874
  0
CIRCLE
  5
15D8B
  8
0
 10
126.4177881187230952
 20
270.1479623488908146
 30
0.0
 40
0.3149592022999998
  0
CIRCLE
  5
15D8C
  8
0
 10
126.4177881187230952
 20
270.1479623488908146
 30
0.0
 40
0.1574803148999999
  0
LINE
  5
15D8D
  8
0
 10
126.2110952053231046
 20
270.4827048370908074
 30
0.0
 11
126.2110952053231046
 21
270.9156788843907862
 31
0.0
  0
LINE
  5
15D8E
  8
0
 10
126.6244810320230982
 20
270.483041965685004
 30
0.0
 11
126.6244810321231
 21
270.9156788843907862
 31
0.0
  0
ARC
  5
15D8F
  8
0
 10
126.4177881187230952
 20
270.9156788843907862
 30
0.0
 40
0.206692913399996
 50
157.6073122202984962
 51
180.0000000000015916
  0
ARC
  5
15D90
  8
0
 10
126.4177881187230952
 20
270.9156788843907862
 30
0.0
 40
0.2066929134000075
 50
359.9999999867525844
 51
22.3926877796993402
  0
LINE
  5
15D91
  8
0
 10
143.4551896935230957
 20
271.5849702228907745
 30
0.0
 11
143.4551896934731019
 21
274.5377261283907728
 31
0.0
  0
LINE
  5
15D92
  8
0
 10
143.4551896934731019
 20
274.5377261283907728
 30
0.0
 11
143.8685755202731116
 21
274.5377261283907728
 31
0.0
  0
LINE
  5
15D93
  8
0
 10
143.8685755202731116
 20
274.5377261283907728
 30
0.0
 11
143.8685755202731116
 21
271.5849702228907745
 31
0.0
  0
LINE
  5
15D94
  8
0
 10
143.4892334326731032
 20
274.5377261283907728
 30
0.0
 11
143.4892334326731032
 21
274.5770962071907775
 31
0.0
  0
LINE
  5
15D95
  8
0
 10
143.4892334326731032
 20
274.5770962071907775
 30
0.0
 11
143.8345317810731103
 21
274.5770962071907775
 31
0.0
  0
LINE
  5
15D96
  8
0
 10
143.8345317810731103
 20
274.5377261283907728
 30
0.0
 11
143.8345317810731103
 21
274.5770962071907775
 31
0.0
  0
LINE
  5
15D97
  8
0
 10
143.4892334326731032
 20
274.5770962071907775
 30
0.0
 11
143.468289133373105
 21
274.8496704758907754
 31
0.0
  0
LINE
  5
15D98
  8
0
 10
143.8345317810731103
 20
274.5770962071907775
 30
0.0
 11
143.8554760803295096
 21
274.8496704758907754
 31
0.0
  0
LINE
  5
15D99
  8
0
 10
143.5075434979731028
 20
274.89205683709082
 30
0.0
 11
143.8162217157731106
 21
274.89205683709082
 31
0.0
  0
ARC
  5
15D9A
  8
0
 10
143.5075434980026898
 20
274.852686758322875
 30
0.0
 40
0.0393700787678614
 50
90.0000000431439844
 51
184.3939400721581023
  0
ARC
  5
15D9B
  8
0
 10
143.81622171574341
 20
274.852686758322875
 30
0.0
 40
0.0393700787678633
 50
355.6060599278434893
 51
89.9999999568560014
  0
ARC
  5
15D9C
  8
0
 10
143.4830771751958025
 20
273.6972616955089279
 30
0.0
 40
0.0255344452895223
 50
258.819562895585193
 51
303.4643256515465737
  0
ARC
  5
15D9D
  8
0
 10
143.657952679249405
 20
273.7393665369637006
 30
0.0
 40
0.2012424625891699
 50
176.8785971695924104
 51
193.4486779152703946
  0
ARC
  5
15D9E
  8
0
 10
143.4885823791834127
 20
273.6967647945077147
 30
0.0
 40
0.0266867248157536
 50
189.0594673781683071
 51
246.9323818609103967
  0
ARC
  5
15D9F
  8
0
 10
143.6648628954471008
 20
273.7595100361978098
 30
0.0
 40
0.2080569786500478
 50
165.2875320798731877
 51
182.5303668996482997
  0
ARC
  5
15DA0
  8
0
 10
143.4885643158633002
 20
273.8049724764010193
 30
0.0
 40
0.0260051457886133
 50
120.0869422341437058
 51
163.5192967597789959
  0
ARC
  5
15DA1
  8
0
 10
143.5291681722731028
 20
273.7034815854033809
 30
0.0
 40
0.0422152360037714
 50
207.879356578688089
 51
220.6874422241216109
  0
ARC
  5
15DA2
  8
0
 10
143.5206096238640896
 20
273.8571263476524109
 30
0.0
 40
0.1757536624492626
 50
260.5828812672565959
 51
265.1324179205423093
  0
ARC
  5
15DA3
  8
0
 10
143.4630464539621073
 20
273.7331858498145039
 30
0.0
 40
0.0666208386474594
 50
300.7981382359487839
 51
309.8058974574365152
  0
ARC
  5
15DA4
  8
0
 10
143.4434188086167978
 20
273.7499217522699837
 30
0.0
 40
0.0921464563487104
 50
312.5205096443106072
 51
340.9041130451827826
  0
ARC
  5
15DA5
  8
0
 10
143.4471650096224948
 20
273.7504207190543752
 30
0.0
 40
0.0887858575403305
 50
339.8088774854214194
 51
60.2101532097130487
  0
ARC
  5
15DA6
  8
0
 10
143.7281910531484073
 20
274.1152678893977281
 30
0.0
 40
0.4582961937191069
 50
238.5735015032512933
 51
243.5264568522077866
  0
ARC
  5
15DA7
  8
0
 10
143.5365596313606886
 20
273.9710111779742192
 30
0.0
 40
0.2513083400371328
 50
259.1452860915588872
 51
268.617114632790674
  0
ARC
  5
15DA8
  8
0
 10
143.5177439807683015
 20
273.8043779351418721
 30
0.0
 40
0.0289444906368784
 50
137.0739767320854128
 51
170.0662123206926992
  0
ARC
  5
15DA9
  8
0
 10
143.8933690478650078
 20
273.7511717770076984
 30
0.0
 40
0.4083047420461843
 50
171.8052028293629121
 51
188.7425554231338083
  0
ARC
  5
15DAA
  8
0
 10
143.5258730684896875
 20
273.6997667002476078
 30
0.0
 40
0.0376058683716153
 50
196.4595547739635037
 51
205.2229682019695076
  0
LINE
  5
15DAB
  8
0
 10
143.4892334326731032
 20
273.7241992805908239
 30
0.0
 11
143.4892334326731032
 21
273.8093711490907936
 31
0.0
  0
LINE
  5
15DAC
  8
0
 10
143.4755275837731006
 20
274.5377261283907728
 30
0.0
 11
143.4755275837731006
 21
273.8274738368907038
 31
0.0
  0
LINE
  5
15DAD
  8
0
 10
143.4755275837731006
 20
273.8274738368907038
 30
0.0
 11
143.4912756152731106
 21
273.8274738368907038
 31
0.0
  0
LINE
  5
15DAE
  8
0
 10
143.4912756152731106
 20
273.8274738368907038
 30
0.0
 11
143.4912756152731106
 21
274.5377261283907728
 31
0.0
  0
ARC
  5
15DAF
  8
0
 10
143.8406880385502973
 20
273.6972616955089279
 30
0.0
 40
0.0255344452895223
 50
236.5356743484533979
 51
281.180437104414807
  0
ARC
  5
15DB0
  8
0
 10
143.6658125344968084
 20
273.7393665369637006
 30
0.0
 40
0.2012424625891699
 50
346.5513220847312255
 51
3.1214028304091719
  0
ARC
  5
15DB1
  8
0
 10
143.835182834562687
 20
273.6967647945077147
 30
0.0
 40
0.0266867248157536
 50
293.0676181390895749
 51
350.9405326218317214
  0
ARC
  5
15DB2
  8
0
 10
143.658902318298999
 20
273.7595100361978098
 30
0.0
 40
0.2080569786500478
 50
357.4696331003532919
 51
14.7124679201270006
  0
ARC
  5
15DB3
  8
0
 10
143.8352008978827996
 20
273.8049724764010193
 30
0.0
 40
0.0260051457886133
 50
16.4807032402209899
 51
59.9130577658562729
  0
ARC
  5
15DB4
  8
0
 10
143.7945970414731107
 20
273.7034815854033809
 30
0.0
 40
0.0422152360037714
 50
319.3125577758784175
 51
332.1206434213117973
  0
ARC
  5
15DB5
  8
0
 10
143.8031555898820102
 20
273.8571263476524109
 30
0.0
 40
0.1757536624492626
 50
274.8675820794576907
 51
279.4171187327434041
  0
ARC
  5
15DB6
  8
0
 10
143.8607187597841062
 20
273.7331858498145039
 30
0.0
 40
0.0666208386474594
 50
230.1941025425635985
 51
239.2018617640511877
  0
ARC
  5
15DB7
  8
0
 10
143.8803464051293872
 20
273.7499217522699837
 30
0.0
 40
0.0921464563487104
 50
199.095886954817189
 51
227.4794903556893928
  0
ARC
  5
15DB8
  8
0
 10
143.876600204123605
 20
273.7504207190543752
 30
0.0
 40
0.0887858575403305
 50
119.7898467902869015
 51
200.1911225145786091
  0
ARC
  5
15DB9
  8
0
 10
143.5955741605978062
 20
274.1152678893977281
 30
0.0
 40
0.4582961937191069
 50
296.4735431477922134
 51
301.426498496748593
  0
ARC
  5
15DBA
  8
0
 10
143.7872055823854964
 20
273.9710111779742192
 30
0.0
 40
0.2513083400371328
 50
271.382885367209326
 51
280.8547139084409991
  0
ARC
  5
15DBB
  8
0
 10
143.8060212329777983
 20
273.8043779351418721
 30
0.0
 40
0.0289444906368784
 50
9.9337876793074074
 51
42.926023267914573
  0
ARC
  5
15DBC
  8
0
 10
143.4303961658812057
 20
273.7511717770076984
 30
0.0
 40
0.4083047420461843
 50
351.2574445768663054
 51
8.1947971706370915
  0
ARC
  5
15DBD
  8
0
 10
143.7978921452564975
 20
273.6997667002476078
 30
0.0
 40
0.0376058683716153
 50
334.7770317980290997
 51
343.540445226036411
  0
LINE
  5
15DBE
  8
0
 10
143.8345317810731103
 20
273.7241992805908239
 30
0.0
 11
143.8345317810731103
 21
273.8093711490907936
 31
0.0
  0
LINE
  5
15DBF
  8
0
 10
143.8482376299731129
 20
274.5377261283907728
 30
0.0
 11
143.8482376299731129
 21
273.8274738368907038
 31
0.0
  0
LINE
  5
15DC0
  8
0
 10
143.8482376299731129
 20
273.8274738368907038
 30
0.0
 11
143.8324895984731029
 21
273.8274738368907038
 31
0.0
  0
LINE
  5
15DC1
  8
0
 10
143.8324895984731029
 20
273.8274738368907038
 30
0.0
 11
143.8324895984731029
 21
274.5377261283907728
 31
0.0
  0
LINE
  5
15DC2
  8
0
 10
144.3114889061230883
 20
271.5849702228907745
 30
0.0
 11
143.0122763076230967
 21
271.5849702228907745
 31
0.0
  0
LINE
  5
15DC3
  8
0
 10
143.0122763076230967
 20
271.5849702228907745
 30
0.0
 11
143.0122763076230967
 21
270.5810332150908266
 31
0.0
  0
LINE
  5
15DC4
  8
0
 10
144.3114889061230883
 20
271.5849702228907745
 30
0.0
 11
144.3114889061230883
 21
270.5810332150908266
 31
0.0
  0
LINE
  5
15DC5
  8
0
 10
144.3114889061230883
 20
270.5810332150908266
 30
0.0
 11
144.4492841816231135
 21
270.5810332150908266
 31
0.0
  0
LINE
  5
15DC6
  8
0
 10
144.4492841816231135
 20
270.5810332150908266
 30
0.0
 11
144.4492841816231135
 21
267.3526867583908029
 31
0.0
  0
LINE
  5
15DC7
  8
0
 10
144.4492841816231135
 20
267.3526867583908029
 30
0.0
 11
139.1112655715542985
 21
267.3526867583908029
 31
0.0
  0
LINE
  5
15DC8
  8
0
 10
144.244953473023088
 20
267.3526867583908029
 30
0.0
 11
144.244953473023088
 21
267.3330017189907721
 31
0.0
  0
LINE
  5
15DC9
  8
0
 10
144.244953473023088
 20
267.3330017189907721
 30
0.0
 11
143.09101646512309
 21
267.3330017189907721
 31
0.0
  0
LINE
  5
15DCA
  8
0
 10
143.09101646512309
 20
267.3330017189907721
 30
0.0
 11
143.09101646512309
 21
267.3526867583908029
 31
0.0
  0
LINE
  5
15DCB
  8
0
 10
144.4492841816231135
 20
267.5495371520908066
 30
0.0
 11
144.2721188273231121
 21
267.5495371520908066
 31
0.0
  0
LINE
  5
15DCC
  8
0
 10
144.2721188273231121
 20
267.5495371520908066
 30
0.0
 11
144.2721188273231121
 21
267.3526867583908029
 31
0.0
  0
LINE
  5
15DCD
  8
0
 10
144.3508589848231054
 20
270.5810332150908266
 30
0.0
 11
144.3508589848231054
 21
267.5495371520908066
 31
0.0
  0
LINE
  5
15DCE
  8
0
 10
144.4492841816231135
 20
269.1243403016907791
 30
0.0
 11
144.3508589848231054
 21
269.1243403016907791
 31
0.0
  0
LINE
  5
15DCF
  8
0
 10
144.4492841816231135
 20
268.9274899079907755
 30
0.0
 11
144.3508589848231054
 21
268.9274899079907755
 31
0.0
  0
LINE
  5
15DD0
  8
0
 10
144.4492841816231135
 20
268.533789120590825
 30
0.0
 11
144.3508589848231054
 21
268.533789120590825
 31
0.0
  0
LINE
  5
15DD1
  8
0
 10
144.4492841816231135
 20
267.9432379394908139
 30
0.0
 11
144.3508589848231054
 21
267.9432379394908139
 31
0.0
  0
LINE
  5
15DD2
  8
0
 10
144.4492841816231135
 20
270.4629229787906866
 30
0.0
 11
144.3508589848231054
 21
270.4629229787906866
 31
0.0
  0
LINE
  5
15DD3
  8
0
 10
143.0122763076230967
 20
270.5810332150908266
 30
0.0
 11
142.8744810320231124
 21
270.5810332150908266
 31
0.0
  0
LINE
  5
15DD4
  8
0
 10
142.8744810320231124
 20
270.5810332150908266
 30
0.0
 11
142.8744810320231124
 21
268.0613481756907959
 31
0.0
  0
LINE
  5
15DD5
  8
0
 10
142.9729062289231081
 20
270.5810332150908266
 30
0.0
 11
142.9729062289231081
 21
267.4707969945907848
 31
0.0
  0
ARC
  5
15DD6
  8
0
 10
142.9925912683231104
 20
267.4707969945907848
 30
0.0
 40
0.1181102362000033
 50
179.9999999999967031
 51
269.9999999999951115
  0
ARC
  5
15DD7
  8
0
 10
142.6284180399231047
 20
267.5889072307908236
 30
0.0
 40
0.236220472400004
 50
269.9999988662008263
 51
330.0000000000002842
  0
LINE
  5
15DD8
  8
0
 10
143.0516463864231014
 20
267.3526867583908029
 30
0.0
 11
143.0516463864231014
 21
267.5495371520908066
 31
0.0
  0
LINE
  5
15DD9
  8
0
 10
143.0516463864231014
 20
267.5495371520908066
 30
0.0
 11
142.9729062289231081
 21
267.5495371520908066
 31
0.0
  0
LINE
  5
15DDA
  8
0
 10
141.9068020092215079
 20
267.2972896869216015
 30
0.0
 11
139.1110721985230896
 21
267.2972896866907035
 31
0.0
  0
ARC
  5
15DDB
  8
0
 10
141.9067960739230898
 20
267.8682268834907063
 30
0.0
 40
0.5709371965999495
 50
270.0005956303979815
 51
295.4341796061011109
  0
LINE
  5
15DDC
  8
0
 10
142.8744810320231124
 20
268.9274899079907755
 30
0.0
 11
142.6776306383231088
 21
268.9274899079907755
 31
0.0
  0
LINE
  5
15DDD
  8
0
 10
142.6776306383231088
 20
268.9274899079907755
 30
0.0
 11
142.6776306383231088
 21
268.0613481756907959
 31
0.0
  0
LINE
  5
15DDE
  8
0
 10
142.8646385124229994
 20
268.0613481756907959
 30
0.0
 11
142.8646385124229994
 21
268.4550489630908032
 31
0.0
  0
LINE
  5
15DDF
  8
0
 10
142.8646385124229994
 20
268.4550489630908032
 30
0.0
 11
142.7465282761230867
 21
268.4550489630908032
 31
0.0
  0
LINE
  5
15DE0
  8
0
 10
142.7465282761230867
 20
268.4550489630908032
 30
0.0
 11
142.7465282761230867
 21
268.0613481756907959
 31
0.0
  0
LINE
  5
15DE1
  8
0
 10
142.8646385124229994
 20
268.2581985693906859
 30
0.0
 11
142.7465282761230867
 21
268.2581985693906859
 31
0.0
  0
ARC
  5
15DE2
  8
0
 10
142.4272572036881002
 20
270.0289366913543176
 30
0.0
 40
0.1979037666353587
 50
54.9686377991721571
 51
79.483528056792295
  0
ARC
  5
15DE3
  8
0
 10
142.4788408554319119
 20
270.2968531234188845
 30
0.0
 40
0.0749493290991995
 50
205.3624895333190921
 51
258.093946490010012
  0
ARC
  5
15DE4
  8
0
 10
141.9780731067230874
 20
270.2624876410907859
 30
0.0
 40
0.4330482467999915
 50
0.2992046269105415
 51
90.0000000000016058
  0
LINE
  5
15DE5
  8
0
 10
142.8744810320231124
 20
269.9569710727907932
 30
0.0
 11
142.5408503072779922
 21
270.1910061674224153
 31
0.0
  0
LINE
  5
15DE6
  8
0
 10
142.6776306383231088
 20
270.0950575771228728
 30
0.0
 11
142.6776306383231088
 21
270.5810332150908266
 31
0.0
  0
LINE
  5
15DE7
  8
0
 10
138.6225125281231101
 20
270.890456529290816
 30
0.0
 11
137.9925912683235083
 21
270.8904565293207156
 31
0.0
  0
LINE
  5
15DE8
  8
0
 10
137.9138511108230887
 20
270.880907463790777
 30
0.0
 11
137.9138511108230887
 21
270.8725272047907993
 31
0.0
  0
LINE
  5
15DE9
  8
0
 10
138.7012526856231034
 20
270.8809074637906065
 30
0.0
 11
138.7012526856231034
 21
270.8725272047907993
 31
0.0
  0
ARC
  5
15DEA
  8
0
 10
138.6351371258419078
 20
270.6651427836517882
 30
0.0
 40
0.2256671541023269
 50
72.96365824057861
 51
93.2069974970980155
  0
ARC
  5
15DEB
  8
0
 10
137.9799666706161929
 20
270.665142783593808
 30
0.0
 40
0.2256671541613368
 50
86.793002498940325
 51
107.0363417580146006
  0
ARC
  5
15DEC
  8
0
 10
141.9071894569231063
 20
270.3015872365908194
 30
0.0
 40
0.570939968099956
 50
64.589903827599457
 51
89.9993724398781865
  0
ARC
  5
15DED
  8
0
 10
142.4414129932955007
 20
270.5810360424632108
 30
0.0
 40
0.2362176450444668
 50
359.999314206571114
 51
90.0006857934289712
  0
LINE
  5
15DEE
  8
0
 10
144.2721188273231121
 20
267.4511119552407763
 30
0.0
 11
143.0516463864231014
 21
267.4511119552407763
 31
0.0
  0
CIRCLE
  5
15DEF
  8
0
 10
143.6618826068230987
 20
270.1479623488908146
 30
0.0
 40
0.3937007874
  0
CIRCLE
  5
15DF0
  8
0
 10
143.6618826068230987
 20
270.1479623488908146
 30
0.0
 40
0.3149592022999998
  0
CIRCLE
  5
15DF1
  8
0
 10
143.6618826068230987
 20
270.1479623488908146
 30
0.0
 40
0.1574803148999999
  0
LINE
  5
15DF2
  8
0
 10
130.9679928698230924
 20
267.4707969945907848
 30
0.0
 11
130.9701917187231004
 21
266.8408757347908136
 31
0.0
  0
LINE
  5
15DF3
  8
0
 10
130.9701917187231004
 20
266.8408757347908136
 30
0.0
 11
139.1094790068231077
 21
266.8408757347908136
 31
0.0
  0
LINE
  5
15DF4
  8
0
 10
139.1094790068231077
 20
266.8408757347908136
 30
0.0
 11
139.1116778557230873
 21
267.4707969945907848
 31
0.0
  0
ARC
  5
15DF5
  8
0
 10
135.0398353628231121
 20
269.0849702228908882
 30
0.0
 40
1.875196850399915
 50
72.4391006254993357
 51
107.5608993745005932
  0
ARC
  5
15DF6
  8
0
 10
135.0398353627797121
 20
265.7951080187178832
 30
0.0
 40
5.0221456687728638
 50
80.6035226227023713
 51
99.396477377294417
  0
ARC
  5
15DF7
  8
0
 10
134.9586622330230909
 20
270.783296994590728
 30
0.0
 40
0.0399606299000398
 50
90.000000000030937
 51
124.6273135925455051
  0
ARC
  5
15DF8
  8
0
 10
135.1210084925230888
 20
270.783296994590728
 30
0.0
 40
0.0399606299000581
 50
55.3726864128641196
 51
89.9999999999674287
  0
LINE
  5
15DF9
  8
0
 10
134.9586626239457132
 20
270.8232576244888037
 30
0.0
 11
135.1210081016004096
 21
270.8232576244888037
 31
0.0
  0
ARC
  5
15DFA
  8
0
 10
134.2327487485854078
 20
270.6721839097045859
 30
0.0
 40
0.0787401574623727
 50
99.396477352271404
 51
180.0000000100507123
  0
ARC
  5
15DFB
  8
0
 10
135.8469219769231131
 20
270.6721839096907729
 30
0.0
 40
0.0787401575000004
 50
0.0
 51
80.6035225658493886
  0
LINE
  5
15DFC
  8
0
 10
134.1540085911231017
 20
270.6721839096907729
 30
0.0
 11
134.1540085911231017
 21
270.6597733724908039
 31
0.0
  0
LINE
  5
15DFD
  8
0
 10
134.1540085911231017
 20
270.6597733724908039
 30
0.0
 11
135.9256621344231064
 21
270.6597733724908039
 31
0.0
  0
LINE
  5
15DFE
  8
0
 10
135.9256621344231064
 20
270.6597733724908039
 30
0.0
 11
135.9256621344231064
 21
270.6721839096907729
 31
0.0
  0
LINE
  5
15DFF
  8
0
 10
134.3750341511054103
 20
270.6597733725005241
 30
0.0
 11
134.3722446822912104
 21
270.6530186422580186
 31
0.0
  0
LINE
  5
15E00
  8
0
 10
135.7046365744448906
 20
270.6597733724908039
 30
0.0
 11
135.7070359349503974
 21
270.6539632918774032
 31
0.0
  0
ARC
  5
15E01
  8
0
 10
135.7048183962392045
 20
270.4674045277840264
 30
0.0
 40
0.1886063022044486
 50
82.6917872334420849
 51
89.5745203394173615
  0
ARC
  5
15E02
  8
0
 10
134.925507673433998
 20
305.4352084214518186
 30
0.0
 40
34.7865897404908111
 50
269.0887013886513728
 51
270.1883054914210902
  0
ARC
  5
15E03
  8
0
 10
135.1894121344128905
 20
292.9851155963611973
 30
0.0
 40
22.3371506160686017
 50
269.6163260987349872
 51
271.3837149104080027
  0
ARC
  5
15E04
  8
0
 10
134.3759769237321962
 20
270.4507690390200878
 30
0.0
 40
0.2052521430081451
 50
90.7046685210822261
 51
97.0288704880522488
  0
ARC
  5
15E05
  8
0
 10
134.3737585199355919
 20
270.8325289262841125
 30
0.0
 40
0.1795166671246202
 50
262.6716911123580758
 51
269.51682739207439
  0
LINE
  5
15E06
  8
0
 10
128.1015976188230923
 20
270.6955358878907987
 30
0.0
 11
132.8744810320231124
 21
270.6955358878119
 31
0.0
  0
LINE
  5
15E07
  8
0
 10
133.0713314257230877
 20
270.6955358878087168
 30
0.0
 11
134.1575510257698056
 21
270.6955358877908111
 31
0.0
  0
LINE
  5
15E08
  8
0
 10
135.9221196997739014
 20
270.6955358877908111
 30
0.0
 11
137.008339299823092
 21
270.6955358878007019
 31
0.0
  0
LINE
  5
15E09
  8
0
 10
137.2051896935230957
 20
270.6955358878025777
 30
0.0
 11
141.978066920312699
 21
270.6955358878465745
 31
0.0
  0
ARC
  5
15E0A
  8
0
 10
135.0398353628231121
 20
271.9588341642908063
 30
0.0
 40
1.7716535432999969
 50
0.0
 51
180.0
  0
ARC
  5
15E0B
  8
0
 10
135.0398353628231121
 20
271.9588341642908063
 30
0.0
 40
1.8503941339000001
 50
343.2252112451595281
 51
196.7747887441115893
  0
ARC
  5
15E0C
  8
0
 10
135.0398354390437134
 20
271.9588594055260842
 30
0.0
 40
2.2441070733279269
 50
331.3923209913814958
 51
208.6063261861474984
  0
LINE
  5
15E0D
  8
0
 10
133.2681818194230914
 20
271.1902302040908239
 30
0.0
 11
133.2681818195231074
 21
271.9588341642908063
 31
0.0
  0
LINE
  5
15E0E
  8
0
 10
136.8114889061230883
 20
271.190201361190816
 30
0.0
 11
136.8114889061230883
 21
271.9588341642908063
 31
0.0
  0
ARC
  5
15E0F
  8
0
 10
133.0099604628823897
 20
271.1896280877767822
 30
0.0
 40
0.2582220585421407
 50
318.0309947773142767
 51
0.1336011145810607
  0
ARC
  5
15E10
  8
0
 10
137.070581632716511
 20
271.189989172846424
 30
0.0
 40
0.2590928134810674
 50
179.9530766685815877
 51
222.8486633584284107
  0
ARC
  5
15E11
  8
0
 10
252.2110468003673986
 20
386.1396055985716771
 30
0.0
 40
162.9572313962933947
 50
224.9491317043799938
 51
225.0193532864774966
  0
ARC
  5
15E12
  8
0
 10
100.0585399731131986
 20
303.9407048290483999
 30
0.0
 40
46.7168003507782785
 50
314.9402838102770943
 51
315.190490243166721
  0
LINE
  5
15E13
  8
0
 10
131.0634574100230907
 20
266.8408757347908136
 30
0.0
 11
130.970852916023091
 21
266.6514574514907849
 31
0.0
  0
LINE
  5
15E14
  8
0
 10
130.970852916023091
 20
266.6514574514907849
 30
0.0
 11
130.9708788590230881
 21
266.6440253410906962
 31
0.0
  0
LINE
  5
15E15
  8
0
 10
130.9708788590230881
 20
266.6440253410906962
 30
0.0
 11
131.0634574100230907
 21
266.6440253410906962
 31
0.0
  0
LINE
  5
15E16
  8
0
 10
131.0634574100230907
 20
266.6440253410906962
 30
0.0
 11
130.9715351849231126
 21
266.4560026077908219
 31
0.0
  0
LINE
  5
15E17
  8
0
 10
130.9715351849231126
 20
266.4560026077908219
 30
0.0
 11
130.9715659993231043
 21
266.4471749473908062
 31
0.0
  0
LINE
  5
15E18
  8
0
 10
130.9715659993231043
 20
266.4471749473908062
 30
0.0
 11
131.0634574100230907
 21
266.4471749473908062
 31
0.0
  0
LINE
  5
15E19
  8
0
 10
131.0675254983231071
 20
266.4471749473908062
 30
0.0
 11
131.1594169090230935
 21
266.4471749473908062
 31
0.0
  0
LINE
  5
15E1A
  8
0
 10
131.0665537352230956
 20
266.6440253410906962
 30
0.0
 11
131.1594041452231068
 21
266.4560026077908219
 31
0.0
  0
LINE
  5
15E1B
  8
0
 10
131.1594041452231068
 20
266.4560026077908219
 30
0.0
 11
131.1594169090230935
 21
266.4471749473908062
 31
0.0
  0
LINE
  5
15E1C
  8
0
 10
131.0665537352230956
 20
266.6440253410906962
 30
0.0
 11
139.1087918665230916
 21
266.6440253410906962
 31
0.0
  0
LINE
  5
15E1D
  8
0
 10
139.1087918665230916
 20
266.6440253410906962
 30
0.0
 11
139.1088178095230887
 21
266.6514574514907849
 31
0.0
  0
LINE
  5
15E1E
  8
0
 10
139.1088178095230887
 20
266.6514574514907849
 30
0.0
 11
139.016213315523089
 21
266.8408757347908136
 31
0.0
  0
LINE
  5
15E1F
  8
0
 10
139.0140887534230956
 20
266.8408757347908136
 30
0.0
 11
138.9205491853230967
 21
266.6514574514907849
 31
0.0
  0
LINE
  5
15E20
  8
0
 10
138.9205491853230967
 20
266.6514574514907849
 30
0.0
 11
138.9205491853230967
 21
266.6440253410906962
 31
0.0
  0
LINE
  5
15E21
  8
0
 10
138.9205491853230967
 20
266.6514574514907849
 30
0.0
 11
131.1591215402231114
 21
266.6514574514907849
 31
0.0
  0
LINE
  5
15E22
  8
0
 10
131.1591215402231114
 20
266.6514574514907849
 30
0.0
 11
131.1591322862230982
 21
266.6440253410906962
 31
0.0
  0
LINE
  5
15E23
  8
0
 10
131.1591215402231114
 20
266.6514574514907849
 30
0.0
 11
131.0655819721231126
 21
266.8408757347908136
 31
0.0
  0
LINE
  5
15E24
  8
0
 10
131.1594041452231068
 20
266.4560026077908219
 30
0.0
 11
138.9202665803231014
 21
266.4560026077908219
 31
0.0
  0
LINE
  5
15E25
  8
0
 10
138.9202665803231014
 20
266.4560026077908219
 30
0.0
 11
138.9202538165230862
 21
266.4471749473908062
 31
0.0
  0
LINE
  5
15E26
  8
0
 10
139.0121452272231011
 20
266.4471749473908062
 30
0.0
 11
131.1594169090230935
 21
266.4471749473908062
 31
0.0
  0
LINE
  5
15E27
  8
0
 10
139.016213315523089
 20
266.4471749473908062
 30
0.0
 11
139.1081047262231039
 21
266.4471749473908062
 31
0.0
  0
LINE
  5
15E28
  8
0
 10
139.1081047262231039
 20
266.4471749473908062
 30
0.0
 11
139.1081355406230955
 21
266.4560026077908219
 31
0.0
  0
LINE
  5
15E29
  8
0
 10
139.1081355406230955
 20
266.4560026077908219
 30
0.0
 11
139.016213315523089
 21
266.6440253410906962
 31
0.0
  0
LINE
  5
15E2A
  8
0
 10
139.0131169903231125
 20
266.6440253410906962
 30
0.0
 11
138.9202665803231014
 21
266.4560026077908219
 31
0.0
  0
LINE
  5
15E2B
  8
0
 10
139.0595204021230984
 20
266.8408757347908136
 30
0.0
 11
139.0595204021230984
 21
266.7522930575992177
 31
0.0
  0
LINE
  5
15E2C
  8
0
 10
139.0595204021230984
 20
266.5554426638880159
 30
0.0
 11
139.0595204021230984
 21
266.6440253410906962
 31
0.0
  0
LINE
  5
15E2D
  8
0
 10
131.0201503234231097
 20
266.8408757347908136
 30
0.0
 11
131.0201503234231097
 21
266.7522930575992177
 31
0.0
  0
LINE
  5
15E2E
  8
0
 10
131.0201503234231097
 20
266.6440253410906962
 30
0.0
 11
131.0201503234231097
 21
266.5554426638906875
 31
0.0
  0
LINE
  5
15E2F
  8
0
 10
133.3469219769231131
 20
266.8408757347908136
 30
0.0
 11
133.3469219769231131
 21
266.7522930575908049
 31
0.0
  0
LINE
  5
15E30
  8
0
 10
133.3469219769231131
 20
266.7522930575908049
 30
0.0
 11
133.4650322131230951
 21
266.7522930575906912
 31
0.0
  0
LINE
  5
15E31
  8
0
 10
133.4650322131230951
 20
266.7522930575906912
 30
0.0
 11
133.4650322131230951
 21
266.8408757347908136
 31
0.0
  0
LINE
  5
15E32
  8
0
 10
136.6146385124231131
 20
266.8408757347908136
 30
0.0
 11
136.6146385124231131
 21
266.7522930575906912
 31
0.0
  0
LINE
  5
15E33
  8
0
 10
136.6146385124231131
 20
266.7522930575906912
 30
0.0
 11
136.732748748623095
 21
266.7522930575906912
 31
0.0
  0
LINE
  5
15E34
  8
0
 10
136.732748748623095
 20
266.7522930575906912
 30
0.0
 11
136.732748748623095
 21
266.8408757347908136
 31
0.0
  0
LINE
  5
15E35
  8
0
 10
133.3469219769231131
 20
266.6440253410906962
 30
0.0
 11
133.3469219769231131
 21
266.5554426638906875
 31
0.0
  0
LINE
  5
15E36
  8
0
 10
133.3469219769231131
 20
266.5554426638906875
 30
0.0
 11
133.4650322131230951
 21
266.5554426638906875
 31
0.0
  0
LINE
  5
15E37
  8
0
 10
133.4650322131230951
 20
266.5554426638906875
 30
0.0
 11
133.4650322131230951
 21
266.6440253410906962
 31
0.0
  0
LINE
  5
15E38
  8
0
 10
136.6146385124231131
 20
266.6440253410906962
 30
0.0
 11
136.6146385124231131
 21
266.5554426638906875
 31
0.0
  0
LINE
  5
15E39
  8
0
 10
136.6146385124231131
 20
266.5554426638906875
 30
0.0
 11
136.732748748623095
 21
266.5554426638906875
 31
0.0
  0
LINE
  5
15E3A
  8
0
 10
136.732748748623095
 20
266.5554426638906875
 30
0.0
 11
136.732748748623095
 21
266.6440253410906962
 31
0.0
  0
LINE
  5
15E3B
  8
0
 10
131.0634574100230907
 20
266.4471749473908062
 30
0.0
 11
130.9722174537230899
 21
266.260547764090802
 31
0.0
  0
LINE
  5
15E3C
  8
0
 10
130.9722174537230899
 20
266.260547764090802
 30
0.0
 11
130.9722174537230899
 21
266.2503245536908025
 31
0.0
  0
LINE
  5
15E3D
  8
0
 10
130.9722174537230899
 20
266.2503245536908025
 30
0.0
 11
131.0634574100230907
 21
266.2503245536908025
 31
0.0
  0
LINE
  5
15E3E
  8
0
 10
131.0634574100230907
 20
266.2503245536908025
 30
0.0
 11
130.9728997226231115
 21
266.0650929203907822
 31
0.0
  0
LINE
  5
15E3F
  8
0
 10
130.9728997226231115
 20
266.0650929203907822
 30
0.0
 11
130.9728997226231115
 21
266.0534741598908113
 31
0.0
  0
LINE
  5
15E40
  8
0
 10
130.9728997226231115
 20
266.0534741598908113
 30
0.0
 11
131.0634574100230907
 21
266.0534741598908113
 31
0.0
  0
LINE
  5
15E41
  8
0
 10
131.0634574100230907
 20
266.0534741598908113
 30
0.0
 11
130.9735819915231048
 21
265.8696380766908192
 31
0.0
  0
LINE
  5
15E42
  8
0
 10
130.9735819915231048
 20
265.8696380766908192
 30
0.0
 11
130.9735819915231048
 21
265.8566237661906939
 31
0.0
  0
LINE
  5
15E43
  8
0
 10
130.9735819915231048
 20
265.8566237661906939
 30
0.0
 11
131.0634574100230907
 21
265.8566237661906939
 31
0.0
  0
LINE
  5
15E44
  8
0
 10
131.0634574100230907
 20
265.8566237661906939
 30
0.0
 11
130.974264260423098
 21
265.6741832329907993
 31
0.0
  0
LINE
  5
15E45
  8
0
 10
130.974264260423098
 20
265.6741832329907993
 30
0.0
 11
130.974314560523112
 21
265.6597733724908039
 31
0.0
  0
LINE
  5
15E46
  8
0
 10
130.974314560523112
 20
265.6597733724908039
 30
0.0
 11
131.0634574100230907
 21
265.6597733724908039
 31
0.0
  0
LINE
  5
15E47
  8
0
 10
131.0634574100230907
 20
265.6597733724908039
 30
0.0
 11
130.9749465293230912
 21
265.4787283891907919
 31
0.0
  0
LINE
  5
15E48
  8
0
 10
130.9749465293230912
 20
265.4787283891907919
 30
0.0
 11
130.9750017008230998
 21
265.4629229787906866
 31
0.0
  0
LINE
  5
15E49
  8
0
 10
130.9750017008230998
 20
265.4629229787906866
 30
0.0
 11
131.0634574100230907
 21
265.4629229787906866
 31
0.0
  0
LINE
  5
15E4A
  8
0
 10
131.0634574100230907
 20
265.4629229787906866
 30
0.0
 11
130.9756287982231129
 21
265.283273545490772
 31
0.0
  0
LINE
  5
15E4B
  8
0
 10
130.9756287982231129
 20
265.283273545490772
 30
0.0
 11
130.9756888411230875
 21
265.2660725850907966
 31
0.0
  0
LINE
  5
15E4C
  8
0
 10
130.9756888411230875
 20
265.2660725850907966
 30
0.0
 11
131.0634574100230907
 21
265.2660725850907966
 31
0.0
  0
LINE
  5
15E4D
  8
0
 10
131.0634574100230907
 20
265.2660725850907966
 30
0.0
 11
130.9763110670230901
 21
265.0878187017906953
 31
0.0
  0
LINE
  5
15E4E
  8
0
 10
130.9763110670230901
 20
265.0878187017906953
 30
0.0
 11
130.9763110670230901
 21
264.9353639236907725
 31
0.0
  0
LINE
  5
15E4F
  8
0
 10
131.0675254983231071
 20
266.4471749473908062
 30
0.0
 11
131.1596867502231021
 21
266.260547764090802
 31
0.0
  0
LINE
  5
15E50
  8
0
 10
131.1596867502231021
 20
266.260547764090802
 30
0.0
 11
131.1597015318230888
 21
266.2503245536908025
 31
0.0
  0
LINE
  5
15E51
  8
0
 10
131.1597015318230888
 20
266.2503245536908025
 30
0.0
 11
131.0684972614230901
 21
266.2503245536908025
 31
0.0
  0
LINE
  5
15E52
  8
0
 10
131.0684972614230901
 20
266.2503245536908025
 30
0.0
 11
131.1599693553231134
 21
266.0650929203907822
 31
0.0
  0
LINE
  5
15E53
  8
0
 10
131.1599693553231134
 20
266.0650929203907822
 30
0.0
 11
131.1599693553231134
 21
266.0534741598908113
 31
0.0
  0
LINE
  5
15E54
  8
0
 10
131.1599693553231134
 20
266.0534741598908113
 30
0.0
 11
131.0694690246230891
 21
266.0534741598908113
 31
0.0
  0
LINE
  5
15E55
  8
0
 10
131.0694690246230891
 20
266.0534741598908113
 30
0.0
 11
131.1602519603231087
 21
265.8696380766908192
 31
0.0
  0
LINE
  5
15E56
  8
0
 10
131.1602519603231087
 20
265.8696380766908192
 30
0.0
 11
131.1602707775230954
 21
265.8566237661906939
 31
0.0
  0
LINE
  5
15E57
  8
0
 10
138.9193999481458093
 20
265.8566237657068996
 30
0.0
 11
131.0704407877231006
 21
265.8566237661906939
 31
0.0
  0
LINE
  5
15E58
  8
0
 10
131.0704407877231006
 20
265.8566237661906939
 30
0.0
 11
131.1605345653231041
 21
265.6741832329907993
 31
0.0
  0
LINE
  5
15E59
  8
0
 10
131.1605345653231041
 20
265.6741832329907993
 30
0.0
 11
131.1605554003230907
 21
265.6597733724908039
 31
0.0
  0
LINE
  5
15E5A
  8
0
 10
131.1605554003230907
 20
265.6597733724908039
 30
0.0
 11
131.071412550823112
 21
265.6597733724908039
 31
0.0
  0
LINE
  5
15E5B
  8
0
 10
131.071412550823112
 20
265.6597733724908039
 30
0.0
 11
131.1608171703230994
 21
265.4787283891907919
 31
0.0
  0
LINE
  5
15E5C
  8
0
 10
131.1608171703230994
 20
265.4787283891907919
 30
0.0
 11
131.160840023123086
 21
265.4629229787906866
 31
0.0
  0
LINE
  5
15E5D
  8
0
 10
131.0723843139230951
 20
265.4629229787906866
 30
0.0
 11
131.1610997754231107
 21
265.283273545490772
 31
0.0
  0
LINE
  5
15E5E
  8
0
 10
131.1610997754231107
 20
265.283273545490772
 30
0.0
 11
131.1610997754231107
 21
265.2660725850907966
 31
0.0
  0
LINE
  5
15E5F
  8
0
 10
131.0733560770231065
 20
265.2660725850907966
 30
0.0
 11
131.161382380423106
 21
265.0878187017906953
 31
0.0
  0
LINE
  5
15E60
  8
0
 10
131.161382380423106
 20
265.0878187017906953
 30
0.0
 11
131.1616028123231104
 21
264.9353639236907725
 31
0.0
  0
LINE
  5
15E61
  8
0
 10
139.0162133157195115
 20
266.4471749468947905
 30
0.0
 11
139.1074532719962065
 21
266.2605477635834745
 31
0.0
  0
LINE
  5
15E62
  8
0
 10
139.1074532719962065
 20
266.2605477635834745
 30
0.0
 11
139.1074532719948991
 21
266.250324553183475
 31
0.0
  0
LINE
  5
15E63
  8
0
 10
139.1074532719948991
 20
266.250324553183475
 30
0.0
 11
139.0162133156948983
 21
266.2503245531949005
 31
0.0
  0
LINE
  5
15E64
  8
0
 10
139.0162133156948983
 20
266.2503245531949005
 30
0.0
 11
139.106771003071799
 21
266.0650929198836252
 31
0.0
  0
LINE
  5
15E65
  8
0
 10
139.106771003071799
 20
266.0650929198836252
 30
0.0
 11
139.1067710030704063
 21
266.0534741593834838
 31
0.0
  0
LINE
  5
15E66
  8
0
 10
139.1067710030704063
 20
266.0534741593834838
 30
0.0
 11
139.0162133156703987
 21
266.0534741593949093
 31
0.0
  0
LINE
  5
15E67
  8
0
 10
139.0162133156703987
 20
266.0534741593949093
 30
0.0
 11
139.1060887341473915
 21
265.869638076183719
 31
0.0
  0
LINE
  5
15E68
  8
0
 10
139.1060887341473915
 20
265.869638076183719
 30
0.0
 11
139.1060887341457999
 21
265.8566237656835938
 31
0.0
  0
LINE
  5
15E69
  8
0
 10
139.1060887341457999
 20
265.8566237656835938
 30
0.0
 11
139.016213315645814
 21
265.8566237656947919
 31
0.0
  0
LINE
  5
15E6A
  8
0
 10
139.016213315645814
 20
265.8566237656947919
 30
0.0
 11
139.1054064652230977
 21
265.6741832324836992
 31
0.0
  0
LINE
  5
15E6B
  8
0
 10
139.1054064652230977
 20
265.6741832324836992
 30
0.0
 11
139.1053561651212931
 21
265.6597733719838175
 31
0.0
  0
LINE
  5
15E6C
  8
0
 10
139.1053561651212931
 20
265.6597733719838175
 30
0.0
 11
139.016213315621286
 21
265.6597733719947882
 31
0.0
  0
LINE
  5
15E6D
  8
0
 10
139.016213315621286
 20
265.6597733719947882
 30
0.0
 11
139.1047241962986902
 21
265.4787283886838054
 31
0.0
  0
LINE
  5
15E6E
  8
0
 10
139.1047241962986902
 20
265.4787283886838054
 30
0.0
 11
139.1046690247966922
 21
265.4629229782838138
 31
0.0
  0
LINE
  5
15E6F
  8
0
 10
139.1046690247966922
 20
265.4629229782838138
 30
0.0
 11
139.0162133155967012
 21
265.4629229782948983
 31
0.0
  0
LINE
  5
15E70
  8
0
 10
139.0162133155967012
 20
265.4629229782948983
 30
0.0
 11
139.1040419273743112
 21
265.2832735449838992
 31
0.0
  0
LINE
  5
15E71
  8
0
 10
139.1040419273743112
 20
265.2832735449838992
 30
0.0
 11
139.1039818844722049
 21
265.2660725845839238
 31
0.0
  0
LINE
  5
15E72
  8
0
 10
139.1039818844722049
 20
265.2660725845839238
 30
0.0
 11
139.0162133155722017
 21
265.2660725845947809
 31
0.0
  0
LINE
  5
15E73
  8
0
 10
139.0162133155722017
 20
265.2660725845947809
 30
0.0
 11
139.103359658550005
 21
265.0878187012839931
 31
0.0
  0
LINE
  5
15E74
  8
0
 10
139.103359658550005
 20
265.0878187012839931
 30
0.0
 11
139.1033596585309056
 21
264.9353639231838997
 31
0.0
  0
LINE
  5
15E75
  8
0
 10
139.0121452274194951
 20
266.4471749468954158
 30
0.0
 11
138.9199839754961943
 21
266.260547763606894
 31
0.0
  0
LINE
  5
15E76
  8
0
 10
138.9199839754961943
 20
266.260547763606894
 30
0.0
 11
138.9199691938949002
 21
266.2503245532067808
 31
0.0
  0
LINE
  5
15E77
  8
0
 10
138.9199691938949002
 20
266.2503245532067808
 30
0.0
 11
139.0111734642948988
 21
266.2503245531955258
 31
0.0
  0
LINE
  5
15E78
  8
0
 10
139.0111734642948988
 20
266.2503245531955258
 30
0.0
 11
138.9197013703717971
 21
266.0650929199068742
 31
0.0
  0
LINE
  5
15E79
  8
0
 10
138.9197013703717971
 20
266.0650929199068742
 30
0.0
 11
138.9197013703704044
 21
266.0534741594069033
 31
0.0
  0
LINE
  5
15E7A
  8
0
 10
131.1599861546231125
 20
266.0534741598908113
 30
0.0
 11
139.0102017010704003
 21
266.0534741593955914
 31
0.0
  0
LINE
  5
15E7B
  8
0
 10
139.0102017010704003
 20
266.0534741593955914
 30
0.0
 11
138.9194187653475012
 21
265.8696380762069111
 31
0.0
  0
LINE
  5
15E7C
  8
0
 10
138.9194187653475012
 20
265.8696380762069111
 30
0.0
 11
138.9193999481458093
 21
265.8566237657068996
 31
0.0
  0
LINE
  5
15E7D
  8
0
 10
138.9193999481458093
 20
265.8566237657068996
 30
0.0
 11
139.0092299379458041
 21
265.8566237656957014
 31
0.0
  0
LINE
  5
15E7E
  8
0
 10
139.0092299379458041
 20
265.8566237656957014
 30
0.0
 11
138.9191361603230916
 21
265.6741832325068913
 31
0.0
  0
LINE
  5
15E7F
  8
0
 10
138.9191361603230916
 20
265.6741832325068913
 30
0.0
 11
138.919115325321286
 21
265.6597733720070096
 31
0.0
  0
LINE
  5
15E80
  8
0
 10
138.919115325321286
 20
265.6597733720070096
 30
0.0
 11
139.0082581748212931
 21
265.6597733719958114
 31
0.0
  0
LINE
  5
15E81
  8
0
 10
139.0082581748212931
 20
265.6597733719958114
 30
0.0
 11
138.9188535552987105
 21
265.4787283887069975
 31
0.0
  0
LINE
  5
15E82
  8
0
 10
138.9188535552987105
 20
265.4787283887069975
 30
0.0
 11
138.918830702496706
 21
265.4629229783070059
 31
0.0
  0
LINE
  5
15E83
  8
0
 10
131.0723843139230951
 20
265.4629229787906866
 30
0.0
 11
139.0072864116966969
 21
265.4629229782959783
 31
0.0
  0
LINE
  5
15E84
  8
0
 10
139.0072864116966969
 20
265.4629229782959783
 30
0.0
 11
138.9185709501743133
 21
265.2832735450069777
 31
0.0
  0
LINE
  5
15E85
  8
0
 10
138.9185709501743133
 20
265.2832735450069777
 30
0.0
 11
138.9185709501722101
 21
265.2660725846070022
 31
0.0
  0
LINE
  5
15E86
  8
0
 10
131.0733560770231065
 20
265.2660725850907966
 30
0.0
 11
139.0063146485721859
 21
265.2660725845960883
 31
0.0
  0
LINE
  5
15E87
  8
0
 10
139.0063146485721859
 20
265.2660725845960883
 30
0.0
 11
138.9182883451499038
 21
265.0878187013071283
 31
0.0
  0
LINE
  5
15E88
  8
0
 10
138.9182883451499038
 20
265.0878187013071283
 30
0.0
 11
138.918067913230999
 21
264.9353639232070918
 31
0.0
  0
LINE
  5
15E89
  8
0
 10
131.1596867502231021
 20
266.260547764090802
 30
0.0
 11
138.9199839753231061
 21
266.260547764090802
 31
0.0
  0
LINE
  5
15E8A
  8
0
 10
131.1599699757333894
 20
266.0650929203907822
 30
0.0
 11
138.919701370221901
 21
266.0650929196032735
 31
0.0
  0
LINE
  5
15E8B
  8
0
 10
131.160251956778211
 20
265.869640528372372
 30
0.0
 11
138.9194187652230994
 21
265.8696380766908192
 31
0.0
  0
LINE
  5
15E8C
  8
0
 10
131.1605345653240988
 20
265.6741832323024255
 30
0.0
 11
138.9191361602221093
 21
265.6741832323024255
 31
0.0
  0
LINE
  5
15E8D
  8
0
 10
131.1608171703230994
 20
265.4787283891907919
 30
0.0
 11
138.918842128823087
 21
265.4787283891907919
 31
0.0
  0
LINE
  5
15E8E
  8
0
 10
131.1610997682820994
 20
265.2832784842947831
 30
0.0
 11
138.9185709501743133
 21
265.28327358093469
 31
0.0
  0
LINE
  5
15E8F
  8
0
 10
131.1574259100223117
 20
265.0878187012510807
 30
0.0
 11
138.9182883451223063
 21
265.0878187012510807
 31
0.0
  0
LINE
  5
15E90
  8
0
 10
131.1597015318230888
 20
266.2503245536908025
 30
0.0
 11
138.9199691937224088
 21
266.2503245532067808
 31
0.0
  0
LINE
  5
15E91
  8
0
 10
138.919115325321286
 20
265.6597733720070096
 30
0.0
 11
131.1605554003230907
 21
265.6597733724908039
 31
0.0
  0
LINE
  5
15E92
  8
0
 10
133.3469219769231131
 20
266.4471749473908062
 30
0.0
 11
133.3469219769231131
 21
266.3585922701907975
 31
0.0
  0
LINE
  5
15E93
  8
0
 10
133.3469219769231131
 20
266.3585922701907975
 30
0.0
 11
133.4650322131230951
 21
266.3585922701907975
 31
0.0
  0
LINE
  5
15E94
  8
0
 10
133.4650322131230951
 20
266.3585922701907975
 30
0.0
 11
133.4650322131230951
 21
266.4471749473908062
 31
0.0
  0
LINE
  5
15E95
  8
0
 10
136.6146385124231131
 20
266.4471749473908062
 30
0.0
 11
136.6146385124231131
 21
266.3585922701907975
 31
0.0
  0
LINE
  5
15E96
  8
0
 10
136.6146385124231131
 20
266.3585922701907975
 30
0.0
 11
136.732748748623095
 21
266.3585922701907975
 31
0.0
  0
LINE
  5
15E97
  8
0
 10
136.732748748623095
 20
266.3585922701907975
 30
0.0
 11
136.732748748623095
 21
266.4471749473908062
 31
0.0
  0
LINE
  5
15E98
  8
0
 10
133.3469219769231131
 20
266.2503245536908025
 30
0.0
 11
133.3469219769231131
 21
266.1617418764907939
 31
0.0
  0
LINE
  5
15E99
  8
0
 10
133.3469219769231131
 20
266.1617418764907939
 30
0.0
 11
133.4650322131230951
 21
266.1617418764907939
 31
0.0
  0
LINE
  5
15E9A
  8
0
 10
133.4650322131230951
 20
266.1617418764907939
 30
0.0
 11
133.4650322131230951
 21
266.2503245536908025
 31
0.0
  0
LINE
  5
15E9B
  8
0
 10
136.6146385124231131
 20
266.2503245536908025
 30
0.0
 11
136.6146385124231131
 21
266.1617418764907939
 31
0.0
  0
LINE
  5
15E9C
  8
0
 10
136.6146385124231131
 20
266.1617418764907939
 30
0.0
 11
136.732748748623095
 21
266.1617418764907939
 31
0.0
  0
LINE
  5
15E9D
  8
0
 10
136.732748748623095
 20
266.1617418764907939
 30
0.0
 11
136.732748748623095
 21
266.2503245536908025
 31
0.0
  0
LINE
  5
15E9E
  8
0
 10
133.3469219769231131
 20
266.0534741599907989
 30
0.0
 11
133.3469219769231131
 21
265.9648914827907902
 31
0.0
  0
LINE
  5
15E9F
  8
0
 10
133.3469219769231131
 20
265.9648914827907902
 30
0.0
 11
133.4650322131230951
 21
265.9648914827907902
 31
0.0
  0
LINE
  5
15EA0
  8
0
 10
133.4650322131230951
 20
265.9648914827907902
 30
0.0
 11
133.4650322131230951
 21
266.0534741599907989
 31
0.0
  0
LINE
  5
15EA1
  8
0
 10
136.6146385124231131
 20
266.0534741599907989
 30
0.0
 11
136.6146385124231131
 21
265.9648914827907902
 31
0.0
  0
LINE
  5
15EA2
  8
0
 10
136.6146385124231131
 20
265.9648914827907902
 30
0.0
 11
136.732748748623095
 21
265.9648914827907902
 31
0.0
  0
LINE
  5
15EA3
  8
0
 10
136.732748748623095
 20
265.9648914827907902
 30
0.0
 11
136.732748748623095
 21
266.0534741599907989
 31
0.0
  0
LINE
  5
15EA4
  8
0
 10
133.3469219769231131
 20
265.8566237662907952
 30
0.0
 11
133.3469219769231131
 21
265.7680410890907865
 31
0.0
  0
LINE
  5
15EA5
  8
0
 10
133.3469219769231131
 20
265.7680410890907865
 30
0.0
 11
133.4650322131230951
 21
265.7680410890907865
 31
0.0
  0
LINE
  5
15EA6
  8
0
 10
133.4650322131230951
 20
265.7680410890907865
 30
0.0
 11
133.4650322131230951
 21
265.8566237662907952
 31
0.0
  0
LINE
  5
15EA7
  8
0
 10
136.6146385124231131
 20
265.8566237662907952
 30
0.0
 11
136.6146385124231131
 21
265.7680410890907865
 31
0.0
  0
LINE
  5
15EA8
  8
0
 10
136.6146385124231131
 20
265.7680410890907865
 30
0.0
 11
136.732748748623095
 21
265.7680410890907865
 31
0.0
  0
LINE
  5
15EA9
  8
0
 10
136.732748748623095
 20
265.7680410890907865
 30
0.0
 11
136.732748748623095
 21
265.8566237662907952
 31
0.0
  0
LINE
  5
15EAA
  8
0
 10
133.3469219769231131
 20
265.6597733725907915
 30
0.0
 11
133.3469219769231131
 21
265.5711906953907828
 31
0.0
  0
LINE
  5
15EAB
  8
0
 10
133.3469219769231131
 20
265.5711906953907828
 30
0.0
 11
133.4650322131230951
 21
265.5711906953907828
 31
0.0
  0
LINE
  5
15EAC
  8
0
 10
133.4650322131230951
 20
265.5711906953907828
 30
0.0
 11
133.4650322131230951
 21
265.6597733725907915
 31
0.0
  0
LINE
  5
15EAD
  8
0
 10
136.6146385124231131
 20
265.6597733725907915
 30
0.0
 11
136.6146385124231131
 21
265.5711906953907828
 31
0.0
  0
LINE
  5
15EAE
  8
0
 10
136.6146385124231131
 20
265.5711906953907828
 30
0.0
 11
136.732748748623095
 21
265.5711906953907828
 31
0.0
  0
LINE
  5
15EAF
  8
0
 10
136.732748748623095
 20
265.5711906953907828
 30
0.0
 11
136.732748748623095
 21
265.6597733725907915
 31
0.0
  0
LINE
  5
15EB0
  8
0
 10
133.3469219769231131
 20
265.2660725851907841
 30
0.0
 11
133.3469219769231131
 21
265.1774899079907755
 31
0.0
  0
LINE
  5
15EB1
  8
0
 10
133.3469219769231131
 20
265.1774899079907755
 30
0.0
 11
133.4650322131230951
 21
265.1774899079907755
 31
0.0
  0
LINE
  5
15EB2
  8
0
 10
133.4650322131230951
 20
265.1774899079907755
 30
0.0
 11
133.4650322131230951
 21
265.2660725851907841
 31
0.0
  0
LINE
  5
15EB3
  8
0
 10
136.6146385124231131
 20
265.2660725851907841
 30
0.0
 11
136.6146385124231131
 21
265.1774899079907755
 31
0.0
  0
LINE
  5
15EB4
  8
0
 10
136.6146385124231131
 20
265.1774899079907755
 30
0.0
 11
136.732748748623095
 21
265.1774899079907755
 31
0.0
  0
LINE
  5
15EB5
  8
0
 10
136.732748748623095
 20
265.1774899079907755
 30
0.0
 11
136.732748748623095
 21
265.2660725851907841
 31
0.0
  0
LINE
  5
15EB6
  8
0
 10
133.3469219769231131
 20
265.4629229788907878
 30
0.0
 11
133.3469219769231131
 21
265.3743403016907791
 31
0.0
  0
LINE
  5
15EB7
  8
0
 10
133.3469219769231131
 20
265.3743403016907791
 30
0.0
 11
133.4650322131230951
 21
265.3743403016907791
 31
0.0
  0
LINE
  5
15EB8
  8
0
 10
133.4650322131230951
 20
265.3743403016907791
 30
0.0
 11
133.4650322131230951
 21
265.4629229788907878
 31
0.0
  0
LINE
  5
15EB9
  8
0
 10
136.6146385124231131
 20
265.4629229788907878
 30
0.0
 11
136.6146385124231131
 21
265.3743403016907791
 31
0.0
  0
LINE
  5
15EBA
  8
0
 10
136.6146385124231131
 20
265.3743403016907791
 30
0.0
 11
136.732748748623095
 21
265.3743403016907791
 31
0.0
  0
LINE
  5
15EBB
  8
0
 10
136.732748748623095
 20
265.3743403016907791
 30
0.0
 11
136.732748748623095
 21
265.4629229788907878
 31
0.0
  0
LINE
  5
15EBC
  8
0
 10
127.0280243391231068
 20
267.4707969945907848
 30
0.0
 11
143.0516463864231014
 21
267.4707969945907848
 31
0.0
  0
LINE
  5
15EBD
  8
0
 10
130.9453471738231087
 20
264.8723717976907892
 30
0.0
 11
130.9453471738231087
 21
264.9353639236907725
 31
0.0
  0
LINE
  5
15EBE
  8
0
 10
130.9453471738231087
 20
264.9353639236907725
 30
0.0
 11
139.1343235517230994
 21
264.9353639236907725
 31
0.0
  0
LINE
  5
15EBF
  8
0
 10
139.1343235517230994
 20
264.9353639236907725
 30
0.0
 11
139.1343235517230994
 21
264.8723717976907892
 31
0.0
  0
LINE
  5
15EC0
  8
0
 10
139.1343235517230994
 20
264.8723717976907892
 30
0.0
 11
130.9453471738231087
 21
264.8723717976907892
 31
0.0
  0
LINE
  5
15EC1
  8
0
 10
131.1028274887231078
 20
264.8723717976907892
 30
0.0
 11
131.1028274887231078
 21
264.4786710102907819
 31
0.0
  0
LINE
  5
15EC2
  8
0
 10
131.1028274887231078
 20
264.4786710102907819
 30
0.0
 11
138.9768432368231004
 21
264.4786710102907819
 31
0.0
  0
LINE
  5
15EC3
  8
0
 10
138.9768432368231004
 20
264.4786710102907819
 30
0.0
 11
138.9768432368231004
 21
264.8723717976907892
 31
0.0
  0
LINE
  5
15EC4
  8
0
 10
138.9768432368231004
 20
264.8664662858906809
 30
0.0
 11
139.0949534730231107
 21
264.8664662858906809
 31
0.0
  0
LINE
  5
15EC5
  8
0
 10
139.0949534730231107
 20
264.8664662858906809
 30
0.0
 11
139.0949534730231107
 21
264.8723717976907892
 31
0.0
  0
LINE
  5
15EC6
  8
0
 10
130.9847172525230974
 20
264.8723717976907892
 30
0.0
 11
130.9847172525230974
 21
264.8664662858906809
 31
0.0
  0
LINE
  5
15EC7
  8
0
 10
130.9847172525230974
 20
264.8664662858906809
 30
0.0
 11
131.1028274887231078
 21
264.8664662858906809
 31
0.0
  0
LINE
  5
15EC8
  8
0
 10
130.6889638304230914
 20
264.5641008098908173
 30
0.0
 11
130.6697566226231118
 21
264.8330017189907721
 31
0.0
  0
LINE
  5
15EC9
  8
0
 10
130.6697566226231118
 20
264.8330017189907721
 30
0.0
 11
131.1028274887231078
 21
264.8330017189907721
 31
0.0
  0
LINE
  5
15ECA
  8
0
 10
131.1014500174734962
 20
264.8664662858906809
 30
0.0
 11
131.1013640514489111
 21
264.8525615454558988
 31
0.0
  0
ARC
  5
15ECB
  8
0
 10
131.0812814190427957
 20
264.852913850288985
 30
0.0
 40
0.0200857223682802
 50
277.5382558311957268
 51
358.9949768874656115
  0
ARC
  5
15ECC
  8
0
 10
131.4965282761361891
 20
264.041902145743677
 30
0.0
 40
0.4687432661670718
 50
208.1272887880392943
 51
331.8727112072485852
  0
LINE
  5
15ECD
  8
0
 10
130.6926034146231075
 20
264.5514965291907856
 30
0.0
 11
131.0831424493493955
 21
263.8209215859907886
 31
0.0
  0
LINE
  5
15ECE
  8
0
 10
131.9099141029230964
 20
263.8209215859907886
 30
0.0
 11
132.2615232399230933
 21
264.4786710102907819
 31
0.0
  0
ARC
  5
15ECF
  8
0
 10
130.7203798514065056
 20
264.566344811077613
 30
0.0
 40
0.0314960619087149
 50
184.0856162139120045
 51
208.1273536410047029
  0
LINE
  5
15ED0
  8
0
 10
130.6889638304230914
 20
264.5641008098908173
 30
0.0
 11
131.1028274887231078
 21
264.5641008098908173
 31
0.0
  0
LINE
  5
15ED1
  8
0
 10
133.0320246506555009
 20
264.4786710102907819
 30
0.0
 11
133.0338135344231034
 21
264.1239483751907073
 31
0.0
  0
LINE
  5
15ED2
  8
0
 10
133.0338135344231034
 20
264.1239483751907073
 30
0.0
 11
134.1584261398027991
 21
264.1228670169293764
 31
0.0
  0
LINE
  5
15ED3
  8
0
 10
133.2683353628231089
 20
264.1237228734353835
 30
0.0
 11
133.2683353628231089
 21
263.4829641231906976
 31
0.0
  0
LINE
  5
15ED4
  8
0
 10
132.7543353628230989
 20
263.3579641231908113
 30
0.0
 11
134.1576906563230978
 21
263.3579641231908113
 31
0.0
  0
LINE
  5
15ED5
  8
0
 10
132.4018353628231068
 20
262.0979641231908204
 30
0.0
 11
132.4020400872230994
 21
262.8461181610908284
 31
0.0
  0
LINE
  5
15ED6
  8
0
 10
132.4020400872230994
 20
262.8461181610908284
 30
0.0
 11
134.1571984966869024
 21
262.8461181610908284
 31
0.0
  0
LINE
  5
15ED7
  8
0
 10
132.5043353628230989
 20
263.1079641231908113
 30
0.0
 11
132.5043353628230989
 21
262.8461181610908284
 31
0.0
  0
LINE
  5
15ED8
  8
0
 10
132.4018353628231068
 20
262.0979641231908204
 30
0.0
 11
134.1564791178130065
 21
262.0979641231908204
 31
0.0
  0
LINE
  5
15ED9
  8
0
 10
132.4807802446231051
 20
261.9996614681908227
 30
0.0
 11
134.1563845960303922
 21
261.9996614681908227
 31
0.0
  0
LINE
  5
15EDA
  8
0
 10
132.4020400871231118
 20
262.0784016256907876
 30
0.0
 11
132.4018353628383977
 21
262.0979641792113739
 31
0.0
  0
ARC
  5
15EDB
  8
0
 10
132.4807802446231051
 20
262.0784016256907876
 30
0.0
 40
0.0787401575000026
 50
180.0
 51
269.9999999999984084
  0
ARC
  5
15EDC
  8
0
 10
132.7543353628230989
 20
263.1079641231908113
 30
0.0
 40
0.2499999999999938
 50
89.9999999999983658
 51
180.0
  0
ARC
  5
15EDD
  8
0
 10
133.1433353628231089
 20
263.4829641231906976
 30
0.0
 40
0.1250000000000018
 50
270.0
 51
359.9999999999968168
  0
LINE
  5
15EDE
  8
0
 10
134.1587682590231054
 20
264.4786710102907819
 30
0.0
 11
134.1551064106230911
 21
260.6703486285907729
 31
0.0
  0
LINE
  5
15EDF
  8
0
 10
139.0949534731230983
 20
264.8723717976907892
 30
0.0
 11
139.0949534731230983
 21
264.8664662858906809
 31
0.0
  0
LINE
  5
15EE0
  8
0
 10
139.0949534731230983
 20
264.8664662858906809
 30
0.0
 11
138.9768432369230879
 21
264.8664662858906809
 31
0.0
  0
LINE
  5
15EE1
  8
0
 10
139.3907068952231043
 20
264.5641008098908173
 30
0.0
 11
139.4099141030231124
 21
264.8330017189907721
 31
0.0
  0
LINE
  5
15EE2
  8
0
 10
139.4099141030231124
 20
264.8330017189907721
 30
0.0
 11
138.9768432369230879
 21
264.8330017189907721
 31
0.0
  0
LINE
  5
15EE3
  8
0
 10
138.9782207081726142
 20
264.8664662858906809
 30
0.0
 11
138.9783066741971993
 21
264.8525615454558988
 31
0.0
  0
ARC
  5
15EE4
  8
0
 10
138.9983893066032863
 20
264.852913850288985
 30
0.0
 40
0.0200857223682802
 50
181.0050231125345022
 51
262.4617441688026815
  0
ARC
  5
15EE5
  8
0
 10
138.5831424495098929
 20
264.041902145743677
 30
0.0
 40
0.4687432661670718
 50
208.1272887927518127
 51
331.8727112119606772
  0
LINE
  5
15EE6
  8
0
 10
139.3870673110230882
 20
264.5514965291907856
 30
0.0
 11
138.9965282762968002
 21
263.8209215859907886
 31
0.0
  0
LINE
  5
15EE7
  8
0
 10
138.1697566227230993
 20
263.8209215859907886
 30
0.0
 11
137.8181474857231024
 21
264.4786710102907819
 31
0.0
  0
ARC
  5
15EE8
  8
0
 10
139.3592908742396048
 20
264.566344811077613
 30
0.0
 40
0.0314960619087149
 50
331.8726463589953255
 51
355.9143837860879103
  0
LINE
  5
15EE9
  8
0
 10
139.3907068952231043
 20
264.5641008098908173
 30
0.0
 11
138.9768432369230879
 21
264.5641008098908173
 31
0.0
  0
LINE
  5
15EEA
  8
0
 10
137.0476460749906948
 20
264.4786710102907819
 30
0.0
 11
137.0458571912230923
 21
264.1239483751907073
 31
0.0
  0
LINE
  5
15EEB
  8
0
 10
137.0458571912230923
 20
264.1239483751907073
 30
0.0
 11
135.9212445858433966
 21
264.1228670169293764
 31
0.0
  0
LINE
  5
15EEC
  8
0
 10
136.8113353628230868
 20
264.1237228734353835
 30
0.0
 11
136.8113353628230868
 21
263.4829641231906976
 31
0.0
  0
LINE
  5
15EED
  8
0
 10
137.3253353628230968
 20
263.3579641231908113
 30
0.0
 11
135.921980069323098
 21
263.3579641231908113
 31
0.0
  0
LINE
  5
15EEE
  8
0
 10
137.6778353628230889
 20
262.0979641231908204
 30
0.0
 11
137.6776306384230963
 21
262.8461181610908284
 31
0.0
  0
LINE
  5
15EEF
  8
0
 10
137.6776306384230963
 20
262.8461181610908284
 30
0.0
 11
135.922472228959208
 21
262.8461181610908284
 31
0.0
  0
LINE
  5
15EF0
  8
0
 10
137.5753353628230968
 20
263.1079641231908113
 30
0.0
 11
137.5753353628230968
 21
262.8461181610908284
 31
0.0
  0
LINE
  5
15EF1
  8
0
 10
137.6778353628230889
 20
262.0979641231908204
 30
0.0
 11
135.9231916078331892
 21
262.0979641231908204
 31
0.0
  0
LINE
  5
15EF2
  8
0
 10
137.5988904810230906
 20
261.9996614681908227
 30
0.0
 11
135.9232861296156898
 21
261.9996614681908227
 31
0.0
  0
LINE
  5
15EF3
  8
0
 10
137.6776306385231123
 20
262.0784016256907876
 30
0.0
 11
137.6778353628077127
 21
262.0979641792113739
 31
0.0
  0
ARC
  5
15EF4
  8
0
 10
137.5988904810230906
 20
262.0784016256907876
 30
0.0
 40
0.0787401575000026
 50
270.0000000000017053
 51
0.0
  0
ARC
  5
15EF5
  8
0
 10
137.3253353628230968
 20
263.1079641231908113
 30
0.0
 40
0.2499999999999938
 50
0.0
 51
90.0000000000016058
  0
ARC
  5
15EF6
  8
0
 10
136.9363353628230868
 20
263.4829641231906976
 30
0.0
 40
0.1250000000000018
 50
180.0000000000032117
 51
269.9999999999984084
  0
LINE
  5
15EF7
  8
0
 10
135.9209024666230903
 20
264.4786710102907819
 30
0.0
 11
135.9245643150231047
 21
260.6703486285907729
 31
0.0
  0
CIRCLE
  5
15EF8
  8
0
 10
130.866607016323087
 20
269.0849702228907745
 30
0.0
 40
0.7578740157000002
  0
CIRCLE
  5
15EF9
  8
0
 10
130.866607016323087
 20
269.0849702228907745
 30
0.0
 40
0.3622047244000002
  0
LINE
  5
15EFA
  8
0
 10
125.7681818194231056
 20
271.388119829190714
 30
0.0
 11
127.0673944179230972
 21
271.388119829190714
 31
0.0
  0
LINE
  5
15EFB
  8
0
 62
     3
 10
135.0398353627730899
 20
268.1401664788539847
 30
0.0
 11
150.8539843978228134
 21
286.8292633223306893
 31
0.0
  0
ARC
  5
15EFC
  8
0
 10
130.4079455992963119
 20
269.3497785154175972
 30
0.0
 40
0.0393700790732055
 50
120.000000145531402
 51
179.9999996024023972
  0
ARC
  5
15EFD
  8
0
 10
131.326041015138486
 20
269.3502245657485901
 30
0.0
 40
0.0386000745762263
 50
359.3378936476121908
 51
60.6621065432640734
  0
ARC
  5
15EFE
  8
0
 10
130.866607016323087
 20
269.6145868084907988
 30
0.0
 40
0.0393700786999888
 50
59.9999999998893898
 51
120.0000000000091944
  0
LINE
  5
15EFF
  8
0
 10
130.388260559745504
 20
269.383874004061397
 30
0.0
 11
130.8469219769231131
 21
269.6486822967908097
 31
0.0
  0
LINE
  5
15F00
  8
0
 10
130.8862920557230893
 20
269.6486822967908097
 30
0.0
 11
131.345340889891105
 21
269.3836533047589228
 31
0.0
  0
ARC
  5
15F01
  8
0
 10
130.4079455992963119
 20
268.8201619304639962
 30
0.0
 40
0.0393700790732055
 50
180.0000003975960112
 51
239.999999854468598
  0
ARC
  5
15F02
  8
0
 10
131.326041015138486
 20
268.8197158801330033
 30
0.0
 40
0.0386000745762263
 50
299.3378934567360261
 51
0.6621063523877568
  0
ARC
  5
15F03
  8
0
 10
130.866607016323087
 20
268.5553536373907946
 30
0.0
 40
0.0393700786999888
 50
239.9999999999907061
 51
300.0000000001106173
  0
LINE
  5
15F04
  8
0
 10
130.388260559745504
 20
268.7860664418200827
 30
0.0
 11
130.8469219769231131
 21
268.5212581490907837
 31
0.0
  0
LINE
  5
15F05
  8
0
 10
130.8862920557230893
 20
268.5212581490907837
 30
0.0
 11
131.345340889891105
 21
268.7862871411226138
 31
0.0
  0
LINE
  5
15F06
  8
0
 10
130.3685755202230894
 20
269.3497785154175972
 30
0.0
 11
130.3685755202230894
 21
268.8201619304639962
 31
0.0
  0
LINE
  5
15F07
  8
0
 10
131.3646385124231131
 20
269.3497785156907867
 30
0.0
 11
131.3646385123230971
 21
268.8201619301906931
 31
0.0
  0
LINE
  5
15F08
  8
0
 10
130.492564337123099
 20
269.260981347390782
 30
0.0
 11
130.4777829617231077
 21
269.3169266078907071
 31
0.0
  0
LINE
  5
15F09
  8
0
 10
130.4777829617231077
 20
269.3169266078907071
 30
0.0
 11
130.4911646764230966
 21
269.3380249246907852
 31
0.0
  0
LINE
  5
15F0A
  8
0
 10
130.4911646764230966
 20
269.3380249246907852
 30
0.0
 11
130.5480877624231084
 21
269.3484722658907913
 31
0.0
  0
LINE
  5
15F0B
  8
0
 10
130.5480877624231084
 20
269.3484722658907913
 30
0.0
 11
130.5480877624231084
 21
269.4063358817908238
 31
0.0
  0
LINE
  5
15F0C
  8
0
 10
130.5480877624231084
 20
269.4063358817908238
 30
0.0
 11
130.5658920021230927
 21
269.4234434611908
 31
0.0
  0
LINE
  5
15F0D
  8
0
 10
130.5658920021230927
 20
269.4234434611908
 30
0.0
 11
130.6236249238230869
 21
269.4194063819908251
 31
0.0
  0
LINE
  5
15F0E
  8
0
 10
130.6236249238230869
 20
269.4194063819908251
 30
0.0
 11
130.6376237406138898
 21
269.4755525694076255
 31
0.0
  0
LINE
  5
15F0F
  8
0
 10
130.6376237406138898
 20
269.4755525694076255
 30
0.0
 11
130.6595143588230883
 21
269.4875944948908
 31
0.0
  0
LINE
  5
15F10
  8
0
 10
130.6595143588230883
 20
269.4875944948908
 30
0.0
 11
130.7144295437230994
 21
269.4693266442907884
 31
0.0
  0
LINE
  5
15F11
  8
0
 10
130.7144295437230994
 20
269.4693266442907884
 30
0.0
 11
130.7419515510023871
 21
269.5202275317677163
 31
0.0
  0
LINE
  5
15F12
  8
0
 10
130.7419515510023871
 20
269.5202275317677163
 30
0.0
 11
130.7661491125230953
 21
269.5264471804907771
 31
0.0
  0
LINE
  5
15F13
  8
0
 10
130.7661491125230953
 20
269.5264471804907771
 30
0.0
 11
130.814796033923102
 21
269.495096378990695
 31
0.0
  0
LINE
  5
15F14
  8
0
 10
130.814796033923102
 20
269.495096378990695
 30
0.0
 11
130.8541164742231047
 21
269.5375585918907859
 31
0.0
  0
LINE
  5
15F15
  8
0
 10
130.8541164742231047
 20
269.5375585918907859
 30
0.0
 11
130.8791021100244052
 21
269.5375536766300115
 31
0.0
  0
LINE
  5
15F16
  8
0
 10
130.8791021100244052
 20
269.5375536766300115
 30
0.0
 11
130.9184179987231005
 21
269.495096378990695
 31
0.0
  0
LINE
  5
15F17
  8
0
 10
130.9184179987231005
 20
269.495096378990695
 30
0.0
 11
130.9670574070781868
 21
269.5264423386153112
 31
0.0
  0
LINE
  5
15F18
  8
0
 10
130.9670574070781868
 20
269.5264423386153112
 30
0.0
 11
130.9912624816809057
 21
269.5202275317570866
 31
0.0
  0
LINE
  5
15F19
  8
0
 10
130.9912624816809057
 20
269.5202275317570866
 30
0.0
 11
131.018784488923103
 21
269.4693266442907884
 31
0.0
  0
LINE
  5
15F1A
  8
0
 10
131.018784488923103
 20
269.4693266442907884
 30
0.0
 11
131.0736977184230909
 21
269.4875938443908012
 31
0.0
  0
LINE
  5
15F1B
  8
0
 10
131.0736977184230909
 20
269.4875938443908012
 30
0.0
 11
131.0955902920177891
 21
269.4755525694160951
 31
0.0
  0
LINE
  5
15F1C
  8
0
 10
131.0955902920177891
 20
269.4755525694160951
 30
0.0
 11
131.1095891088230871
 21
269.4194063819908251
 31
0.0
  0
LINE
  5
15F1D
  8
0
 10
131.1095891088230871
 20
269.4194063819908251
 30
0.0
 11
131.1673131785231021
 21
269.4234428421906955
 31
0.0
  0
LINE
  5
15F1E
  8
0
 10
131.1673131785231021
 20
269.4234428421906955
 30
0.0
 11
131.1855303028231106
 21
269.4063447394908053
 31
0.0
  0
LINE
  5
15F1F
  8
0
 10
131.1855303028231106
 20
269.4063447394908053
 30
0.0
 11
131.185126270223094
 21
269.3484722658907913
 31
0.0
  0
LINE
  5
15F20
  8
0
 10
131.185126270223094
 20
269.3484722658907913
 30
0.0
 11
131.2420473294230874
 21
269.3380252966907733
 31
0.0
  0
LINE
  5
15F21
  8
0
 10
131.2420473294230874
 20
269.3380252966907733
 30
0.0
 11
131.2554310709230947
 21
269.3169266078907071
 31
0.0
  0
LINE
  5
15F22
  8
0
 10
131.2554310709230947
 20
269.3169266078907071
 30
0.0
 11
131.2406496955231034
 21
269.260981347390782
 31
0.0
  0
LINE
  5
15F23
  8
0
 10
131.2406496955231034
 20
269.260981347390782
 30
0.0
 11
131.2931843906231109
 21
269.2367069103906942
 31
0.0
  0
LINE
  5
15F24
  8
0
 10
131.2931843906231109
 20
269.2367069103906942
 30
0.0
 11
131.3009050077230881
 21
269.2129504487908207
 31
0.0
  0
LINE
  5
15F25
  8
0
 10
131.3009050077230881
 20
269.2129504487908207
 30
0.0
 11
131.272670643623087
 21
269.1624310025907789
 31
0.0
  0
LINE
  5
15F26
  8
0
 10
131.272670643623087
 20
269.1624310025907789
 30
0.0
 11
131.3175128265820888
 21
269.1258586104818278
 31
0.0
  0
LINE
  5
15F27
  8
0
 10
131.3175128265820888
 20
269.1258586104818278
 30
0.0
 11
131.3190881491231039
 21
269.1009242208908177
 31
0.0
  0
LINE
  5
15F28
  8
0
 10
131.3190881491231039
 20
269.1009242208908177
 30
0.0
 11
131.2791771206231033
 21
269.0590135120908144
 31
0.0
  0
LINE
  5
15F29
  8
0
 10
131.2791771206231033
 20
269.0590135120908144
 30
0.0
 11
131.313519400823111
 21
269.0124327762907797
 31
0.0
  0
LINE
  5
15F2A
  8
0
 10
131.313519400823111
 20
269.0124327762907797
 30
0.0
 11
131.3088400838230996
 21
268.9878954294907771
 31
0.0
  0
LINE
  5
15F2B
  8
0
 10
131.3088400838230996
 20
268.9878954294907771
 30
0.0
 11
131.2597603006230997
 21
268.9572269771907145
 31
0.0
  0
LINE
  5
15F2C
  8
0
 10
131.2597603006230997
 20
268.9572269771907145
 30
0.0
 11
131.2814369208811058
 21
268.9035754593239744
 31
0.0
  0
LINE
  5
15F2D
  8
0
 10
131.2814369208811058
 20
268.9035754593239744
 30
0.0
 11
131.270805030123114
 21
268.880966330790784
 31
0.0
  0
LINE
  5
15F2E
  8
0
 10
131.270805030123114
 20
268.880966330790784
 30
0.0
 11
131.2156402138230931
 21
268.8634670202907841
 31
0.0
  0
LINE
  5
15F2F
  8
0
 10
131.2156402138230931
 20
268.8634670202907841
 30
0.0
 11
131.2232941343231118
 21
268.8061035544907895
 31
0.0
  0
LINE
  5
15F30
  8
0
 10
131.2232941343231118
 20
268.8061035544907895
 30
0.0
 11
131.2073727325231118
 21
268.7868555314908008
 31
0.0
  0
LINE
  5
15F31
  8
0
 10
131.2073727325231118
 20
268.7868555314908008
 30
0.0
 11
131.1495890876230987
 21
268.7836249241908035
 31
0.0
  0
LINE
  5
15F32
  8
0
 10
131.1495890876230987
 20
268.7836249241908035
 30
0.0
 11
131.1427376389985966
 21
268.7261669492456235
 31
0.0
  0
LINE
  5
15F33
  8
0
 10
131.1427376389985966
 20
268.7261669492456235
 30
0.0
 11
131.1225201527230979
 21
268.7114780856908283
 31
0.0
  0
LINE
  5
15F34
  8
0
 10
131.1225201527230979
 20
268.7114780856908283
 30
0.0
 11
131.0657571572230893
 21
268.7227174614907881
 31
0.0
  0
LINE
  5
15F35
  8
0
 10
131.0657571572230893
 20
268.7227174614907881
 30
0.0
 11
131.0448317420317892
 21
268.6687685204541935
 31
0.0
  0
LINE
  5
15F36
  8
0
 10
131.0448317420317892
 20
268.6687685204541935
 30
0.0
 11
131.0216044989230966
 21
268.6595651642908251
 31
0.0
  0
LINE
  5
15F37
  8
0
 10
131.0216044989230966
 20
268.6595651642908251
 30
0.0
 11
130.9694118909231122
 21
268.6845716720907831
 31
0.0
  0
LINE
  5
15F38
  8
0
 10
130.9694118909231122
 20
268.6845716720907831
 30
0.0
 11
130.9357273301245925
 21
268.6375215753511156
 31
0.0
  0
LINE
  5
15F39
  8
0
 10
130.9357273301245925
 20
268.6375215753511156
 30
0.0
 11
130.9109410581230861
 21
268.6343837180908167
 31
0.0
  0
LINE
  5
15F3A
  8
0
 10
130.9109410581230861
 20
268.6343837180908167
 30
0.0
 11
130.866607016323087
 21
268.6715843961907808
 31
0.0
  0
LINE
  5
15F3B
  8
0
 10
130.866607016323087
 20
268.6715843961907808
 30
0.0
 11
130.8222798346943989
 21
268.6343894743739042
 31
0.0
  0
LINE
  5
15F3C
  8
0
 10
130.8222798346943989
 20
268.6343894743739042
 30
0.0
 11
130.7974918119230949
 21
268.6375144385908129
 31
0.0
  0
LINE
  5
15F3D
  8
0
 10
130.7974918119230949
 20
268.6375144385908129
 30
0.0
 11
130.7638021417230902
 21
268.6845716720907831
 31
0.0
  0
LINE
  5
15F3E
  8
0
 10
130.7638021417230902
 20
268.6845716720907831
 30
0.0
 11
130.7116175791099124
 21
268.659569018946172
 31
0.0
  0
LINE
  5
15F3F
  8
0
 10
130.7116175791099124
 20
268.659569018946172
 30
0.0
 11
130.6883854767231128
 21
268.6687603061907907
 31
0.0
  0
LINE
  5
15F40
  8
0
 10
130.6883854767231128
 20
268.6687603061907907
 30
0.0
 11
130.6674568754231132
 21
268.7227174614907881
 31
0.0
  0
LINE
  5
15F41
  8
0
 10
130.6674568754231132
 20
268.7227174614907881
 30
0.0
 11
130.6106938798453996
 21
268.7114780856745142
 31
0.0
  0
LINE
  5
15F42
  8
0
 10
130.6106938798453996
 20
268.7114780856745142
 30
0.0
 11
130.5904774406230899
 21
268.7261581692907839
 31
0.0
  0
LINE
  5
15F43
  8
0
 10
130.5904774406230899
 20
268.7261581692907839
 30
0.0
 11
130.5836249449230877
 21
268.7836249241908035
 31
0.0
  0
LINE
  5
15F44
  8
0
 10
130.5836249449230877
 20
268.7836249241908035
 30
0.0
 11
130.5258501442231136
 21
268.7868550369908007
 31
0.0
  0
LINE
  5
15F45
  8
0
 10
130.5258501442231136
 20
268.7868550369908007
 30
0.0
 11
130.5099196257230858
 21
268.8061015119907893
 31
0.0
  0
LINE
  5
15F46
  8
0
 10
130.5099196257230858
 20
268.8061015119907893
 30
0.0
 11
130.5175738187230934
 21
268.8634670202907841
 31
0.0
  0
LINE
  5
15F47
  8
0
 10
130.5175738187230934
 20
268.8634670202907841
 30
0.0
 11
130.4624174159941958
 21
268.8809636618415766
 31
0.0
  0
LINE
  5
15F48
  8
0
 10
130.4624174159941958
 20
268.8809636618415766
 30
0.0
 11
130.4517737760230887
 21
268.9035672029908142
 31
0.0
  0
LINE
  5
15F49
  8
0
 10
130.4517737760230887
 20
268.9035672029908142
 30
0.0
 11
130.4734537320231027
 21
268.9572269771907145
 31
0.0
  0
LINE
  5
15F4A
  8
0
 10
130.4734537320231027
 20
268.9572269771907145
 30
0.0
 11
130.4243814068688039
 21
268.9878907693083079
 31
0.0
  0
LINE
  5
15F4B
  8
0
 10
130.4243814068688039
 20
268.9878907693083079
 30
0.0
 11
130.4196987127400007
 21
269.012438311612982
 31
0.0
  0
LINE
  5
15F4C
  8
0
 10
130.4196987127400007
 20
269.012438311612982
 30
0.0
 11
130.4540369120230991
 21
269.0590135120908144
 31
0.0
  0
LINE
  5
15F4D
  8
0
 10
130.4540369120230991
 20
269.0590135120908144
 30
0.0
 11
130.4141273048230971
 21
269.1009227282908114
 31
0.0
  0
LINE
  5
15F4E
  8
0
 10
130.4141273048230971
 20
269.1009227282908114
 30
0.0
 11
130.4156944039231121
 21
269.1258530628908261
 31
0.0
  0
LINE
  5
15F4F
  8
0
 10
130.4156944039231121
 20
269.1258530628908261
 30
0.0
 11
130.460543389023087
 21
269.1624310025907789
 31
0.0
  0
LINE
  5
15F50
  8
0
 10
130.460543389023087
 20
269.1624310025907789
 30
0.0
 11
130.4323133771966923
 21
269.2129426612494854
 31
0.0
  0
LINE
  5
15F51
  8
0
 10
130.4323133771966923
 20
269.2129426612494854
 30
0.0
 11
130.4400277714231038
 21
269.2367060459907862
 31
0.0
  0
LINE
  5
15F52
  8
0
 10
130.4400277714231038
 20
269.2367060459907862
 30
0.0
 11
130.492564337123099
 21
269.260981347390782
 31
0.0
  0
CIRCLE
  5
15F53
  8
0
 10
130.866607016323087
 20
269.0849702228907745
 30
0.0
 40
0.3937007874
  0
ARC
  5
15F54
  8
0
 10
130.866607016323087
 20
269.0849702228907745
 30
0.0
 40
0.4446218740000001
 50
179.0164391714731948
 51
188.183560817822098
  0
ARC
  5
15F55
  8
0
 10
130.866607016323087
 20
269.0849702228907745
 30
0.0
 40
0.4446218740000001
 50
193.4164391609670872
 51
202.5835608313298053
  0
ARC
  5
15F56
  8
0
 10
130.866607016323087
 20
269.0849702228907745
 30
0.0
 40
0.4446218740000001
 50
207.8164391690332025
 51
216.983560816069911
  0
ARC
  5
15F57
  8
0
 10
130.866607016323087
 20
269.0849702228907745
 30
0.0
 40
0.4446218740000001
 50
222.2164391624536961
 51
231.3835608244316973
  0
ARC
  5
15F58
  8
0
 10
130.866607016323087
 20
269.0849702228907745
 30
0.0
 40
0.4446218740000001
 50
236.6164391711448047
 51
245.7835608272727086
  0
ARC
  5
15F59
  8
0
 10
130.866607016323087
 20
269.0849702228907745
 30
0.0
 40
0.4446218740000001
 50
251.0164391706767049
 51
260.183560826738983
  0
ARC
  5
15F5A
  8
0
 10
130.866607016323087
 20
269.0849702228907745
 30
0.0
 40
0.4446218740000001
 50
265.416439159967922
 51
274.5835608385193041
  0
ARC
  5
15F5B
  8
0
 10
130.866607016323087
 20
269.0849702228907745
 30
0.0
 40
0.4446218740000001
 50
279.8164391650537937
 51
288.9835608351626774
  0
ARC
  5
15F5C
  8
0
 10
130.866607016323087
 20
269.0849702228907745
 30
0.0
 40
0.4446218740000001
 50
294.216439166474288
 51
303.3835608386381182
  0
ARC
  5
15F5D
  8
0
 10
130.866607016323087
 20
269.0849702228907745
 30
0.0
 40
0.4446218740000001
 50
308.616439176224219
 51
317.7835608330317996
  0
ARC
  5
15F5E
  8
0
 10
130.866607016323087
 20
269.0849702228907745
 30
0.0
 40
0.4446218740000001
 50
323.0164391697724113
 51
332.1835608347429911
  0
ARC
  5
15F5F
  8
0
 10
130.866607016323087
 20
269.0849702228907745
 30
0.0
 40
0.4446218740000001
 50
337.4164391731059141
 51
346.583560823851883
  0
ARC
  5
15F60
  8
0
 10
130.866607016323087
 20
269.0849702228907745
 30
0.0
 40
0.4446218740000001
 50
351.8164391733399725
 51
0.9835608374519998
  0
ARC
  5
15F61
  8
0
 10
130.866607016323087
 20
269.0849702228907745
 30
0.0
 40
0.4446218740000001
 50
6.2164391730605519
 51
15.3835608315829404
  0
ARC
  5
15F62
  8
0
 10
130.866607016323087
 20
269.0849702228907745
 30
0.0
 40
0.4446218740000001
 50
20.6164391892373082
 51
29.7835608309957109
  0
ARC
  5
15F63
  8
0
 10
130.866607016323087
 20
269.0849702228907745
 30
0.0
 40
0.4446218740000001
 50
35.0164391864184523
 51
44.1835608335678174
  0
ARC
  5
15F64
  8
0
 10
130.866607016323087
 20
269.0849702228907745
 30
0.0
 40
0.4446218740000001
 50
49.4164391739091897
 51
58.5835608272976529
  0
ARC
  5
15F65
  8
0
 10
130.866607016323087
 20
269.0849702228907745
 30
0.0
 40
0.4446218740000001
 50
63.8164391793060304
 51
72.9835608219706131
  0
ARC
  5
15F66
  8
0
 10
130.866607016323087
 20
269.0849702228907745
 30
0.0
 40
0.4446218740000001
 50
78.2164391788098641
 51
87.3835608180565941
  0
ARC
  5
15F67
  8
0
 10
130.866607016323087
 20
269.0849702228907745
 30
0.0
 40
0.4446218740000001
 50
92.616439179790035
 51
101.7835608200971933
  0
ARC
  5
15F68
  8
0
 10
130.866607016323087
 20
269.0849702228907745
 30
0.0
 40
0.4446218740000001
 50
107.0164391739676972
 51
116.1835608172040963
  0
ARC
  5
15F69
  8
0
 10
130.866607016323087
 20
269.0849702228907745
 30
0.0
 40
0.4446218740000001
 50
121.4164391753839993
 51
130.5835608185388139
  0
ARC
  5
15F6A
  8
0
 10
130.866607016323087
 20
269.0849702228907745
 30
0.0
 40
0.4446218740000001
 50
135.7566009251557944
 51
144.9835608154043882
  0
ARC
  5
15F6B
  8
0
 10
130.866607016323087
 20
269.0849702228907745
 30
0.0
 40
0.4446218740000001
 50
150.2164391717336969
 51
159.3835608189696131
  0
ARC
  5
15F6C
  8
0
 10
130.866607016323087
 20
269.0849702228907745
 30
0.0
 40
0.4446218740000001
 50
164.6164391734099013
 51
173.7835608155548073
  0
ARC
  5
15F6D
  8
0
 10
130.866607016323087
 20
269.0849702228907745
 30
0.0
 40
0.5020575304000037
 50
127.2608969337013036
 51
172.7391030663006006
  0
ARC
  5
15F6E
  8
0
 10
130.866607016323087
 20
269.0849702228907745
 30
0.0
 40
0.5020575303999945
 50
67.2608969336998825
 51
112.7391030663001033
  0
ARC
  5
15F6F
  8
0
 10
130.866607016323087
 20
269.0849702228907745
 30
0.0
 40
0.5020575304000192
 50
7.2608969360633111
 51
52.7391030662986466
  0
ARC
  5
15F70
  8
0
 10
130.8666070163230017
 20
269.0849702228907745
 30
0.0
 40
0.5020575304000495
 50
307.2608969423740177
 51
352.7391030662972753
  0
ARC
  5
15F71
  8
0
 10
130.8666070164960047
 20
269.0849702230431149
 30
0.0
 40
0.5020575306259241
 50
187.2608969479369989
 51
232.7391030039779025
  0
ARC
  5
15F72
  8
0
 10
130.866607016323087
 20
269.0849702228907745
 30
0.0
 40
0.5020575304000016
 50
247.2608969805419008
 51
292.739103049183484
  0
ARC
  5
15F73
  8
0
 10
132.8626700084275001
 20
270.7452387423923028
 30
0.0
 40
0.0078740157044104
 50
180.0000000106500124
 51
253.3984514827901933
  0
ARC
  5
15F74
  8
0
 10
132.8547838326423118
 20
270.7188102766106113
 30
0.0
 40
0.0197059695884993
 50
2.253523875197132
 51
73.3796911628442814
  0
LINE
  5
15F75
  8
0
 10
132.8744745620230958
 20
270.7195851403907909
 30
0.0
 11
132.8736403218231032
 21
270.7286971734907866
 31
0.0
  0
LINE
  5
15F76
  8
0
 10
132.8736403218231032
 20
270.7286971734907866
 30
0.0
 11
132.8772758431381078
 21
270.7344335769881809
 31
0.0
  0
LINE
  5
15F77
  8
0
 10
132.8772758431381078
 20
270.7344335769881809
 30
0.0
 11
132.8835741075010048
 21
270.7362774455601198
 31
0.0
  0
LINE
  5
15F78
  8
0
 10
132.8835741075010048
 20
270.7362774455601198
 30
0.0
 11
132.8971845687231053
 21
270.7376931929907755
 31
0.0
  0
LINE
  5
15F79
  8
0
 10
132.8744726076230904
 20
270.6859890707908107
 30
0.0
 11
132.8705431473231044
 21
270.6857439298906911
 31
0.0
  0
LINE
  5
15F7A
  8
0
 10
132.8705431473231044
 20
270.6857439298906911
 30
0.0
 11
132.8862920556715892
 21
270.6847599929905073
 31
0.0
  0
LINE
  5
15F7B
  8
0
 10
132.8862920557230893
 20
270.684759992987324
 30
0.0
 11
132.8862920557230893
 21
270.682794993625123
 31
0.0
  0
LINE
  5
15F7C
  8
0
 10
132.8862816793727859
 20
270.6847599382005001
 30
0.0
 11
132.8055802667568059
 21
270.6835104781205814
 31
0.0
  0
ARC
  5
15F7D
  8
0
 10
132.9729005525402954
 20
280.2705690084894741
 30
0.0
 40
9.5885185165777802
 50
269.000134088754578
 51
270.9999337687041816
  0
LINE
  5
15F7E
  8
0
 10
133.0595204021230984
 20
270.6824417489871166
 30
0.0
 11
133.0595204021230984
 21
270.6847600186907812
 31
0.0
  0
LINE
  5
15F7F
  8
0
 10
133.0595204021230984
 20
270.6847600186907812
 30
0.0
 11
133.1402321910896092
 21
270.6835104781306995
 31
0.0
  0
LINE
  5
15F80
  8
0
 10
133.0713385450231101
 20
270.685989110690798
 30
0.0
 11
133.0752693106230993
 21
270.6857439298906911
 31
0.0
  0
LINE
  5
15F81
  8
0
 10
133.0752693106230993
 20
270.6857439298906911
 30
0.0
 11
133.0595204021230984
 21
270.6847599929907915
 31
0.0
  0
LINE
  5
15F82
  8
0
 10
132.8744745620230958
 20
270.7195851403907909
 30
0.0
 11
132.8744810320231124
 21
270.685499374690778
 31
0.0
  0
LINE
  5
15F83
  8
0
 10
132.8547959927230977
 20
270.7452387423923028
 30
0.0
 11
132.8547921529230962
 21
270.7778847394907871
 31
0.0
  0
LINE
  5
15F84
  8
0
 10
132.8547921529230962
 20
270.7778847394907871
 30
0.0
 11
132.8941653175230897
 21
270.8172562470908247
 31
0.0
  0
ARC
  5
15F85
  8
0
 10
133.0831940418439103
 20
270.7454134636174103
 30
0.0
 40
0.0078740157044104
 50
286.6923394078394836
 51
0.0907908799775689
  0
ARC
  5
15F86
  8
0
 10
133.091122086256803
 20
270.7189975274447988
 30
0.0
 40
0.0197059695884993
 50
106.7110997277846991
 51
177.8372670154323885
  0
LINE
  5
15F87
  8
0
 10
133.0714301537487074
 20
270.7197411883360019
 30
0.0
 11
133.0722499539799912
 21
270.728854531932484
 31
0.0
  0
LINE
  5
15F88
  8
0
 10
133.0722499539799912
 20
270.728854531932484
 30
0.0
 11
133.0686053473282868
 21
270.7345851673835
 31
0.0
  0
LINE
  5
15F89
  8
0
 10
133.0686053473282868
 20
270.7345851673835
 30
0.0
 11
133.0623041690797947
 21
270.736419053414977
 31
0.0
  0
LINE
  5
15F8A
  8
0
 10
133.0623041690797947
 20
270.736419053414977
 30
0.0
 11
133.0486914815529929
 21
270.7378132319408905
 31
0.0
  0
LINE
  5
15F8B
  8
0
 10
133.0714301537487074
 20
270.7197411883360019
 30
0.0
 11
133.07147769603759
 21
270.6856554551775957
 31
0.0
  0
LINE
  5
15F8C
  8
0
 10
133.0910680476627022
 20
270.7454259407772952
 30
0.0
 11
133.091020156633391
 21
270.7780719029739771
 31
0.0
  0
LINE
  5
15F8D
  8
0
 10
133.091020156633391
 20
270.7780719029739771
 30
0.0
 11
133.0515846534017896
 21
270.8173809704545079
 31
0.0
  0
LINE
  5
15F8E
  8
0
 10
132.8547959927230977
 20
270.7778847394907871
 30
0.0
 11
133.0910204313842939
 21
270.7778846130348143
 31
0.0
  0
LINE
  5
15F8F
  8
0
 10
132.8604202896231072
 20
270.7376929561906991
 30
0.0
 11
133.084892625491392
 21
270.7376929561906991
 31
0.0
  0
ARC
  5
15F90
  8
0
 10
136.9965262929968901
 20
270.7452388056202039
 30
0.0
 40
0.0078740157044104
 50
180.0000000106500124
 51
253.3984514827901933
  0
ARC
  5
15F91
  8
0
 10
136.9886401172117019
 20
270.7188103398385124
 30
0.0
 40
0.0197059695884993
 50
2.253523875197132
 51
73.3796911628442814
  0
LINE
  5
15F92
  8
0
 10
137.0083308465924006
 20
270.719585203618692
 30
0.0
 11
137.007496606392408
 21
270.7286972367186877
 31
0.0
  0
LINE
  5
15F93
  8
0
 10
137.007496606392408
 20
270.7286972367186877
 30
0.0
 11
137.0111321277074126
 21
270.7344336402161957
 31
0.0
  0
LINE
  5
15F94
  8
0
 10
137.0111321277074126
 20
270.7344336402161957
 30
0.0
 11
137.0174303920703949
 21
270.7362775087880209
 31
0.0
  0
LINE
  5
15F95
  8
0
 10
137.0174303920703949
 20
270.7362775087880209
 30
0.0
 11
137.03104085329241
 21
270.7376932562186767
 31
0.0
  0
LINE
  5
15F96
  8
0
 10
137.0083288921923952
 20
270.6859891340188256
 30
0.0
 11
137.0043994318924092
 21
270.6857439931188196
 31
0.0
  0
LINE
  5
15F97
  8
0
 10
137.0043994318924092
 20
270.6857439931188196
 30
0.0
 11
137.0201483402410076
 21
270.6847600562185221
 31
0.0
  0
LINE
  5
15F98
  8
0
 10
137.0201483402925078
 20
270.684760056215282
 30
0.0
 11
137.0201483402925078
 21
270.6827950568530241
 31
0.0
  0
LINE
  5
15F99
  8
0
 10
137.0201379639420907
 20
270.6847600014284012
 30
0.0
 11
136.9394365513261107
 21
270.6835105413484825
 31
0.0
  0
ARC
  5
15F9A
  8
0
 10
137.1067568371096002
 20
280.2705690717174889
 30
0.0
 40
9.5885185165777802
 50
269.000134088754578
 51
270.9999337687041816
  0
LINE
  5
15F9B
  8
0
 10
137.1933766866924032
 20
270.6824418122150746
 30
0.0
 11
137.1933766866924032
 21
270.6847600819186823
 31
0.0
  0
LINE
  5
15F9C
  8
0
 10
137.1933766866924032
 20
270.6847600819186823
 30
0.0
 11
137.2740884756589139
 21
270.6835105413587144
 31
0.0
  0
LINE
  5
15F9D
  8
0
 10
137.2051948295925001
 20
270.6859891739186992
 30
0.0
 11
137.209125595192404
 21
270.6857439931188196
 31
0.0
  0
LINE
  5
15F9E
  8
0
 10
137.209125595192404
 20
270.6857439931188196
 30
0.0
 11
137.1933766866924032
 21
270.6847600562188063
 31
0.0
  0
LINE
  5
15F9F
  8
0
 10
137.0083308465924006
 20
270.719585203618692
 30
0.0
 11
137.0083373165923888
 21
270.6854994379186792
 31
0.0
  0
LINE
  5
15FA0
  8
0
 10
136.9886522772924025
 20
270.7452388056202039
 30
0.0
 11
136.9886484374924862
 21
270.7778848027186882
 31
0.0
  0
LINE
  5
15FA1
  8
0
 10
136.9886484374924862
 20
270.7778848027186882
 30
0.0
 11
137.0280216020925081
 21
270.8172563103187258
 31
0.0
  0
ARC
  5
15FA2
  8
0
 10
137.2170503264133004
 20
270.7454135268454252
 30
0.0
 40
0.0078740157044104
 50
286.6923394078394836
 51
0.0907908799775689
  0
ARC
  5
15FA3
  8
0
 10
137.2249783708261077
 20
270.7189975906727
 30
0.0
 40
0.0197059695884993
 50
106.7110997277846991
 51
177.8372670154323885
  0
LINE
  5
15FA4
  8
0
 10
137.2052864383180975
 20
270.7197412515640167
 30
0.0
 11
137.2061062385494097
 21
270.7288545951604988
 31
0.0
  0
LINE
  5
15FA5
  8
0
 10
137.2061062385494097
 20
270.7288545951604988
 30
0.0
 11
137.2024616318977053
 21
270.7345852306114011
 31
0.0
  0
LINE
  5
15FA6
  8
0
 10
137.2024616318977053
 20
270.7345852306114011
 30
0.0
 11
137.1961604536492132
 21
270.7364191166429919
 31
0.0
  0
LINE
  5
15FA7
  8
0
 10
137.1961604536492132
 20
270.7364191166429919
 30
0.0
 11
137.1825477661222976
 21
270.7378132951687917
 31
0.0
  0
LINE
  5
15FA8
  8
0
 10
137.2052864383180975
 20
270.7197412515640167
 30
0.0
 11
137.2053339806070085
 21
270.6856555184056106
 31
0.0
  0
LINE
  5
15FA9
  8
0
 10
137.2249243322320922
 20
270.7454260040051963
 30
0.0
 11
137.2248764412028095
 21
270.7780719662019919
 31
0.0
  0
LINE
  5
15FAA
  8
0
 10
137.2248764412028095
 20
270.7780719662019919
 30
0.0
 11
137.1854409379712081
 21
270.8173810336825227
 31
0.0
  0
LINE
  5
15FAB
  8
0
 10
136.9886522772924025
 20
270.7778848027186882
 30
0.0
 11
137.2248767159537124
 21
270.7778846762627722
 31
0.0
  0
LINE
  5
15FAC
  8
0
 10
136.994276574192412
 20
270.7376930194188276
 30
0.0
 11
137.2187489100608104
 21
270.7376930194188276
 31
0.0
  0
LINE
  5
15FAD
  8
0
 10
126.2603078037230944
 20
270.23897793309078
 30
0.0
 11
126.4177881187230952
 21
270.3298521126907872
 31
0.0
  0
LINE
  5
15FAE
  8
0
 10
126.4177881187230952
 20
270.3298521126907872
 30
0.0
 11
126.5752684336230942
 21
270.23897793309078
 31
0.0
  0
LINE
  5
15FAF
  8
0
 10
126.5752684336230942
 20
270.23897793309078
 30
0.0
 11
126.5752684336230942
 21
270.0569467646907924
 31
0.0
  0
LINE
  5
15FB0
  8
0
 10
126.5752684336230942
 20
270.0569467646907924
 30
0.0
 11
126.4177881187230952
 21
269.9660725850907852
 31
0.0
  0
LINE
  5
15FB1
  8
0
 10
126.4177881187230952
 20
269.9660725850907852
 30
0.0
 11
126.2603078037230944
 21
270.0569467646907924
 31
0.0
  0
LINE
  5
15FB2
  8
0
 10
126.2603078037230944
 20
270.0569467646907924
 30
0.0
 11
126.2603078037230944
 21
270.23897793309078
 31
0.0
  0
LINE
  5
15FB3
  8
0
 10
143.5044022919230997
 20
270.23897793309078
 30
0.0
 11
143.6618826068230987
 21
270.3298521126907872
 31
0.0
  0
LINE
  5
15FB4
  8
0
 10
143.6618826068230987
 20
270.3298521126907872
 30
0.0
 11
143.8193629218231138
 21
270.23897793309078
 31
0.0
  0
LINE
  5
15FB5
  8
0
 10
143.8193629218231138
 20
270.23897793309078
 30
0.0
 11
143.8193629218231138
 21
270.0569467646907924
 31
0.0
  0
LINE
  5
15FB6
  8
0
 10
143.8193629218231138
 20
270.0569467646907924
 30
0.0
 11
143.6618826068230987
 21
269.9660725850907852
 31
0.0
  0
LINE
  5
15FB7
  8
0
 10
143.6618826068230987
 20
269.9660725850907852
 30
0.0
 11
143.5044022919230997
 21
270.0569467646907924
 31
0.0
  0
LINE
  5
15FB8
  8
0
 10
143.5044022919230997
 20
270.0569467646907924
 30
0.0
 11
143.5044022919230997
 21
270.23897793309078
 31
0.0
  0
ARC
  5
15FB9
  8
0
 10
143.9311371358010945
 20
271.0142057498308077
 30
0.0
 40
0.0199307485844151
 50
263.1074471507059798
 51
359.7077275234801164
  0
ARC
  5
15FBA
  8
0
 10
143.8023453859323979
 20
271.0129359377787068
 30
0.0
 40
0.0185769426411357
 50
274.60799462911001
 51
3.6052150631022508
  0
ARC
  5
15FBB
  8
0
 10
143.8023450834178902
 20
271.2121223563402737
 30
0.0
 40
0.0185772280864829
 50
356.3956499505296165
 51
85.3911393630269657
  0
ARC
  5
15FBC
  8
0
 10
143.9311371358564884
 20
271.2108528062736923
 30
0.0
 40
0.0199307485288419
 50
0.292272411296593
 51
96.892551972482309
  0
ARC
  5
15FBD
  8
0
 10
143.8252670160231048
 20
272.0322070338028766
 30
0.0
 40
0.7686748413104314
 50
268.6599510998457276
 51
277.4947750819246721
  0
ARC
  5
15FBE
  8
0
 10
143.7707078758677994
 20
269.3640570553545786
 30
0.0
 40
1.91231969370133
 50
85.3562466772052915
 51
93.06216189823175
  0
ARC
  5
15FBF
  8
0
 10
143.6627349755976013
 20
273.6059226090791867
 30
0.0
 40
2.3446758377234578
 50
273.458176893955283
 51
274.9852136519907049
  0
ARC
  5
15FC0
  8
0
 10
143.7707224698233119
 20
269.5485940468905142
 30
0.0
 40
1.724177078306131
 50
86.8161132446429491
 51
93.3867282073324247
  0
ARC
  5
15FC1
  8
0
 10
143.5222578656986059
 20
271.3676274082167197
 30
0.0
 40
0.0836051577293863
 50
234.3946945775020083
 51
266.8154443788084791
  0
ARC
  5
15FC2
  8
0
 10
143.7256286041912006
 20
269.8223163038344978
 30
0.0
 40
1.5074087002275489
 50
92.1575214373028615
 51
97.5416245787484968
  0
ARC
  5
15FC3
  8
0
 10
143.5446393175984952
 20
271.1430324312897255
 30
0.0
 40
0.1744689937813914
 50
95.5430922463724244
 51
113.0807676002129938
  0
ARC
  5
15FC4
  8
0
 10
143.4790074420563997
 20
271.2987898958725737
 30
0.0
 40
0.005492512511905
 50
120.2249995373588973
 51
170.9642622488599102
  0
ARC
  5
15FC5
  8
0
 10
143.7256528103029041
 20
269.3045534658037923
 30
0.0
 40
2.0292328693725121
 50
91.6130774997376278
 51
97.1850957711540673
  0
ARC
  5
15FC6
  8
0
 10
143.5972119949555861
 20
272.1177383541208883
 30
0.0
 40
0.845621043290594
 50
260.5315069013844891
 51
263.7794659470753231
  0
ARC
  5
15FC7
  8
0
 10
143.4768476780566004
 20
271.4261521014444156
 30
0.0
 40
0.1437416831900667
 50
245.9004959340987
 51
262.5069524201387026
  0
ARC
  5
15FC8
  8
0
 10
143.5138013713722955
 20
271.003346217960825
 30
0.0
 40
0.3172911825474492
 50
97.5984306279185745
 51
105.1097551355930051
  0
ARC
  5
15FC9
  8
0
 10
143.443785534447386
 20
271.2610709612761184
 30
0.0
 40
0.0502271908633519
 50
104.6369775295358977
 51
122.1267008058268999
  0
ARC
  5
15FCA
  8
0
 10
143.4206740341311956
 20
271.3006159998573139
 30
0.0
 40
0.0062106561140098
 50
188.784433236699698
 51
246.0683827907784007
  0
ARC
  5
15FCB
  8
0
 10
143.4201264259887125
 20
271.2988527905501996
 30
0.0
 40
0.0056492555415577
 50
122.6930008090882041
 51
171.7078985003556966
  0
LINE
  5
15FCC
  8
0
 10
143.9965282761731089
 20
271.388119829190714
 30
0.0
 11
143.9965282761731089
 21
271.3487497504908106
 31
0.0
  0
LINE
  5
15FCD
  8
0
 10
143.9965282761731089
 20
271.3487497504908106
 30
0.0
 11
143.3272369375731046
 21
271.3487497504908106
 31
0.0
  0
LINE
  5
15FCE
  8
0
 10
143.3272369375731046
 20
271.3487497504908106
 30
0.0
 11
143.3272369375731046
 21
271.388119829190714
 31
0.0
  0
LINE
  5
15FCF
  8
0
 10
143.4145364644116967
 20
271.2996660070850794
 30
0.0
 11
143.4145364644116967
 21
271.3487497504908106
 31
0.0
  0
LINE
  5
15FD0
  8
0
 10
143.6688792577548099
 20
271.3286564052726817
 30
0.0
 11
143.6685303221730976
 21
271.3329821826907846
 31
0.0
  0
LINE
  5
15FD1
  8
0
 10
143.6685303221730976
 20
271.3329821826907846
 30
0.0
 11
143.6685303221730976
 21
271.3487497504908106
 31
0.0
  0
LINE
  5
15FD2
  8
0
 10
143.6688792577548099
 20
271.3286564052726817
 30
0.0
 11
143.6688792577548099
 21
271.3487497504908106
 31
0.0
  0
LINE
  5
15FD3
  8
0
 10
143.8345227099731005
 20
271.3233838857906903
 30
0.0
 11
143.8345317810731103
 21
271.3265614852907106
 31
0.0
  0
LINE
  5
15FD4
  8
0
 10
143.8345317810731103
 20
271.3265614852907106
 30
0.0
 11
143.8041199745827896
 21
271.3442608199566735
 31
0.0
  0
LINE
  5
15FD5
  8
0
 10
143.8041199745827896
 20
271.3442608199566735
 30
0.0
 11
143.8118654035731083
 21
271.3487497504908106
 31
0.0
  0
ARC
  5
15FD6
  8
0
 10
143.6377812085029859
 20
272.7531724489306839
 30
0.0
 40
1.418696753518025
 50
271.2561414035131975
 51
276.7332775126737943
  0
ARC
  5
15FD7
  8
0
 10
143.7724188697577006
 20
269.7322562069974765
 30
0.0
 40
1.592339448339736
 50
84.4818593737244612
 51
93.740881514226885
  0
LINE
  5
15FD8
  8
0
 10
143.9255297183730988
 20
271.2700991659907004
 30
0.0
 11
143.9255503555731082
 21
271.3172163406907771
 31
0.0
  0
LINE
  5
15FD9
  8
0
 10
143.6688664619730957
 20
271.2697599165907718
 30
0.0
 11
143.6685175991731001
 21
271.2740847124907759
 31
0.0
  0
LINE
  5
15FDA
  8
0
 10
143.6685175250730993
 20
271.2740857115908284
 30
0.0
 11
143.6685277635731097
 21
271.3212028708907724
 31
0.0
  0
LINE
  5
15FDB
  8
0
 10
143.8118724283731069
 20
271.2306395142907718
 30
0.0
 11
143.8345317810731103
 21
271.2438843198908103
 31
0.0
  0
LINE
  5
15FDC
  8
0
 10
143.8345317810731103
 20
271.2438843198908103
 30
0.0
 11
143.8345317810731103
 21
271.2478213277908026
 31
0.0
  0
LINE
  5
15FDD
  8
0
 10
143.8345317810731103
 20
271.2478213277908026
 30
0.0
 11
143.8041655898730937
 21
271.265516248290794
 31
0.0
  0
LINE
  5
15FDE
  8
0
 10
143.4934048422730939
 20
271.2306395142907718
 30
0.0
 11
143.5196278812628918
 21
271.2458309472701785
 31
0.0
  0
LINE
  5
15FDF
  8
0
 10
143.5196278812628918
 20
271.2458309472701785
 30
0.0
 11
143.4892334326731032
 21
271.2635693592907842
 31
0.0
  0
LINE
  5
15FE0
  8
0
 10
143.4892334326731032
 20
271.2635693592907842
 30
0.0
 11
143.4892334326731032
 21
271.2675063671907765
 31
0.0
  0
LINE
  5
15FE1
  8
0
 10
143.4892334326731032
 20
271.2675063671907765
 30
0.0
 11
143.5203922535731067
 21
271.2857811659907838
 31
0.0
  0
LINE
  5
15FE2
  8
0
 10
143.5203922535731067
 20
271.2857811659907838
 30
0.0
 11
143.4895982827731018
 21
271.3026424763908153
 31
0.0
  0
LINE
  5
15FE3
  8
0
 10
143.4895982827731018
 20
271.3026424763908153
 30
0.0
 11
143.4892334326731032
 21
271.3068764458907935
 31
0.0
  0
ARC
  5
15FE4
  8
0
 10
143.7057991566597934
 20
269.0552348456399727
 30
0.0
 40
2.2620324066612918
 50
90.9441257453198091
 51
95.4938808064847819
  0
ARC
  5
15FE5
  8
0
 10
143.7244933091662062
 20
269.2945808682297866
 30
0.0
 40
2.0016332997574038
 50
91.6023556924964595
 51
95.8524651288278591
  0
ARC
  5
15FE6
  8
0
 10
153.0338712520637898
 20
135.7897766918059972
 30
0.0
 40
135.7897767189344052
 50
93.8974305083307854
 51
94.0177767254858168
  0
LINE
  5
15FE7
  8
0
 10
143.8345317810731103
 20
271.245852823840778
 30
0.0
 11
143.5369751371731013
 21
271.2306395142907718
 31
0.0
  0
LINE
  5
15FE8
  8
0
 10
143.4892334326731032
 20
271.2655378632406951
 30
0.0
 11
143.6685179204118867
 21
271.2759050450189875
 31
0.0
  0
LINE
  5
15FE9
  8
0
 10
143.4894024037726865
 20
271.3049079419408258
 30
0.0
 11
143.6685259854623951
 21
271.3130231349231281
 31
0.0
  0
ARC
  5
15FEA
  8
0
 10
143.8178049090523984
 20
271.3781104367482726
 30
0.0
 40
0.0541958913988103
 50
270.969378813835192
 51
287.9771218459271722
  0
LINE
  5
15FEB
  8
0
 10
143.9287452904731026
 20
270.9944190417908203
 30
0.0
 11
143.3940392399516952
 21
270.9944523556511058
 31
0.0
  0
LINE
  5
15FEC
  8
0
 10
143.928745290801686
 20
271.2306395142907718
 30
0.0
 11
143.3950199232731109
 21
271.2306395142907718
 31
0.0
  0
LINE
  5
15FED
  8
0
 10
143.8208855645731035
 20
271.0141040811907942
 30
0.0
 11
143.8208855649731106
 21
271.2109544748907979
 31
0.0
  0
LINE
  5
15FEE
  8
0
 10
143.951067625073108
 20
271.2109544748907979
 30
0.0
 11
143.951067625073108
 21
271.0141040811907942
 31
0.0
  0
ARC
  5
15FEF
  8
0
 10
143.3926280780451066
 20
271.0142057498308077
 30
0.0
 40
0.0199307485844151
 50
180.2922724765199121
 51
276.8925528492939065
  0
ARC
  5
15FF0
  8
0
 10
143.5214198279138031
 20
271.0129359377787068
 30
0.0
 40
0.0185769426411357
 50
176.3947849368960874
 51
265.3920053708898763
  0
ARC
  5
15FF1
  8
0
 10
143.5214201304281971
 20
271.2121223563402737
 30
0.0
 40
0.0185772280864829
 50
94.6088606369730343
 51
183.6043500494687066
  0
ARC
  5
15FF2
  8
0
 10
143.3926280779897127
 20
271.2108528062736923
 30
0.0
 40
0.0199307485288419
 50
83.1074480275176768
 51
179.707727588703392
  0
LINE
  5
15FF3
  8
0
 10
143.5028796492730976
 20
271.0141040811907942
 30
0.0
 11
143.5028796488730904
 21
271.2109544748907979
 31
0.0
  0
LINE
  5
15FF4
  8
0
 10
143.372697588773093
 20
271.2109544748907979
 30
0.0
 11
143.372697588773093
 21
271.0141040811907942
 31
0.0
  0
LINE
  5
15FF5
  8
0
 10
143.8119796297731057
 20
270.9944190417908203
 30
0.0
 11
143.8042302322731132
 21
270.9899322348907731
 31
0.0
  0
LINE
  5
15FF6
  8
0
 10
143.8042302322731132
 20
270.9899322348907731
 30
0.0
 11
143.8108483129003901
 21
270.9859044329181188
 31
0.0
  0
LINE
  5
15FF7
  8
0
 10
143.8108483129003901
 20
270.9859044329181188
 30
0.0
 11
143.7799928430731029
 21
270.9550489630906895
 31
0.0
  0
LINE
  5
15FF8
  8
0
 10
143.7799928430731029
 20
270.9550489630906895
 30
0.0
 11
143.5437723706731106
 21
270.9550489630906895
 31
0.0
  0
LINE
  5
15FF9
  8
0
 10
143.5437723706731106
 20
270.9550489630906895
 30
0.0
 11
143.5044022919730935
 21
270.9944190417908203
 31
0.0
  0
LINE
  5
15FFA
  8
0
 10
143.810848313338596
 20
270.9859044326515232
 30
0.0
 11
143.6353482293172874
 21
270.978960372779909
 31
0.0
  0
LINE
  5
15FFB
  8
0
 10
143.8042304817113006
 20
270.9899323793125063
 30
0.0
 11
143.6353482554777088
 21
270.9789603755627923
 31
0.0
  0
LINE
  5
15FFC
  8
0
 10
143.4551896935230957
 20
270.4827048370908074
 30
0.0
 11
143.4551896935230957
 21
270.9156788843907862
 31
0.0
  0
LINE
  5
15FFD
  8
0
 10
143.8685755202230894
 20
270.483041965685004
 30
0.0
 11
143.8685755203231054
 21
270.9156788843907862
 31
0.0
  0
ARC
  5
15FFE
  8
0
 10
143.6618826069230863
 20
270.9156788843907862
 30
0.0
 40
0.206692913399996
 50
157.6073122202984962
 51
180.0000000000015916
  0
ARC
  5
15FFF
  8
0
 10
143.6618826069230863
 20
270.9156788843907862
 30
0.0
 40
0.2066929134000075
 50
359.9999999867525844
 51
22.3926877796993402
  0
LINE
  5
16000
  8
0
 10
143.0122763076230967
 20
271.388119829190714
 30
0.0
 11
144.3114889061230883
 21
271.388119829190714
 31
0.0
  0
LINE
  5
16001
  8
0
 10
142.4111154488392117
 20
270.2647490546102063
 30
0.0
 11
142.4111154488392117
 21
268.0613481756907959
 31
0.0
  0
LINE
  5
16002
  8
0
 10
127.668555276706897
 20
270.2647490546125937
 30
0.0
 11
127.668555276706897
 21
268.0613481756907959
 31
0.0
  0
ENDBLK
  5
16006
  8
0
  0
ENDSEC
  0
SECTION
  2
ENTITIES
  0
ATTDEF
  5
AA11
  8
DEFPOINTS
 10
3856.0155605729210038
 20
270.1114421700942785
 30
0.0
 40
0.001
  1
K-4178T
  3

  2
MODELNUMBER
 70
     0
1001
ACDBATTR
1070
     0
1070
     1
  0
ATTDEF
  5
AA12
  8
DEFPOINTS
 10
3856.0155605729210038
 20
270.1097755034276133
 30
0.0
 40
0.001
  1
HYDROTOWER
  3

  2
TRADENAME
 70
     0
1001
ACDBATTR
1070
     0
1070
     1
  0
ATTDEF
  5
AA13
  8
DEFPOINTS
 10
3856.0155605729210038
 20
270.1081088367608913
 30
0.0
 40
0.001
  1
IN-WALL TANK AND CARRIER SYSTEM
  3

  2
PRODUCT
 70
     0
1001
ACDBATTR
1070
     0
1070
     1
  0
LINE
  5
16008
  8
0
 10
3855.1442781541099976
 20
259.6258795022453114
 30
0.0
 11
3855.1442781541099976
 21
260.0390200302452968
 31
0.0
  0
LINE
  5
16009
  8
0
 10
3855.1442781541099976
 20
260.1182507852453227
 30
0.0
 11
3855.1442781541099976
 21
260.3345409195453044
 31
0.0
  0
LINE
  5
1600A
  8
0
 10
3854.9114887838109098
 20
260.3733167146452843
 30
0.0
 11
3854.8430970517110836
 21
262.6376905258453007
 31
0.0
  0
LINE
  5
1600B
  8
0
 10
3854.8430970517110836
 20
262.6376905258453007
 30
0.0
 11
3857.1856163864108566
 21
262.6376905258453007
 31
0.0
  0
LINE
  5
1600C
  8
0
 10
3857.1856163864108566
 20
262.6376905258453007
 30
0.0
 11
3857.1172250047097805
 21
260.3733167146452843
 31
0.0
  0
LINE
  5
1600D
  8
0
 10
3856.8844356344111475
 20
259.6258795022453114
 30
0.0
 11
3856.8844356344111475
 21
260.0390200302452968
 31
0.0
  0
LINE
  5
1600E
  8
0
 10
3856.8450655557107893
 20
259.5865094235452943
 30
0.0
 11
3855.1836482328108104
 21
259.5865094235452943
 31
0.0
  0
LINE
  5
1600F
  8
0
 10
3855.1527146008961608
 20
260.0503387098452777
 30
0.0
 11
3856.8759991876249842
 21
260.0503387098452777
 31
0.0
  0
LINE
  5
16010
  8
0
 10
3856.8759991876249842
 20
260.106932105645285
 30
0.0
 11
3855.1527154975137819
 21
260.106931838310004
 31
0.0
  0
LINE
  5
16011
  8
0
 10
3854.9311651704110773
 20
260.3542259589452783
 30
0.0
 11
3857.0975489380111867
 21
260.3542259589452783
 31
0.0
  0
ARC
  5
16012
  8
0
 10
3857.097548938052114
 20
260.3739109982427067
 30
0.0
 40
0.0196850392974
 50
269.9999998789219262
 51
358.2700000833498848
  0
ARC
  5
16013
  8
0
 10
3854.9311648504731238
 20
260.3739109982446962
 30
0.0
 40
0.0196850393020107
 50
181.7299999220994948
 51
270.0009312169452187
  0
ARC
  5
16014
  8
0
 10
3855.1560891775061464
 20
260.0390200303129973
 30
0.0
 40
0.011811023395646
 50
106.6015419926376069
 51
180.0000003288315895
  0
ARC
  5
16015
  8
0
 10
3855.1442781541099976
 20
260.0786354077453097
 30
0.0
 40
0.0295275590999991
 50
286.6015522881990023
 51
73.3966322115204264
  0
ARC
  5
16016
  8
0
 10
3855.1560891778790392
 20
260.1182507854011874
 30
0.0
 40
0.0118110237686195
 50
180.0000007563990891
 51
253.402995334271111
  0
ARC
  5
16017
  8
0
 10
3855.1836482328108104
 20
259.6258795022453114
 30
0.0
 40
0.0393700786999958
 50
179.9999999999951115
 51
270.0
  0
ARC
  5
16018
  8
0
 10
3856.8450655557107893
 20
259.6258795022453114
 30
0.0
 40
0.0393700786999958
 50
270.0
 51
0.0000000000048853
  0
ARC
  5
16019
  8
0
 10
3856.8726246108108171
 20
260.0390200302452968
 30
0.0
 40
0.0118110236000018
 50
0.0
 51
73.3984504009015239
  0
ARC
  5
1601A
  8
0
 10
3856.8844356341392086
 20
260.0786354079476155
 30
0.0
 40
0.029527558828666
 50
106.6015518957339054
 51
253.3984508513061087
  0
ARC
  5
1601B
  8
0
 10
3856.8726246107730731
 20
260.1182507853577022
 30
0.0
 40
0.0118110236373837
 50
286.6015428666099751
 51
359.9999999398339128
  0
ARC
  5
1601C
  8
0
 10
3856.9041206738102119
 20
260.3345409195453044
 30
0.0
 40
0.0196850393999952
 50
89.9999999999739515
 51
180.0
  0
LINE
  5
1601D
  8
0
 10
3856.8844356344111475
 20
260.1182507853577022
 30
0.0
 11
3856.8844356344111475
 21
260.3345409195453044
 31
0.0
  0
ARC
  5
1601E
  8
0
 10
3855.1245931147109332
 20
260.3345409195453044
 30
0.0
 40
0.0196850394000006
 50
0.0000000000407111
 51
90.0
  0
ARC
  5
1601F
  8
0
 10
3847.6615640038889978
 20
272.9815476470852786
 30
0.0
 40
0.0199307485844151
 50
263.1074471507157
 51
359.7077275234801732
  0
ARC
  5
16020
  8
0
 10
3847.5327722540200739
 20
272.9802778350331778
 30
0.0
 40
0.0185769426411357
 50
274.6079946291181955
 51
3.605215063103314
  0
ARC
  5
16021
  8
0
 10
3847.5327719515062199
 20
273.1794642535948014
 30
0.0
 40
0.0185772280864829
 50
356.3956499505304123
 51
85.3911393630188655
  0
ARC
  5
16022
  8
0
 10
3847.6615640039440223
 20
273.1781947035282201
 30
0.0
 40
0.0199307485288419
 50
0.2922724112965265
 51
96.892551972472603
  0
ARC
  5
16023
  8
0
 10
3847.5556938841109513
 20
273.9995489310574044
 30
0.0
 40
0.7686748413104314
 50
268.6599510998457276
 51
277.4947750819328007
  0
ARC
  5
16024
  8
0
 10
3847.5011347439558449
 20
271.3313989526091063
 30
0.0
 40
1.91231969370133
 50
85.3562466771939086
 51
93.0621618982382586
  0
ARC
  5
16025
  8
0
 10
3847.3931618436849931
 20
275.5732645063342829
 30
0.0
 40
2.3446758377240631
 50
273.4581768939568747
 51
274.9852136519825763
  0
ARC
  5
16026
  8
0
 10
3847.5011493379111016
 20
271.5159359441449851
 30
0.0
 40
1.724177078306131
 50
86.8161132446527262
 51
93.3867282073324247
  0
ARC
  5
16027
  8
0
 10
3847.2526928006500384
 20
273.3349848045044155
 30
0.0
 40
0.0836224557195892
 50
234.3963833710438109
 51
266.8105680593508851
  0
ARC
  5
16028
  8
0
 10
3847.4560554722779671
 20
271.7896582010890256
 30
0.0
 40
1.5074087002275489
 50
92.157521437301213
 51
97.5416245787453704
  0
ARC
  5
16029
  8
0
 10
3847.2750661856857732
 20
273.1103743285443102
 30
0.0
 40
0.1744689937813914
 50
95.54309224636593
 51
113.0807676002172997
  0
ARC
  5
1602A
  8
0
 10
3847.2094343101439335
 20
273.2661317931272151
 30
0.0
 40
0.005492512511905
 50
120.2249995373547051
 51
170.9642622488593133
  0
ARC
  5
1602B
  8
0
 10
3847.456079678390779
 20
271.2718953630583201
 30
0.0
 40
2.0292328693725121
 50
91.6130774997489965
 51
97.1850957711493209
  0
ARC
  5
1602C
  8
0
 10
3847.3199104483242081
 20
274.0343204697708188
 30
0.0
 40
0.7942817704257966
 50
260.4790555068764206
 51
263.9345732268836855
  0
ARC
  5
1602D
  8
0
 10
3847.2072745461441627
 20
273.3934939986988866
 30
0.0
 40
0.1437416831900667
 50
245.900495934092902
 51
262.5069524201402942
  0
ARC
  5
1602E
  8
0
 10
3847.2442282394599715
 20
272.9706881152154097
 30
0.0
 40
0.3172911825474492
 50
97.5984306279169544
 51
105.109755135586596
  0
ARC
  5
1602F
  8
0
 10
3847.1742124025349767
 20
273.2284128585305893
 30
0.0
 40
0.0502271908633519
 50
104.6369775295420936
 51
122.1267008058368049
  0
ARC
  5
16030
  8
0
 10
3847.1511009022187864
 20
273.2679578971118985
 30
0.0
 40
0.0062106561140098
 50
188.7844332367014886
 51
246.0683827907888883
  0
ARC
  5
16031
  8
0
 10
3847.1505532940759622
 20
273.2661946878047274
 30
0.0
 40
0.0056492555415577
 50
122.6930008090881046
 51
171.7078985003570892
  0
LINE
  5
16032
  8
0
 10
3847.7269551442600459
 20
273.3554617264452986
 30
0.0
 11
3847.7269551442600459
 21
273.3160916477452815
 31
0.0
  0
LINE
  5
16033
  8
0
 10
3847.7269551442600459
 20
273.3160916477452815
 30
0.0
 11
3847.0576638056600132
 21
273.3160916477452815
 31
0.0
  0
LINE
  5
16034
  8
0
 10
3847.0576638056600132
 20
273.3160916477452815
 30
0.0
 11
3847.0576638056600132
 21
273.3554617264452986
 31
0.0
  0
LINE
  5
16035
  8
0
 10
3847.1449633325000832
 20
273.2670079043397209
 30
0.0
 11
3847.1449633325000832
 21
273.3160916477452815
 31
0.0
  0
LINE
  5
16036
  8
0
 10
3847.3993061258420312
 20
273.2959983025272095
 30
0.0
 11
3847.3989571902611715
 21
273.3003240799453124
 31
0.0
  0
LINE
  5
16037
  8
0
 10
3847.3989571902611715
 20
273.3003240799453124
 30
0.0
 11
3847.3989571902611715
 21
273.3160916477452815
 31
0.0
  0
LINE
  5
16038
  8
0
 10
3847.3993061258420312
 20
273.2959983025272095
 30
0.0
 11
3847.3993061258420312
 21
273.3160916477452815
 31
0.0
  0
LINE
  5
16039
  8
0
 10
3847.5649495780598954
 20
273.290725783045275
 30
0.0
 11
3847.5649586491608716
 21
273.2939033825452952
 31
0.0
  0
LINE
  5
1603A
  8
0
 10
3847.5649586491608716
 20
273.2939033825452952
 30
0.0
 11
3847.5345468426698972
 21
273.3116027172112013
 31
0.0
  0
LINE
  5
1603B
  8
0
 10
3847.5345468426698972
 20
273.3116027172112013
 30
0.0
 11
3847.5422922716611538
 21
273.3160916477452815
 31
0.0
  0
ARC
  5
1603C
  8
0
 10
3847.3682080765897808
 20
274.7205143461852117
 30
0.0
 40
1.418696753518025
 50
271.2561414035034204
 51
276.7332775126819229
  0
ARC
  5
1603D
  8
0
 10
3847.5028457378448365
 20
271.699598104252118
 30
0.0
 40
1.592339448339736
 50
84.4818593737293781
 51
93.7408815142349567
  0
LINE
  5
1603E
  8
0
 10
3847.6559565864608885
 20
273.237441063245285
 30
0.0
 11
3847.6559772236610115
 21
273.2845582379453049
 31
0.0
  0
LINE
  5
1603F
  8
0
 10
3847.3992933300610275
 20
273.2371018138452996
 30
0.0
 11
3847.3989444672602076
 21
273.2414266097453037
 31
0.0
  0
LINE
  5
16040
  8
0
 10
3847.3989443931609458
 20
273.2414276088452993
 30
0.0
 11
3847.3989546316611268
 21
273.2885447681453002
 31
0.0
  0
LINE
  5
16041
  8
0
 10
3847.5422992964599871
 20
273.1979814115452996
 30
0.0
 11
3847.5649586491608716
 21
273.2112262171452812
 31
0.0
  0
LINE
  5
16042
  8
0
 10
3847.5649586491608716
 20
273.2112262171452812
 30
0.0
 11
3847.5649586491608716
 21
273.2151632250452735
 31
0.0
  0
LINE
  5
16043
  8
0
 10
3847.5649586491608716
 20
273.2151632250452735
 30
0.0
 11
3847.5345924579610255
 21
273.2328581455453218
 31
0.0
  0
LINE
  5
16044
  8
0
 10
3847.2238317103610825
 20
273.1979814115452996
 30
0.0
 11
3847.2500547493509657
 21
273.2131728445247063
 31
0.0
  0
LINE
  5
16045
  8
0
 10
3847.2500547493509657
 20
273.2131728445247063
 30
0.0
 11
3847.2196603007610065
 21
273.230911256545312
 31
0.0
  0
LINE
  5
16046
  8
0
 10
3847.2196603007610065
 20
273.230911256545312
 30
0.0
 11
3847.2196603007610065
 21
273.2348482644453043
 31
0.0
  0
LINE
  5
16047
  8
0
 10
3847.2196603007610065
 20
273.2348482644453043
 30
0.0
 11
3847.2508191216611522
 21
273.2531230632453116
 31
0.0
  0
LINE
  5
16048
  8
0
 10
3847.2508191216611522
 20
273.2531230632453116
 30
0.0
 11
3847.2200251508611473
 21
273.2699843736452863
 31
0.0
  0
LINE
  5
16049
  8
0
 10
3847.2200251508611473
 20
273.2699843736452863
 30
0.0
 11
3847.2196603007610065
 21
273.2742183431453213
 31
0.0
  0
ARC
  5
1604A
  8
0
 10
3847.4362260247471568
 20
271.0225767428945005
 30
0.0
 40
2.2620324066612918
 50
90.9441257453263034
 51
95.4938808064929674
  0
ARC
  5
1604B
  8
0
 10
3847.4549201772538254
 20
271.2619227654843144
 30
0.0
 40
2.0016332997574038
 50
91.6023556924931768
 51
95.8524651288360161
  0
ARC
  5
1604C
  8
0
 10
3856.7642981201511247
 20
137.7571185890604966
 30
0.0
 40
135.7897767189344052
 50
93.8974305083242058
 51
94.0177767254939596
  0
LINE
  5
1604D
  8
0
 10
3847.5649586491608716
 20
273.2131947210953058
 30
0.0
 11
3847.2674020052609194
 21
273.1979814115452996
 31
0.0
  0
LINE
  5
1604E
  8
0
 10
3847.2196603007610065
 20
273.2328797604952797
 30
0.0
 11
3847.3989447885001027
 21
273.2432469422735153
 31
0.0
  0
LINE
  5
1604F
  8
0
 10
3847.2198292718599077
 20
273.2722574872155974
 30
0.0
 11
3847.3989528535498721
 21
273.280365032177599
 31
0.0
  0
ARC
  5
16050
  8
0
 10
3847.5482317771397902
 20
273.3454523340028004
 30
0.0
 40
0.0541958913988103
 50
270.9693788138400237
 51
287.9771218459212037
  0
LINE
  5
16051
  8
0
 10
3847.6591721585609776
 20
272.9617609390452913
 30
0.0
 11
3847.124466108039087
 21
272.9617942529055767
 31
0.0
  0
LINE
  5
16052
  8
0
 10
3847.6591721588888504
 20
273.1979814115452996
 30
0.0
 11
3847.1254467913609005
 21
273.1979814115452996
 31
0.0
  0
LINE
  5
16053
  8
0
 10
3847.55131243265987
 20
272.981445978445322
 30
0.0
 11
3847.5513124330600476
 21
273.1782963721453257
 31
0.0
  0
LINE
  5
16054
  8
0
 10
3847.6814944931611535
 20
273.1782963721453257
 30
0.0
 11
3847.6814944931611535
 21
272.981445978445322
 31
0.0
  0
ARC
  5
16055
  8
0
 10
3847.1230549461329247
 20
272.9815476470852786
 30
0.0
 40
0.0199307485844151
 50
180.2922724765197984
 51
276.8925528492843
  0
ARC
  5
16056
  8
0
 10
3847.2518466960009391
 20
272.9802778350331778
 30
0.0
 40
0.0185769426411357
 50
176.3947849368967127
 51
265.3920053708818045
  0
ARC
  5
16057
  8
0
 10
3847.2518469985161573
 20
273.1794642535948014
 30
0.0
 40
0.0185772280864829
 50
94.6088606369811487
 51
183.6043500494679108
  0
ARC
  5
16058
  8
0
 10
3847.1230549460769907
 20
273.1781947035282201
 30
0.0
 40
0.0199307485288419
 50
83.107448027527397
 51
179.707727588703392
  0
LINE
  5
16059
  8
0
 10
3847.2333065173611431
 20
272.981445978445322
 30
0.0
 11
3847.2333065169609654
 21
273.1782963721453257
 31
0.0
  0
LINE
  5
1605A
  8
0
 10
3847.1031244568612237
 20
273.1782963721453257
 30
0.0
 11
3847.1031244568612237
 21
272.981445978445322
 31
0.0
  0
LINE
  5
1605B
  8
0
 10
3847.5424064978601564
 20
272.9617609390452913
 30
0.0
 11
3847.5346571003610734
 21
272.9572741321453009
 31
0.0
  0
LINE
  5
1605C
  8
0
 10
3847.5346571003610734
 20
272.9572741321453009
 30
0.0
 11
3847.5412751809881229
 21
272.9532463301727034
 31
0.0
  0
LINE
  5
1605D
  8
0
 10
3847.5412751809881229
 20
272.9532463301727034
 30
0.0
 11
3847.510419711160921
 21
272.9223908603452742
 31
0.0
  0
LINE
  5
1605E
  8
0
 10
3847.510419711160921
 20
272.9223908603452742
 30
0.0
 11
3847.2741992387609571
 21
272.9223908603452742
 31
0.0
  0
LINE
  5
1605F
  8
0
 10
3847.2741992387609571
 20
272.9223908603452742
 30
0.0
 11
3847.2348291600601442
 21
272.9617609390452913
 31
0.0
  0
LINE
  5
16060
  8
0
 10
3847.5412751814260446
 20
272.9532463299059941
 30
0.0
 11
3847.3657750974048213
 21
272.9463022700344936
 31
0.0
  0
LINE
  5
16061
  8
0
 10
3847.5346573497990903
 20
272.9572742765669773
 30
0.0
 11
3847.3657751235650721
 21
272.9463022728173769
 31
0.0
  0
LINE
  5
16062
  8
0
 10
3847.5990023883109643
 20
273.5523121201453023
 30
0.0
 11
3847.599002388360077
 21
276.5050680256453006
 31
0.0
  0
LINE
  5
16063
  8
0
 10
3847.599002388360077
 20
276.5050680256453006
 30
0.0
 11
3847.1856165615599821
 21
276.5050680256453006
 31
0.0
  0
LINE
  5
16064
  8
0
 10
3847.1856165615599821
 20
276.5050680256453006
 30
0.0
 11
3847.1856165615599821
 21
273.5523121201453023
 31
0.0
  0
LINE
  5
16065
  8
0
 10
3847.5649586491608716
 20
276.5050680256453006
 30
0.0
 11
3847.5649586491608716
 21
276.5444381044453053
 31
0.0
  0
LINE
  5
16066
  8
0
 10
3847.5649586491608716
 20
276.5444381044453053
 30
0.0
 11
3847.2196603007610065
 21
276.5444381044453053
 31
0.0
  0
LINE
  5
16067
  8
0
 10
3847.2196603007610065
 20
276.5050680256453006
 30
0.0
 11
3847.2196603007610065
 21
276.5444381044453053
 31
0.0
  0
LINE
  5
16068
  8
0
 10
3847.5649586491608716
 20
276.5444381044453053
 30
0.0
 11
3847.5859029484608982
 21
276.8170123731453032
 31
0.0
  0
LINE
  5
16069
  8
0
 10
3847.2196603007610065
 20
276.5444381044453053
 30
0.0
 11
3847.1987160015041809
 21
276.8170123731453032
 31
0.0
  0
LINE
  5
1606A
  8
0
 10
3847.5466485838610424
 20
276.8593987343452909
 30
0.0
 11
3847.2379703660608357
 21
276.8593987343452909
 31
0.0
  0
ARC
  5
1606B
  8
0
 10
3847.5466485838310291
 20
276.8200286555774028
 30
0.0
 40
0.0393700787678614
 50
355.606059927842125
 51
89.9999999568527471
  0
ARC
  5
1606C
  8
0
 10
3847.2379703660899395
 20
276.8200286555774028
 30
0.0
 40
0.0393700787678633
 50
90.0000000431472387
 51
184.3939400721561981
  0
ARC
  5
1606D
  8
0
 10
3847.5711149066378312
 20
275.6646035927635126
 30
0.0
 40
0.0255344452895223
 50
236.5356743484477988
 51
281.1804371044211734
  0
ARC
  5
1606E
  8
0
 10
3847.3962394025847971
 20
275.7067084342182284
 30
0.0
 40
0.2012424625891699
 50
346.5513220847266211
 51
3.1214028304072161
  0
ARC
  5
1606F
  8
0
 10
3847.5656097026499083
 20
275.6641066917621856
 30
0.0
 40
0.0266867248157536
 50
293.067618139083379
 51
350.9405326218313803
  0
ARC
  5
16070
  8
0
 10
3847.3893291863869308
 20
275.7268519334523944
 30
0.0
 40
0.2080569786500478
 50
357.4696331003520982
 51
14.7124679201271196
  0
ARC
  5
16071
  8
0
 10
3847.5656277659700208
 20
275.7723143736554903
 30
0.0
 40
0.0260051457886133
 50
16.4807032402219598
 51
59.9130577658536865
  0
ARC
  5
16072
  8
0
 10
3847.5250239095598772
 20
275.6708234826580224
 30
0.0
 40
0.0422152360037714
 50
319.312557775879327
 51
332.1206434213063972
  0
ARC
  5
16073
  8
0
 10
3847.5335824579701693
 20
275.8244682449069956
 30
0.0
 40
0.1757536624492626
 50
274.8675820794691163
 51
279.4171187327432904
  0
ARC
  5
16074
  8
0
 10
3847.5911456278718106
 20
275.7005277470689748
 30
0.0
 40
0.0666208386474594
 50
230.1941025425718976
 51
239.2018617640540867
  0
ARC
  5
16075
  8
0
 10
3847.6107732732170916
 20
275.7172636495245115
 30
0.0
 40
0.0921464563487104
 50
199.0958869548209123
 51
227.4794903556831969
  0
ARC
  5
16076
  8
0
 10
3847.6070270722111673
 20
275.717762616308903
 30
0.0
 40
0.0887858575403305
 50
119.789846790281004
 51
200.1911225145786943
  0
ARC
  5
16077
  8
0
 10
3847.3260010286858233
 20
276.0826097866523128
 30
0.0
 40
0.4582961937191069
 50
296.4735431477935208
 51
301.4264984967459782
  0
ARC
  5
16078
  8
0
 10
3847.5176324504727745
 20
275.9383530752288038
 30
0.0
 40
0.2513083400371328
 50
271.3828853672011974
 51
280.8547139084521973
  0
ARC
  5
16079
  8
0
 10
3847.5364481010651616
 20
275.7717198323963999
 30
0.0
 40
0.0289444906368784
 50
9.9337876793061017
 51
42.9260232679112192
  0
ARC
  5
1607A
  8
0
 10
3847.1608230339688816
 20
275.7185136742622262
 30
0.0
 40
0.4083047420461843
 50
351.2574445768656233
 51
8.1947971706368836
  0
ARC
  5
1607B
  8
0
 10
3847.5283190133441167
 20
275.6671085975020787
 30
0.0
 40
0.0376058683716153
 50
334.7770317980254049
 51
343.5404452260378889
  0
LINE
  5
1607C
  8
0
 10
3847.5649586491608716
 20
275.6915411778452949
 30
0.0
 11
3847.5649586491608716
 21
275.7767130463453213
 31
0.0
  0
LINE
  5
1607D
  8
0
 10
3847.5786644980598794
 20
276.5050680256453006
 30
0.0
 11
3847.5786644980598794
 21
275.7948157341452884
 31
0.0
  0
LINE
  5
1607E
  8
0
 10
3847.5786644980598794
 20
275.7948157341452884
 30
0.0
 11
3847.5629164665610915
 21
275.7948157341452884
 31
0.0
  0
LINE
  5
1607F
  8
0
 10
3847.5629164665610915
 20
275.7948157341452884
 30
0.0
 11
3847.5629164665610915
 21
276.5050680256453006
 31
0.0
  0
ARC
  5
16080
  8
0
 10
3847.2135040432831374
 20
275.6646035927635126
 30
0.0
 40
0.0255344452895223
 50
258.8195628955788266
 51
303.4643256515522012
  0
ARC
  5
16081
  8
0
 10
3847.388379547337081
 20
275.7067084342182284
 30
0.0
 40
0.2012424625891699
 50
176.878597169591103
 51
193.4486779152657903
  0
ARC
  5
16082
  8
0
 10
3847.2190092472710603
 20
275.6641066917621856
 30
0.0
 40
0.0266867248157536
 50
189.059467378168506
 51
246.9323818609163936
  0
ARC
  5
16083
  8
0
 10
3847.3952897635340378
 20
275.7268519334523944
 30
0.0
 40
0.2080569786500478
 50
165.2875320798729888
 51
182.5303668996461965
  0
ARC
  5
16084
  8
0
 10
3847.2189911839509477
 20
275.7723143736554903
 30
0.0
 40
0.0260051457886133
 50
120.0869422341463064
 51
163.5192967597780012
  0
ARC
  5
16085
  8
0
 10
3847.2595950403610914
 20
275.6708234826580224
 30
0.0
 40
0.0422152360037714
 50
207.8793565786936028
 51
220.6874422241205878
  0
ARC
  5
16086
  8
0
 10
3847.2510364919521635
 20
275.8244682449069956
 30
0.0
 40
0.1757536624492626
 50
260.5828812672567096
 51
265.1324179205308837
  0
ARC
  5
16087
  8
0
 10
3847.1934733220500675
 20
275.7005277470689748
 30
0.0
 40
0.0666208386474594
 50
300.7981382359458848
 51
309.8058974574279887
  0
ARC
  5
16088
  8
0
 10
3847.173845676703877
 20
275.7172636495245115
 30
0.0
 40
0.0921464563487104
 50
312.5205096443168031
 51
340.9041130451789741
  0
ARC
  5
16089
  8
0
 10
3847.1775918777098013
 20
275.717762616308903
 30
0.0
 40
0.0887858575403305
 50
339.8088774854213057
 51
60.2101532097189818
  0
ARC
  5
1608A
  8
0
 10
3847.4586179212360548
 20
276.0826097866523128
 30
0.0
 40
0.4582961937191069
 50
238.5735015032539934
 51
243.5264568522065076
  0
ARC
  5
1608B
  8
0
 10
3847.2669864994481941
 20
275.9383530752288038
 30
0.0
 40
0.2513083400371328
 50
259.1452860915478027
 51
268.6171146327986889
  0
ARC
  5
1608C
  8
0
 10
3847.248170848855807
 20
275.7717198323963999
 30
0.0
 40
0.0289444906368784
 50
137.0739767320887097
 51
170.0662123206940066
  0
ARC
  5
1608D
  8
0
 10
3847.6237959159529964
 20
275.7185136742622262
 30
0.0
 40
0.4083047420461843
 50
171.8052028293631111
 51
188.7425554231325862
  0
ARC
  5
1608E
  8
0
 10
3847.2562999365768519
 20
275.6671085975020787
 30
0.0
 40
0.0376058683716153
 50
196.4595547739621964
 51
205.2229682019757036
  0
LINE
  5
1608F
  8
0
 10
3847.2196603007610065
 20
275.6915411778452949
 30
0.0
 11
3847.2196603007610065
 21
275.7767130463453213
 31
0.0
  0
LINE
  5
16090
  8
0
 10
3847.2059544518610892
 20
276.5050680256453006
 30
0.0
 11
3847.2059544518610892
 21
275.7948157341452884
 31
0.0
  0
LINE
  5
16091
  8
0
 10
3847.2059544518610892
 20
275.7948157341452884
 30
0.0
 11
3847.2217024833607866
 21
275.7948157341452884
 31
0.0
  0
LINE
  5
16092
  8
0
 10
3847.2217024833607866
 20
275.7948157341452884
 30
0.0
 11
3847.2217024833607866
 21
276.5050680256453006
 31
0.0
  0
LINE
  5
16093
  8
0
 10
3846.7427031757101759
 20
273.5523121201453023
 30
0.0
 11
3848.0419157742098832
 21
273.5523121201453023
 31
0.0
  0
LINE
  5
16094
  8
0
 10
3848.0419157742098832
 20
273.5523121201453023
 30
0.0
 11
3848.0419157742098832
 21
272.5483751123452976
 31
0.0
  0
LINE
  5
16095
  8
0
 10
3846.7427031757101759
 20
273.5523121201453023
 30
0.0
 11
3846.7427031757101759
 21
272.5483751123452976
 31
0.0
  0
LINE
  5
16096
  8
0
 10
3846.7427031757101759
 20
272.5483751123452976
 30
0.0
 11
3846.6049079002109465
 21
272.5483751123452976
 31
0.0
  0
LINE
  5
16097
  8
0
 10
3846.6049079002109465
 20
272.5483751123452976
 30
0.0
 11
3846.6049079002109465
 21
269.3200286556452738
 31
0.0
  0
LINE
  5
16098
  8
0
 10
3846.6049079002109465
 20
269.3200286556452738
 30
0.0
 11
3851.9429265102789941
 21
269.3200286556452738
 31
0.0
  0
LINE
  5
16099
  8
0
 10
3846.8092386088110288
 20
269.3200286556452738
 30
0.0
 11
3846.8092386088110288
 21
269.3003436162452999
 31
0.0
  0
LINE
  5
1609A
  8
0
 10
3846.8092386088110288
 20
269.3003436162452999
 30
0.0
 11
3847.9631756167109415
 21
269.3003436162452999
 31
0.0
  0
LINE
  5
1609B
  8
0
 10
3847.9631756167109415
 20
269.3003436162452999
 30
0.0
 11
3847.9631756167109415
 21
269.3200286556452738
 31
0.0
  0
LINE
  5
1609C
  8
0
 10
3846.6049079002109465
 20
269.5168790493453912
 30
0.0
 11
3846.7820732545110332
 21
269.5168790493453912
 31
0.0
  0
LINE
  5
1609D
  8
0
 10
3846.7820732545110332
 20
269.5168790493453912
 30
0.0
 11
3846.7820732545110332
 21
269.3200286556452738
 31
0.0
  0
LINE
  5
1609E
  8
0
 10
3846.703333097011182
 20
272.5483751123452976
 30
0.0
 11
3846.703333097011182
 21
269.5168790493453912
 31
0.0
  0
LINE
  5
1609F
  8
0
 10
3846.6049079002109465
 20
271.0916821989453069
 30
0.0
 11
3846.703333097011182
 21
271.0916821989453069
 31
0.0
  0
LINE
  5
160A0
  8
0
 10
3846.6049079002109465
 20
270.8948318052453033
 30
0.0
 11
3846.703333097011182
 21
270.8948318052453033
 31
0.0
  0
LINE
  5
160A1
  8
0
 10
3846.6049079002109465
 20
270.5011310178452959
 30
0.0
 11
3846.703333097011182
 21
270.5011310178452959
 31
0.0
  0
LINE
  5
160A2
  8
0
 10
3846.6049079002109465
 20
269.9105798367452849
 30
0.0
 11
3846.703333097011182
 21
269.9105798367452849
 31
0.0
  0
LINE
  5
160A3
  8
0
 10
3846.6049079002109465
 20
272.430264876045328
 30
0.0
 11
3846.703333097011182
 21
272.430264876045328
 31
0.0
  0
LINE
  5
160A4
  8
0
 10
3848.0419157742098832
 20
272.5483751123452976
 30
0.0
 11
3848.179711049810976
 21
272.5483751123452976
 31
0.0
  0
LINE
  5
160A5
  8
0
 10
3848.179711049810976
 20
272.5483751123452976
 30
0.0
 11
3848.179711049810976
 21
270.0286900729453237
 31
0.0
  0
LINE
  5
160A6
  8
0
 10
3848.0812858529111509
 20
272.5483751123452976
 30
0.0
 11
3848.0812858529111509
 21
269.4381388918453126
 31
0.0
  0
ARC
  5
160A7
  8
0
 10
3848.0616008135098127
 20
269.4381388918453126
 30
0.0
 40
0.1181102362000033
 50
270.0
 51
0.0000000000032569
  0
ARC
  5
160A8
  8
0
 10
3848.4257740419111542
 20
269.5562491280452946
 30
0.0
 40
0.236220472400004
 50
209.9999999999972999
 51
270.0000011337879187
  0
LINE
  5
160A9
  8
0
 10
3848.0025456954099354
 20
269.3200286556452738
 30
0.0
 11
3848.0025456954099354
 21
269.5168790493453912
 31
0.0
  0
LINE
  5
160AA
  8
0
 10
3848.0025456954099354
 20
269.5168790493453912
 30
0.0
 11
3848.0812858529111509
 21
269.5168790493453912
 31
0.0
  0
LINE
  5
160AB
  8
0
 10
3849.14739007261187
 20
269.2646315841760725
 30
0.0
 11
3851.9431198833108283
 21
269.2646315839452882
 31
0.0
  0
ARC
  5
160AC
  8
0
 10
3849.1473960079110839
 20
269.835568780745291
 30
0.0
 40
0.5709371965999495
 50
244.5658203938916984
 51
269.9994043696149788
  0
LINE
  5
160AD
  8
0
 10
3848.179711049810976
 20
270.8948318052453033
 30
0.0
 11
3848.3765614435110365
 21
270.8948318052453033
 31
0.0
  0
LINE
  5
160AE
  8
0
 10
3848.3765614435110365
 20
270.8948318052453033
 30
0.0
 11
3848.3765614435110365
 21
270.0286900729453237
 31
0.0
  0
LINE
  5
160AF
  8
0
 10
3863.9474275852098799
 20
270.0286900729453237
 30
0.0
 11
3848.0812858529111509
 21
270.0286900729453237
 31
0.0
  0
LINE
  5
160B0
  8
0
 10
3848.1895535694097816
 20
270.0286900729453237
 30
0.0
 11
3848.1895535694097816
 21
270.4223908603452742
 31
0.0
  0
LINE
  5
160B1
  8
0
 10
3848.1895535694097816
 20
270.4223908603452742
 30
0.0
 11
3848.3076638057109449
 21
270.4223908603452742
 31
0.0
  0
LINE
  5
160B2
  8
0
 10
3848.3076638057109449
 20
270.4223908603452742
 30
0.0
 11
3848.3076638057109449
 21
270.0286900729453237
 31
0.0
  0
LINE
  5
160B3
  8
0
 10
3848.1895535694097816
 20
270.2255404666453273
 30
0.0
 11
3848.3076638057109449
 21
270.2255404666453273
 31
0.0
  0
ARC
  5
160B4
  8
0
 10
3848.6269348781461304
 20
271.9962785886087886
 30
0.0
 40
0.1979037666353587
 50
100.5164719431950004
 51
125.0313622008248018
  0
ARC
  5
160B5
  8
0
 10
3848.5753512264018354
 20
272.264195020673526
 30
0.0
 40
0.0749493290991995
 50
281.9060535099902154
 51
334.6375104666806806
  0
ARC
  5
160B6
  8
0
 10
3849.0761189751110578
 20
272.2298295383453137
 30
0.0
 40
0.4330482467999915
 50
90.0
 51
179.7007953730893064
  0
LINE
  5
160B7
  8
0
 10
3848.179711049810976
 20
271.924312970045321
 30
0.0
 11
3848.5133417745560109
 21
272.1583480646768862
 31
0.0
  0
LINE
  5
160B8
  8
0
 10
3848.3765614435110365
 20
272.0623994743775143
 30
0.0
 11
3848.3765614435110365
 21
272.5483751123452976
 31
0.0
  0
LINE
  5
160B9
  8
0
 10
3848.6200232867108753
 20
272.7845955847453183
 30
0.0
 11
3855.9121171480051089
 21
272.7845955847453183
 31
0.0
  0
LINE
  5
160BA
  8
0
 10
3856.1165962901159219
 20
272.7845955847453183
 30
0.0
 11
3863.4159315222109399
 21
272.7845955847453183
 31
0.0
  0
LINE
  5
160BB
  8
0
 10
3849.1469963714098412
 20
272.8398691019111197
 30
0.0
 11
3862.8809096702148054
 21
272.8398691020453271
 31
0.0
  0
LINE
  5
160BC
  8
0
 10
3852.431679553711092
 20
272.8577984265452869
 30
0.0
 11
3853.061600813511177
 21
272.8577984265751866
 31
0.0
  0
LINE
  5
160BD
  8
0
 10
3853.1403409710110282
 20
272.8482493610453048
 30
0.0
 11
3853.1403409710110282
 21
272.8398691020453271
 31
0.0
  0
LINE
  5
160BE
  8
0
 10
3852.3529393962107861
 20
272.8482493610451911
 30
0.0
 11
3852.3529393962107861
 21
272.8398691020453271
 31
0.0
  0
ARC
  5
160BF
  8
0
 10
3852.4190549559921237
 20
272.632484680906316
 30
0.0
 40
0.2256671541023269
 50
86.793002502906873
 51
107.0363417594149951
  0
ARC
  5
160C0
  8
0
 10
3853.0742254112178671
 20
272.6324846808482789
 30
0.0
 40
0.2256671541613368
 50
72.9636582419761908
 51
93.2069975010597034
  0
ARC
  5
160C1
  8
0
 10
3849.1470026249098737
 20
272.2689291338454041
 30
0.0
 40
0.570939968099956
 50
90.0006275601331964
 51
115.4100961723963934
  0
ARC
  5
160C2
  8
0
 10
3848.6129619696412192
 20
272.5483005316482945
 30
0.0
 40
0.2364005378946018
 50
88.2883124675763469
 51
179.98192407141849
  0
LINE
  5
160C3
  8
0
 10
3846.7820732545110332
 20
269.4184538524953041
 30
0.0
 11
3848.0025456954099354
 21
269.4184538524953041
 31
0.0
  0
CIRCLE
  5
160C4
  8
0
 10
3847.3923094750111886
 20
272.1153042461452856
 30
0.0
 40
0.3937007874
  0
CIRCLE
  5
160C5
  8
0
 10
3847.3923094750111886
 20
272.1153042461452856
 30
0.0
 40
0.3149592022999998
  0
CIRCLE
  5
160C6
  8
0
 10
3847.3923094750111886
 20
272.1153042461452856
 30
0.0
 40
0.1574803148999999
  0
LINE
  5
160C7
  8
0
 10
3847.1856165616100043
 20
272.4500467343452783
 30
0.0
 11
3847.1856165616100043
 21
272.8830207816453139
 31
0.0
  0
LINE
  5
160C8
  8
0
 10
3847.5990023883109643
 20
272.450383862939475
 30
0.0
 11
3847.5990023884110087
 21
272.8830207816453139
 31
0.0
  0
ARC
  5
160C9
  8
0
 10
3847.3923094750111886
 20
272.8830207816453139
 30
0.0
 40
0.206692913399996
 50
157.6073122202940908
 51
180.0000000000015916
  0
ARC
  5
160CA
  8
0
 10
3847.3923094750111886
 20
272.8830207816453139
 30
0.0
 40
0.2066929134000075
 50
359.9999999867525844
 51
22.3926877797040902
  0
LINE
  5
160CB
  8
0
 10
3864.429711049810976
 20
273.5523121201453023
 30
0.0
 11
3864.4297110497609538
 21
276.5050680256453006
 31
0.0
  0
LINE
  5
160CC
  8
0
 10
3864.4297110497609538
 20
276.5050680256453006
 30
0.0
 11
3864.8430968765610487
 21
276.5050680256453006
 31
0.0
  0
LINE
  5
160CD
  8
0
 10
3864.8430968765610487
 20
276.5050680256453006
 30
0.0
 11
3864.8430968765610487
 21
273.5523121201453023
 31
0.0
  0
LINE
  5
160CE
  8
0
 10
3864.4637547889610687
 20
276.5050680256453006
 30
0.0
 11
3864.4637547889610687
 21
276.5444381044453053
 31
0.0
  0
LINE
  5
160CF
  8
0
 10
3864.4637547889610687
 20
276.5444381044453053
 30
0.0
 11
3864.8090531373600243
 21
276.5444381044453053
 31
0.0
  0
LINE
  5
160D0
  8
0
 10
3864.8090531373600243
 20
276.5050680256453006
 30
0.0
 11
3864.8090531373600243
 21
276.5444381044453053
 31
0.0
  0
LINE
  5
160D1
  8
0
 10
3864.4637547889610687
 20
276.5444381044453053
 30
0.0
 11
3864.4428104896610421
 21
276.8170123731453032
 31
0.0
  0
LINE
  5
160D2
  8
0
 10
3864.8090531373600243
 20
276.5444381044453053
 30
0.0
 11
3864.8299974366168499
 21
276.8170123731453032
 31
0.0
  0
LINE
  5
160D3
  8
0
 10
3864.4820648542608978
 20
276.8593987343452909
 30
0.0
 11
3864.7907430720611046
 21
276.8593987343452909
 31
0.0
  0
ARC
  5
160D4
  8
0
 10
3864.4820648542909112
 20
276.8200286555774028
 30
0.0
 40
0.0393700787678614
 50
90.0000000431472387
 51
184.3939400721577897
  0
ARC
  5
160D5
  8
0
 10
3864.7907430720310913
 20
276.8200286555774028
 30
0.0
 40
0.0393700787678633
 50
355.6060599278437167
 51
89.9999999568527471
  0
ARC
  5
160D6
  8
0
 10
3864.4575985314831996
 20
275.6646035927635126
 30
0.0
 40
0.0255344452895223
 50
258.8195628955788266
 51
303.4643256515522012
  0
ARC
  5
160D7
  8
0
 10
3864.6324740355371432
 20
275.7067084342182284
 30
0.0
 40
0.2012424625891699
 50
176.8785971695926946
 51
193.4486779152734073
  0
ARC
  5
160D8
  8
0
 10
3864.463103735470213
 20
275.6641066917621856
 30
0.0
 40
0.0266867248157536
 50
189.059467378168506
 51
246.9323818609163936
  0
ARC
  5
160D9
  8
0
 10
3864.6393842517350095
 20
275.7268519334523944
 30
0.0
 40
0.2080569786500478
 50
165.2875320798729888
 51
182.5303668996477882
  0
ARC
  5
160DA
  8
0
 10
3864.4630856721510099
 20
275.7723143736554903
 30
0.0
 40
0.0260051457886133
 50
120.0869422341463064
 51
163.5192967597780012
  0
ARC
  5
160DB
  8
0
 10
3864.5036895285611536
 20
275.6708234826580224
 30
0.0
 40
0.0422152360037714
 50
207.8793565786936028
 51
220.6874422241205878
  0
ARC
  5
160DC
  8
0
 10
3864.4951309801508614
 20
275.8244682449069956
 30
0.0
 40
0.1757536624492626
 50
260.5828812672567096
 51
265.1324179205308837
  0
ARC
  5
160DD
  8
0
 10
3864.4375678102501297
 20
275.7005277470689748
 30
0.0
 40
0.0666208386474594
 50
300.7981382359458848
 51
309.8058974574279887
  0
ARC
  5
160DE
  8
0
 10
3864.4179401649048486
 20
275.7172636495245115
 30
0.0
 40
0.0921464563487104
 50
312.5205096443168031
 51
340.9041130451789741
  0
ARC
  5
160DF
  8
0
 10
3864.4216863659098635
 20
275.717762616308903
 30
0.0
 40
0.0887858575403305
 50
339.8088774854213057
 51
60.2101532097189818
  0
ARC
  5
160E0
  8
0
 10
3864.702712409436117
 20
276.0826097866523128
 30
0.0
 40
0.4582961937191069
 50
238.5735015032539934
 51
243.5264568522065076
  0
ARC
  5
160E1
  8
0
 10
3864.5110809876491658
 20
275.9383530752288038
 30
0.0
 40
0.2513083400371328
 50
259.1452860915478027
 51
268.6171146327986889
  0
ARC
  5
160E2
  8
0
 10
3864.4922653370558692
 20
275.7717198323963999
 30
0.0
 40
0.0289444906368784
 50
137.0739767320887097
 51
170.0662123206940066
  0
ARC
  5
160E3
  8
0
 10
3864.8678904041521491
 20
275.7185136742622262
 30
0.0
 40
0.4083047420461843
 50
171.8052028293631111
 51
188.7425554231325862
  0
ARC
  5
160E4
  8
0
 10
3864.5003944247769141
 20
275.6671085975020787
 30
0.0
 40
0.0376058683716153
 50
196.4595547739621964
 51
205.2229682019745098
  0
LINE
  5
160E5
  8
0
 10
3864.4637547889610687
 20
275.6915411778452949
 30
0.0
 11
3864.4637547889610687
 21
275.7767130463453213
 31
0.0
  0
LINE
  5
160E6
  8
0
 10
3864.4500489400597871
 20
276.5050680256453006
 30
0.0
 11
3864.4500489400597871
 21
275.7948157341452884
 31
0.0
  0
LINE
  5
160E7
  8
0
 10
3864.4500489400597871
 20
275.7948157341452884
 30
0.0
 11
3864.4657969715599393
 21
275.7948157341452884
 31
0.0
  0
LINE
  5
160E8
  8
0
 10
3864.4657969715599393
 20
275.7948157341452884
 30
0.0
 11
3864.4657969715599393
 21
276.5050680256453006
 31
0.0
  0
ARC
  5
160E9
  8
0
 10
3864.8152093948388028
 20
275.6646035927635126
 30
0.0
 40
0.0255344452895223
 50
236.5356743484477988
 51
281.1804371044211734
  0
ARC
  5
160EA
  8
0
 10
3864.6403338907839498
 20
275.7067084342182284
 30
0.0
 40
0.2012424625891699
 50
346.5513220847341813
 51
3.1214028304088419
  0
ARC
  5
160EB
  8
0
 10
3864.8097041908499705
 20
275.6641066917621856
 30
0.0
 40
0.0266867248157536
 50
293.0676181390836064
 51
350.9405326218313803
  0
ARC
  5
160EC
  8
0
 10
3864.6334236745860835
 20
275.7268519334523944
 30
0.0
 40
0.2080569786500478
 50
357.4696331003536898
 51
14.7124679201271196
  0
ARC
  5
160ED
  8
0
 10
3864.809722254170083
 20
275.7723143736554903
 30
0.0
 40
0.0260051457886133
 50
16.4807032402219598
 51
59.9130577658536865
  0
ARC
  5
160EE
  8
0
 10
3864.7691183977608489
 20
275.6708234826580224
 30
0.0
 40
0.0422152360037714
 50
319.312557775879327
 51
332.1206434213063972
  0
ARC
  5
160EF
  8
0
 10
3864.7776769461697768
 20
275.8244682449069956
 30
0.0
 40
0.1757536624492626
 50
274.8675820794691163
 51
279.4171187327432904
  0
ARC
  5
160F0
  8
0
 10
3864.8352401160718728
 20
275.7005277470689748
 30
0.0
 40
0.0666208386474594
 50
230.1941025425718976
 51
239.2018617640540867
  0
ARC
  5
160F1
  8
0
 10
3864.8548677614171538
 20
275.7172636495245115
 30
0.0
 40
0.0921464563487104
 50
199.0958869548209123
 51
227.4794903556831969
  0
ARC
  5
160F2
  8
0
 10
3864.8511215604107747
 20
275.717762616308903
 30
0.0
 40
0.0887858575403305
 50
119.789846790281004
 51
200.1911225145786943
  0
ARC
  5
160F3
  8
0
 10
3864.570095516884976
 20
276.0826097866523128
 30
0.0
 40
0.4582961937191069
 50
296.4735431477935208
 51
301.4264984967459782
  0
ARC
  5
160F4
  8
0
 10
3864.7617269386728367
 20
275.9383530752288038
 30
0.0
 40
0.2513083400371328
 50
271.3828853672011974
 51
280.8547139084521973
  0
ARC
  5
160F5
  8
0
 10
3864.7805425892652238
 20
275.7717198323963999
 30
0.0
 40
0.0289444906368784
 50
9.9337876793061017
 51
42.9260232679112192
  0
ARC
  5
160F6
  8
0
 10
3864.4049175221689438
 20
275.7185136742622262
 30
0.0
 40
0.4083047420461843
 50
351.2574445768673854
 51
8.1947971706368836
  0
ARC
  5
160F7
  8
0
 10
3864.7724135015441789
 20
275.6671085975020787
 30
0.0
 40
0.0376058683716153
 50
334.7770317980242112
 51
343.5404452260378889
  0
LINE
  5
160F8
  8
0
 10
3864.8090531373600243
 20
275.6915411778452949
 30
0.0
 11
3864.8090531373600243
 21
275.7767130463453213
 31
0.0
  0
LINE
  5
160F9
  8
0
 10
3864.8227589862608511
 20
276.5050680256453006
 30
0.0
 11
3864.8227589862608511
 21
275.7948157341452884
 31
0.0
  0
LINE
  5
160FA
  8
0
 10
3864.8227589862608511
 20
275.7948157341452884
 30
0.0
 11
3864.8070109547611537
 21
275.7948157341452884
 31
0.0
  0
LINE
  5
160FB
  8
0
 10
3864.8070109547611537
 20
275.7948157341452884
 30
0.0
 11
3864.8070109547611537
 21
276.5050680256453006
 31
0.0
  0
LINE
  5
160FC
  8
0
 10
3865.2860102624108549
 20
273.5523121201453023
 30
0.0
 11
3863.9867976639111475
 21
273.5523121201453023
 31
0.0
  0
LINE
  5
160FD
  8
0
 10
3863.9867976639111475
 20
273.5523121201453023
 30
0.0
 11
3863.9867976639111475
 21
272.5483751123452976
 31
0.0
  0
LINE
  5
160FE
  8
0
 10
3865.2860102624108549
 20
273.5523121201453023
 30
0.0
 11
3865.2860102624108549
 21
272.5483751123452976
 31
0.0
  0
LINE
  5
160FF
  8
0
 10
3865.2860102624108549
 20
272.5483751123452976
 30
0.0
 11
3865.4238055379100842
 21
272.5483751123452976
 31
0.0
  0
LINE
  5
16100
  8
0
 10
3865.4238055379100842
 20
272.5483751123452976
 30
0.0
 11
3865.4238055379100842
 21
269.3200286556452738
 31
0.0
  0
LINE
  5
16101
  8
0
 10
3865.4238055379100842
 20
269.3200286556452738
 30
0.0
 11
3860.0857869278420367
 21
269.3200286556452738
 31
0.0
  0
LINE
  5
16102
  8
0
 10
3865.2194748293109114
 20
269.3200286556452738
 30
0.0
 11
3865.2194748293109114
 21
269.3003436162452999
 31
0.0
  0
LINE
  5
16103
  8
0
 10
3865.2194748293109114
 20
269.3003436162452999
 30
0.0
 11
3864.0655378214100892
 21
269.3003436162452999
 31
0.0
  0
LINE
  5
16104
  8
0
 10
3864.0655378214100892
 20
269.3003436162452999
 30
0.0
 11
3864.0655378214100892
 21
269.3200286556452738
 31
0.0
  0
LINE
  5
16105
  8
0
 10
3865.4238055379100842
 20
269.5168790493453912
 30
0.0
 11
3865.2466401836109071
 21
269.5168790493453912
 31
0.0
  0
LINE
  5
16106
  8
0
 10
3865.2466401836109071
 20
269.5168790493453912
 30
0.0
 11
3865.2466401836109071
 21
269.3200286556452738
 31
0.0
  0
LINE
  5
16107
  8
0
 10
3865.3253803411098488
 20
272.5483751123452976
 30
0.0
 11
3865.3253803411098488
 21
269.5168790493453912
 31
0.0
  0
LINE
  5
16108
  8
0
 10
3865.4238055379100842
 20
271.0916821989453069
 30
0.0
 11
3865.3253803411098488
 21
271.0916821989453069
 31
0.0
  0
LINE
  5
16109
  8
0
 10
3865.4238055379100842
 20
270.8948318052453033
 30
0.0
 11
3865.3253803411098488
 21
270.8948318052453033
 31
0.0
  0
LINE
  5
1610A
  8
0
 10
3865.4238055379100842
 20
270.5011310178452959
 30
0.0
 11
3865.3253803411098488
 21
270.5011310178452959
 31
0.0
  0
LINE
  5
1610B
  8
0
 10
3865.4238055379100842
 20
269.9105798367452849
 30
0.0
 11
3865.3253803411098488
 21
269.9105798367452849
 31
0.0
  0
LINE
  5
1610C
  8
0
 10
3865.4238055379100842
 20
272.430264876045328
 30
0.0
 11
3865.3253803411098488
 21
272.430264876045328
 31
0.0
  0
LINE
  5
1610D
  8
0
 10
3863.9867976639111475
 20
272.5483751123452976
 30
0.0
 11
3863.8490023883109643
 21
272.5483751123452976
 31
0.0
  0
LINE
  5
1610E
  8
0
 10
3863.8490023883109643
 20
272.5483751123452976
 30
0.0
 11
3863.8490023883109643
 21
270.0286900729453237
 31
0.0
  0
LINE
  5
1610F
  8
0
 10
3863.9474275852098799
 20
272.5483751123452976
 30
0.0
 11
3863.9474275852098799
 21
269.4381388918453126
 31
0.0
  0
ARC
  5
16110
  8
0
 10
3863.9671126246112181
 20
269.4381388918453126
 30
0.0
 40
0.1181102362000033
 50
179.9999999999967031
 51
270.0
  0
ARC
  5
16111
  8
0
 10
3863.6029393962107861
 20
269.5562491280452946
 30
0.0
 40
0.236220472400004
 50
269.9999988662120813
 51
330.0000000000030127
  0
LINE
  5
16112
  8
0
 10
3864.0261677427110953
 20
269.3200286556452738
 30
0.0
 11
3864.0261677427110953
 21
269.5168790493453912
 31
0.0
  0
LINE
  5
16113
  8
0
 10
3864.0261677427110953
 20
269.5168790493453912
 30
0.0
 11
3863.9474275852098799
 21
269.5168790493453912
 31
0.0
  0
LINE
  5
16114
  8
0
 10
3862.8813233655091608
 20
269.2646315841760725
 30
0.0
 11
3860.0855935548102025
 21
269.2646315839452882
 31
0.0
  0
ARC
  5
16115
  8
0
 10
3862.8813174302099469
 20
269.835568780745291
 30
0.0
 40
0.5709371965999495
 50
270.0005956303850212
 51
295.4341796061082732
  0
LINE
  5
16116
  8
0
 10
3863.8490023883109643
 20
270.8948318052453033
 30
0.0
 11
3863.6521519946109038
 21
270.8948318052453033
 31
0.0
  0
LINE
  5
16117
  8
0
 10
3863.6521519946109038
 20
270.8948318052453033
 30
0.0
 11
3863.6521519946109038
 21
270.0286900729453237
 31
0.0
  0
LINE
  5
16118
  8
0
 10
3863.8391598687107944
 20
270.0286900729453237
 30
0.0
 11
3863.8391598687107944
 21
270.4223908603452742
 31
0.0
  0
LINE
  5
16119
  8
0
 10
3863.8391598687107944
 20
270.4223908603452742
 30
0.0
 11
3863.7210496324109954
 21
270.4223908603452742
 31
0.0
  0
LINE
  5
1611A
  8
0
 10
3863.7210496324109954
 20
270.4223908603452742
 30
0.0
 11
3863.7210496324109954
 21
270.0286900729453237
 31
0.0
  0
LINE
  5
1611B
  8
0
 10
3863.8391598687107944
 20
270.2255404666453273
 30
0.0
 11
3863.7210496324109954
 21
270.2255404666453273
 31
0.0
  0
ARC
  5
1611C
  8
0
 10
3863.4017785599749004
 20
271.9962785886087886
 30
0.0
 40
0.1979037666353587
 50
54.9686377991751769
 51
79.4835280568049853
  0
ARC
  5
1611D
  8
0
 10
3863.4533622117201048
 20
272.264195020673526
 30
0.0
 40
0.0749493290991995
 50
205.362489533319291
 51
258.0939464900097846
  0
ARC
  5
1611E
  8
0
 10
3862.952594463009973
 20
272.2298295383453137
 30
0.0
 40
0.4330482467999915
 50
0.2992046269106095
 51
90.0
  0
LINE
  5
1611F
  8
0
 10
3863.8490023883109643
 20
271.924312970045321
 30
0.0
 11
3863.5153716635659293
 21
272.1583480646768862
 31
0.0
  0
LINE
  5
16120
  8
0
 10
3863.6521519946109038
 20
272.0623994743775143
 30
0.0
 11
3863.6521519946109038
 21
272.5483751123452976
 31
0.0
  0
LINE
  5
16121
  8
0
 10
3859.5970338844108483
 20
272.8577984265452869
 30
0.0
 11
3858.9671126246112181
 21
272.8577984265751866
 31
0.0
  0
LINE
  5
16122
  8
0
 10
3858.8883724671109121
 20
272.8482493610453048
 30
0.0
 11
3858.8883724671109121
 21
272.8398691020453271
 31
0.0
  0
LINE
  5
16123
  8
0
 10
3859.6757740419111542
 20
272.8482493610451911
 30
0.0
 11
3859.6757740419111542
 21
272.8398691020453271
 31
0.0
  0
ARC
  5
16124
  8
0
 10
3859.6096584821298165
 20
272.632484680906316
 30
0.0
 40
0.2256671541023269
 50
72.9636582405849339
 51
93.2069974970931412
  0
ARC
  5
16125
  8
0
 10
3858.9544880269040732
 20
272.6324846808482789
 30
0.0
 40
0.2256671541613368
 50
86.7930024989402966
 51
107.036341758023795
  0
ARC
  5
16126
  8
0
 10
3862.8817108132111571
 20
272.2689291338454041
 30
0.0
 40
0.570939968099956
 50
64.5899038276035355
 51
89.9993724398667752
  0
ARC
  5
16127
  8
0
 10
3863.4159343495830399
 20
272.5483779397177955
 30
0.0
 40
0.2362176450444668
 50
359.999314206571114
 51
90.0006857934208142
  0
LINE
  5
16128
  8
0
 10
3865.2466401836109071
 20
269.4184538524953041
 30
0.0
 11
3864.0261677427110953
 21
269.4184538524953041
 31
0.0
  0
CIRCLE
  5
16129
  8
0
 10
3864.6364039631098422
 20
272.1153042461452856
 30
0.0
 40
0.3937007874
  0
CIRCLE
  5
1612A
  8
0
 10
3864.6364039631098422
 20
272.1153042461452856
 30
0.0
 40
0.3149592022999998
  0
CIRCLE
  5
1612B
  8
0
 10
3864.6364039631098422
 20
272.1153042461452856
 30
0.0
 40
0.1574803148999999
  0
LINE
  5
1612C
  8
0
 10
3851.9425142261111432
 20
269.4381388918453126
 30
0.0
 11
3851.9447130750099859
 21
268.8082176320452845
 31
0.0
  0
LINE
  5
1612D
  8
0
 10
3851.9447130750099859
 20
268.8082176320452845
 30
0.0
 11
3860.0840003631110449
 21
268.8082176320452845
 31
0.0
  0
LINE
  5
1612E
  8
0
 10
3860.0840003631110449
 20
268.8082176320452845
 30
0.0
 11
3860.0861992120098876
 21
269.4381388918453126
 31
0.0
  0
ARC
  5
1612F
  8
0
 10
3856.0143567191112197
 20
271.052312120145416
 30
0.0
 40
1.875196850399915
 50
72.4391006254961667
 51
107.5608993745038049
  0
ARC
  5
16130
  8
0
 10
3856.0143567190671092
 20
267.762449915972411
 30
0.0
 40
5.0221456687728638
 50
80.6035226227136548
 51
99.3964773772862742
  0
ARC
  5
16131
  8
0
 10
3855.9331835893108291
 20
272.7506388918451989
 30
0.0
 40
0.0399606299000398
 50
90.0000000000260485
 51
124.6273135925497968
  0
ARC
  5
16132
  8
0
 10
3856.0955298488111112
 20
272.7506388918451989
 30
0.0
 40
0.0399606299000581
 50
55.3726864128631533
 51
89.9999999999739515
  0
LINE
  5
16133
  8
0
 10
3855.9331839802330251
 20
272.7905995217433883
 30
0.0
 11
3856.0955294578880057
 21
272.7905995217433883
 31
0.0
  0
ARC
  5
16134
  8
0
 10
3855.2072701048728049
 20
272.6395258069591137
 30
0.0
 40
0.0787401574623727
 50
99.3964773522761647
 51
180.0000000100507123
  0
ARC
  5
16135
  8
0
 10
3856.8214433332109365
 20
272.6395258069453007
 30
0.0
 40
0.0787401575000004
 50
0.0
 51
80.6035225658542629
  0
LINE
  5
16136
  8
0
 10
3855.1285299474097883
 20
272.6395258069453007
 30
0.0
 11
3855.1285299474097883
 21
272.6271152697452749
 31
0.0
  0
LINE
  5
16137
  8
0
 10
3855.1285299474097883
 20
272.6271152697452749
 30
0.0
 11
3856.9001834907107877
 21
272.6271152697452749
 31
0.0
  0
LINE
  5
16138
  8
0
 10
3856.9001834907107877
 20
272.6271152697452749
 30
0.0
 11
3856.9001834907107877
 21
272.6395258069453007
 31
0.0
  0
LINE
  5
16139
  8
0
 10
3855.349555507392779
 20
272.6271152697549951
 30
0.0
 11
3855.3467660385790623
 21
272.6203605395124896
 31
0.0
  0
LINE
  5
1613A
  8
0
 10
3856.6791579307327993
 20
272.6271152697452749
 30
0.0
 11
3856.6815572912378229
 21
272.6213051891318742
 31
0.0
  0
ARC
  5
1613B
  8
0
 10
3856.6793397525270848
 20
272.4347464250384974
 30
0.0
 40
0.1886063022044486
 50
82.6917872334292241
 51
89.5745203394075844
  0
ARC
  5
1613C
  8
0
 10
3855.9000290297208267
 20
307.4025503187062895
 30
0.0
 40
34.7865897404908111
 50
269.0887013886464842
 51
270.1883054914259787
  0
ARC
  5
1613D
  8
0
 10
3856.1639334907008561
 20
294.9524574936157251
 30
0.0
 40
22.3371506160686017
 50
269.6163260987268018
 51
271.3837149103982256
  0
ARC
  5
1613E
  8
0
 10
3855.3504982800200196
 20
272.4181109362746724
 30
0.0
 40
0.2052521430081451
 50
90.7046685210806061
 51
97.0288704880636317
  0
ARC
  5
1613F
  8
0
 10
3855.3482798762229322
 20
272.7998708235385834
 30
0.0
 40
0.1795166671246202
 50
262.6716911123647265
 51
269.516827392080927
  0
LINE
  5
16140
  8
0
 10
3849.0761189751110578
 20
272.6628777851453265
 30
0.0
 11
3853.8490023883109643
 21
272.6628777850664846
 31
0.0
  0
LINE
  5
16141
  8
0
 10
3854.0458527820110248
 20
272.6628777850633014
 30
0.0
 11
3855.1320723820567764
 21
272.6628777850452821
 31
0.0
  0
LINE
  5
16142
  8
0
 10
3856.8966410560610711
 20
272.6628777850452821
 30
0.0
 11
3857.9828606561109154
 21
272.6628777850552865
 31
0.0
  0
LINE
  5
16143
  8
0
 10
3858.179711049810976
 20
272.6628777850572192
 30
0.0
 11
3862.9525882766010909
 21
272.6628777851011023
 31
0.0
  0
ARC
  5
16144
  8
0
 10
3856.0143567191112197
 20
273.9261760615452772
 30
0.0
 40
1.7716535432999969
 50
0.0
 51
180.0
  0
ARC
  5
16145
  8
0
 10
3856.0143567191112197
 20
273.9261760615452772
 30
0.0
 40
1.8503941339000001
 50
343.2252112451612902
 51
196.774788744108605
  0
ARC
  5
16146
  8
0
 10
3856.0143567953309685
 20
273.926201302780612
 30
0.0
 40
2.2441070733279269
 50
331.3923209913820074
 51
208.6063261861534954
  0
LINE
  5
16147
  8
0
 10
3854.2427031757110854
 20
273.1575721013452949
 30
0.0
 11
3854.2427031758111298
 21
273.9261760615452772
 31
0.0
  0
LINE
  5
16148
  8
0
 10
3857.7860102624108549
 20
273.1575432584452869
 30
0.0
 11
3857.7860102624108549
 21
273.9261760615452772
 31
0.0
  0
ARC
  5
16149
  8
0
 10
3853.9844818191700142
 20
273.15696998503131
 30
0.0
 40
0.2582220585421407
 50
318.0309947773195063
 51
0.1336011145810455
  0
ARC
  5
1614A
  8
0
 10
3858.0451029890041355
 20
273.157331070100895
 30
0.0
 40
0.2590928134810674
 50
179.9530766685815877
 51
222.8486633584329013
  0
ARC
  5
1614B
  8
0
 10
3973.185568156654881
 20
388.1069474958262049
 30
0.0
 40
162.9572313962933947
 50
224.9491317043791128
 51
225.0193532864801114
  0
ARC
  5
1614C
  8
0
 10
3821.0330613294008799
 20
305.9080467263029277
 30
0.0
 40
46.7168003507782785
 50
314.9402838102748206
 51
315.1904902431757023
  0
LINE
  5
1614D
  8
0
 10
3852.0379787663100615
 20
268.8082176320452845
 30
0.0
 11
3851.9453742723098912
 21
268.6187993487453127
 31
0.0
  0
LINE
  5
1614E
  8
0
 10
3851.9453742723098912
 20
268.6187993487453127
 30
0.0
 11
3851.945400215310201
 21
268.6113672383452808
 31
0.0
  0
LINE
  5
1614F
  8
0
 10
3851.945400215310201
 20
268.6113672383452808
 30
0.0
 11
3852.0379787663100615
 21
268.6113672383452808
 31
0.0
  0
LINE
  5
16150
  8
0
 10
3852.0379787663100615
 20
268.6113672383452808
 30
0.0
 11
3851.9460565412109645
 21
268.4233445050452929
 31
0.0
  0
LINE
  5
16151
  8
0
 10
3851.9460565412109645
 20
268.4233445050452929
 30
0.0
 11
3851.9460873556099614
 21
268.4145168446452772
 31
0.0
  0
LINE
  5
16152
  8
0
 10
3851.9460873556099614
 20
268.4145168446452772
 30
0.0
 11
3852.0379787663100615
 21
268.4145168446452772
 31
0.0
  0
LINE
  5
16153
  8
0
 10
3852.0420468546108168
 20
268.4145168446452772
 30
0.0
 11
3852.1339382653109169
 21
268.4145168446452772
 31
0.0
  0
LINE
  5
16154
  8
0
 10
3852.0410750915111748
 20
268.6113672383452808
 30
0.0
 11
3852.1339255015109302
 21
268.4233445050452929
 31
0.0
  0
LINE
  5
16155
  8
0
 10
3852.1339255015109302
 20
268.4233445050452929
 30
0.0
 11
3852.1339382653109169
 21
268.4145168446452772
 31
0.0
  0
LINE
  5
16156
  8
0
 10
3852.0410750915111748
 20
268.6113672383452808
 30
0.0
 11
3860.0833132228108298
 21
268.6113672383452808
 31
0.0
  0
LINE
  5
16157
  8
0
 10
3860.0833132228108298
 20
268.6113672383452808
 30
0.0
 11
3860.0833391658111395
 21
268.6187993487453127
 31
0.0
  0
LINE
  5
16158
  8
0
 10
3860.0833391658111395
 20
268.6187993487453127
 30
0.0
 11
3859.9907346718109693
 21
268.8082176320452845
 31
0.0
  0
LINE
  5
16159
  8
0
 10
3859.9886101097108622
 20
268.8082176320452845
 30
0.0
 11
3859.8950705416109486
 21
268.6187993487453127
 31
0.0
  0
LINE
  5
1615A
  8
0
 10
3859.8950705416109486
 20
268.6187993487453127
 30
0.0
 11
3859.8950705416109486
 21
268.6113672383452808
 31
0.0
  0
LINE
  5
1615B
  8
0
 10
3859.8950705416109486
 20
268.6187993487453127
 30
0.0
 11
3852.1336428965109917
 21
268.6187993487453127
 31
0.0
  0
LINE
  5
1615C
  8
0
 10
3852.1336428965109917
 20
268.6187993487453127
 30
0.0
 11
3852.1336536425110353
 21
268.6113672383452808
 31
0.0
  0
LINE
  5
1615D
  8
0
 10
3852.1336428965109917
 20
268.6187993487453127
 30
0.0
 11
3852.0401033284110781
 21
268.8082176320452845
 31
0.0
  0
LINE
  5
1615E
  8
0
 10
3852.1339255015109302
 20
268.4233445050452929
 30
0.0
 11
3859.8947879366110101
 21
268.4233445050452929
 31
0.0
  0
LINE
  5
1615F
  8
0
 10
3859.8947879366110101
 20
268.4233445050452929
 30
0.0
 11
3859.8947751728101139
 21
268.4145168446452772
 31
0.0
  0
LINE
  5
16160
  8
0
 10
3859.9866665835111235
 20
268.4145168446452772
 30
0.0
 11
3852.1339382653109169
 21
268.4145168446452772
 31
0.0
  0
LINE
  5
16161
  8
0
 10
3859.9907346718109693
 20
268.4145168446452772
 30
0.0
 11
3860.0826260825110694
 21
268.4145168446452772
 31
0.0
  0
LINE
  5
16162
  8
0
 10
3860.0826260825110694
 20
268.4145168446452772
 30
0.0
 11
3860.0826568969100663
 21
268.4233445050452929
 31
0.0
  0
LINE
  5
16163
  8
0
 10
3860.0826568969100663
 20
268.4233445050452929
 30
0.0
 11
3859.9907346718109693
 21
268.6113672383452808
 31
0.0
  0
LINE
  5
16164
  8
0
 10
3859.9876383466112202
 20
268.6113672383452808
 30
0.0
 11
3859.8947879366110101
 21
268.4233445050452929
 31
0.0
  0
LINE
  5
16165
  8
0
 10
3860.034041758409785
 20
268.8082176320452845
 30
0.0
 11
3860.034041758409785
 21
268.7196349548536887
 31
0.0
  0
LINE
  5
16166
  8
0
 10
3860.034041758409785
 20
268.5227845611426005
 30
0.0
 11
3860.034041758409785
 21
268.6113672383452808
 31
0.0
  0
LINE
  5
16167
  8
0
 10
3851.9946716797098816
 20
268.8082176320452845
 30
0.0
 11
3851.9946716797098816
 21
268.7196349548536887
 31
0.0
  0
LINE
  5
16168
  8
0
 10
3851.9946716797098816
 20
268.6113672383452808
 30
0.0
 11
3851.9946716797098816
 21
268.5227845611452722
 31
0.0
  0
LINE
  5
16169
  8
0
 10
3854.3214433332109365
 20
268.8082176320452845
 30
0.0
 11
3854.3214433332109365
 21
268.7196349548452758
 31
0.0
  0
LINE
  5
1616A
  8
0
 10
3854.3214433332109365
 20
268.7196349548452758
 30
0.0
 11
3854.4395535694097816
 21
268.7196349548452758
 31
0.0
  0
LINE
  5
1616B
  8
0
 10
3854.4395535694097816
 20
268.7196349548452758
 30
0.0
 11
3854.4395535694097816
 21
268.8082176320452845
 31
0.0
  0
LINE
  5
1616C
  8
0
 10
3857.5891598687107944
 20
268.8082176320452845
 30
0.0
 11
3857.5891598687107944
 21
268.7196349548452758
 31
0.0
  0
LINE
  5
1616D
  8
0
 10
3857.5891598687107944
 20
268.7196349548452758
 30
0.0
 11
3857.7072701049100942
 21
268.7196349548452758
 31
0.0
  0
LINE
  5
1616E
  8
0
 10
3857.7072701049100942
 20
268.7196349548452758
 30
0.0
 11
3857.7072701049100942
 21
268.8082176320452845
 31
0.0
  0
LINE
  5
1616F
  8
0
 10
3854.3214433332109365
 20
268.6113672383452808
 30
0.0
 11
3854.3214433332109365
 21
268.5227845611452722
 31
0.0
  0
LINE
  5
16170
  8
0
 10
3854.3214433332109365
 20
268.5227845611452722
 30
0.0
 11
3854.4395535694097816
 21
268.5227845611452722
 31
0.0
  0
LINE
  5
16171
  8
0
 10
3854.4395535694097816
 20
268.5227845611452722
 30
0.0
 11
3854.4395535694097816
 21
268.6113672383452808
 31
0.0
  0
LINE
  5
16172
  8
0
 10
3857.5891598687107944
 20
268.6113672383452808
 30
0.0
 11
3857.5891598687107944
 21
268.5227845611452722
 31
0.0
  0
LINE
  5
16173
  8
0
 10
3857.5891598687107944
 20
268.5227845611452722
 30
0.0
 11
3857.7072701049100942
 21
268.5227845611452722
 31
0.0
  0
LINE
  5
16174
  8
0
 10
3857.7072701049100942
 20
268.5227845611452722
 30
0.0
 11
3857.7072701049100942
 21
268.6113672383452808
 31
0.0
  0
LINE
  5
16175
  8
0
 10
3852.0379787663100615
 20
268.4145168446452772
 30
0.0
 11
3851.9467388100101743
 21
268.227889661345273
 31
0.0
  0
LINE
  5
16176
  8
0
 10
3851.9467388100101743
 20
268.227889661345273
 30
0.0
 11
3851.9467388100101743
 21
268.2176664509452735
 31
0.0
  0
LINE
  5
16177
  8
0
 10
3851.9467388100101743
 20
268.2176664509452735
 30
0.0
 11
3852.0379787663100615
 21
268.2176664509452735
 31
0.0
  0
LINE
  5
16178
  8
0
 10
3852.0379787663100615
 20
268.2176664509452735
 30
0.0
 11
3851.9474210789107929
 21
268.03243481764531
 31
0.0
  0
LINE
  5
16179
  8
0
 10
3851.9474210789107929
 20
268.03243481764531
 30
0.0
 11
3851.9474210789107929
 21
268.0208160571452822
 31
0.0
  0
LINE
  5
1617A
  8
0
 10
3851.9474210789107929
 20
268.0208160571452822
 30
0.0
 11
3852.0379787663100615
 21
268.0208160571452822
 31
0.0
  0
LINE
  5
1617B
  8
0
 10
3852.0379787663100615
 20
268.0208160571452822
 30
0.0
 11
3851.9481033478109566
 21
267.8369799739452901
 31
0.0
  0
LINE
  5
1617C
  8
0
 10
3851.9481033478109566
 20
267.8369799739452901
 30
0.0
 11
3851.9481033478109566
 21
267.8239656634452786
 31
0.0
  0
LINE
  5
1617D
  8
0
 10
3851.9481033478109566
 20
267.8239656634452786
 30
0.0
 11
3852.0379787663100615
 21
267.8239656634452786
 31
0.0
  0
LINE
  5
1617E
  8
0
 10
3852.0379787663100615
 20
267.8239656634452786
 30
0.0
 11
3851.9487856167111204
 21
267.6415251302453271
 31
0.0
  0
LINE
  5
1617F
  8
0
 10
3851.9487856167111204
 20
267.6415251302453271
 30
0.0
 11
3851.9488359168108218
 21
267.6271152697452749
 31
0.0
  0
LINE
  5
16180
  8
0
 10
3851.9488359168108218
 20
267.6271152697452749
 30
0.0
 11
3852.0379787663100615
 21
267.6271152697452749
 31
0.0
  0
LINE
  5
16181
  8
0
 10
3852.0379787663100615
 20
267.6271152697452749
 30
0.0
 11
3851.9494678856099199
 21
267.4460702864453197
 31
0.0
  0
LINE
  5
16182
  8
0
 10
3851.9494678856099199
 20
267.4460702864453197
 30
0.0
 11
3851.9495230571110369
 21
267.430264876045328
 31
0.0
  0
LINE
  5
16183
  8
0
 10
3851.9495230571110369
 20
267.430264876045328
 30
0.0
 11
3852.0379787663100615
 21
267.430264876045328
 31
0.0
  0
LINE
  5
16184
  8
0
 10
3852.0379787663100615
 20
267.430264876045328
 30
0.0
 11
3851.9501501545109932
 21
267.2506154427452998
 31
0.0
  0
LINE
  5
16185
  8
0
 10
3851.9501501545109932
 20
267.2506154427452998
 30
0.0
 11
3851.9502101974107973
 21
267.2334144823453244
 31
0.0
  0
LINE
  5
16186
  8
0
 10
3851.9502101974107973
 20
267.2334144823453244
 30
0.0
 11
3852.0379787663100615
 21
267.2334144823453244
 31
0.0
  0
LINE
  5
16187
  8
0
 10
3852.0379787663100615
 20
267.2334144823453244
 30
0.0
 11
3851.9508324233111125
 21
267.0551605990452799
 31
0.0
  0
LINE
  5
16188
  8
0
 10
3851.9508324233111125
 20
267.0551605990452799
 30
0.0
 11
3851.9508324233111125
 21
266.9027058209453003
 31
0.0
  0
LINE
  5
16189
  8
0
 10
3852.0420468546108168
 20
268.4145168446452772
 30
0.0
 11
3852.1342081065108687
 21
268.227889661345273
 31
0.0
  0
LINE
  5
1618A
  8
0
 10
3852.1342081065108687
 20
268.227889661345273
 30
0.0
 11
3852.1342228881107985
 21
268.2176664509452735
 31
0.0
  0
LINE
  5
1618B
  8
0
 10
3852.1342228881107985
 20
268.2176664509452735
 30
0.0
 11
3852.0430186177109135
 21
268.2176664509452735
 31
0.0
  0
LINE
  5
1618C
  8
0
 10
3852.0430186177109135
 20
268.2176664509452735
 30
0.0
 11
3852.1344907116099421
 21
268.03243481764531
 31
0.0
  0
LINE
  5
1618D
  8
0
 10
3852.1344907116099421
 20
268.03243481764531
 30
0.0
 11
3852.1344907116099421
 21
268.0208160571452822
 31
0.0
  0
LINE
  5
1618E
  8
0
 10
3852.1344907116099421
 20
268.0208160571452822
 30
0.0
 11
3852.0439903809110547
 21
268.0208160571452822
 31
0.0
  0
LINE
  5
1618F
  8
0
 10
3852.0439903809110547
 20
268.0208160571452822
 30
0.0
 11
3852.1347733166098806
 21
267.8369799739452901
 31
0.0
  0
LINE
  5
16190
  8
0
 10
3852.1347733166098806
 20
267.8369799739452901
 30
0.0
 11
3852.1347921338101514
 21
267.8239656634452786
 31
0.0
  0
LINE
  5
16191
  8
0
 10
3859.8939213044332064
 20
267.8239656629614274
 30
0.0
 11
3852.0449621440097872
 21
267.8239656634452786
 31
0.0
  0
LINE
  5
16192
  8
0
 10
3852.0449621440097872
 20
267.8239656634452786
 30
0.0
 11
3852.1350559216098191
 21
267.6415251302453271
 31
0.0
  0
LINE
  5
16193
  8
0
 10
3852.1350559216098191
 20
267.6415251302453271
 30
0.0
 11
3852.135076756610033
 21
267.6271152697452749
 31
0.0
  0
LINE
  5
16194
  8
0
 10
3852.135076756610033
 20
267.6271152697452749
 30
0.0
 11
3852.0459339071098839
 21
267.6271152697452749
 31
0.0
  0
LINE
  5
16195
  8
0
 10
3852.0459339071098839
 20
267.6271152697452749
 30
0.0
 11
3852.1353385266111218
 21
267.4460702864453197
 31
0.0
  0
LINE
  5
16196
  8
0
 10
3852.1353385266111218
 20
267.4460702864453197
 30
0.0
 11
3852.1353613794099147
 21
267.430264876045328
 31
0.0
  0
LINE
  5
16197
  8
0
 10
3852.0469056702099806
 20
267.430264876045328
 30
0.0
 11
3852.1356211317111047
 21
267.2506154427452998
 31
0.0
  0
LINE
  5
16198
  8
0
 10
3852.1356211317111047
 20
267.2506154427452998
 30
0.0
 11
3852.1356211317111047
 21
267.2334144823453244
 31
0.0
  0
LINE
  5
16199
  8
0
 10
3852.0478774333109868
 20
267.2334144823453244
 30
0.0
 11
3852.1359037367110432
 21
267.0551605990452799
 31
0.0
  0
LINE
  5
1619A
  8
0
 10
3852.1359037367110432
 20
267.0551605990452799
 30
0.0
 11
3852.1361241686108769
 21
266.9027058209453003
 31
0.0
  0
LINE
  5
1619B
  8
0
 10
3859.9907346720078749
 20
268.4145168441493752
 30
0.0
 11
3860.0819746282841152
 21
268.2278896608380023
 31
0.0
  0
LINE
  5
1619C
  8
0
 10
3860.0819746282841152
 20
268.2278896608380023
 30
0.0
 11
3860.0819746282832057
 21
268.2176664504380028
 31
0.0
  0
LINE
  5
1619D
  8
0
 10
3860.0819746282832057
 20
268.2176664504380028
 30
0.0
 11
3859.9907346719828638
 21
268.2176664504494283
 31
0.0
  0
LINE
  5
1619E
  8
0
 10
3859.9907346719828638
 20
268.2176664504494283
 30
0.0
 11
3860.0812923593589403
 21
268.0324348171380962
 31
0.0
  0
LINE
  5
1619F
  8
0
 10
3860.0812923593589403
 20
268.0324348171380962
 30
0.0
 11
3860.0812923593580308
 21
268.0208160566381252
 31
0.0
  0
LINE
  5
161A0
  8
0
 10
3860.0812923593580308
 20
268.0208160566381252
 30
0.0
 11
3859.9907346719578527
 21
268.0208160566493802
 31
0.0
  0
LINE
  5
161A1
  8
0
 10
3859.9907346719578527
 20
268.0208160566493802
 30
0.0
 11
3860.0806100904351297
 21
267.83697997343819
 31
0.0
  0
LINE
  5
161A2
  8
0
 10
3860.0806100904351297
 20
267.83697997343819
 30
0.0
 11
3860.0806100904342202
 21
267.8239656629381784
 31
0.0
  0
LINE
  5
161A3
  8
0
 10
3860.0806100904342202
 20
267.8239656629381784
 30
0.0
 11
3859.9907346719342058
 21
267.8239656629493766
 31
0.0
  0
LINE
  5
161A4
  8
0
 10
3859.9907346719342058
 20
267.8239656629493766
 30
0.0
 11
3860.0799278215108643
 21
267.641525129738227
 31
0.0
  0
LINE
  5
161A5
  8
0
 10
3860.0799278215108643
 20
267.641525129738227
 30
0.0
 11
3860.0798775214088892
 21
267.6271152692382884
 31
0.0
  0
LINE
  5
161A6
  8
0
 10
3860.0798775214088892
 20
267.6271152692382884
 30
0.0
 11
3859.9907346719091947
 21
267.6271152692493729
 31
0.0
  0
LINE
  5
161A7
  8
0
 10
3859.9907346719091947
 20
267.6271152692493729
 30
0.0
 11
3860.0792455525861442
 21
267.4460702859382764
 31
0.0
  0
LINE
  5
161A8
  8
0
 10
3860.0792455525861442
 20
267.4460702859382764
 30
0.0
 11
3860.0791903810841177
 21
267.4302648755383984
 31
0.0
  0
LINE
  5
161A9
  8
0
 10
3860.0791903810841177
 20
267.4302648755383984
 30
0.0
 11
3859.9907346718841836
 21
267.4302648755494261
 31
0.0
  0
LINE
  5
161AA
  8
0
 10
3859.9907346718841836
 20
267.4302648755494261
 30
0.0
 11
3860.0785632836618788
 21
267.250615442238427
 31
0.0
  0
LINE
  5
161AB
  8
0
 10
3860.0785632836618788
 20
267.250615442238427
 30
0.0
 11
3860.0785032407588915
 21
267.2334144818383947
 31
0.0
  0
LINE
  5
161AC
  8
0
 10
3860.0785032407588915
 20
267.2334144818383947
 30
0.0
 11
3859.990734671860082
 21
267.2334144818494224
 31
0.0
  0
LINE
  5
161AD
  8
0
 10
3859.990734671860082
 20
267.2334144818494224
 30
0.0
 11
3860.0778810148372031
 21
267.0551605985385208
 31
0.0
  0
LINE
  5
161AE
  8
0
 10
3860.0778810148372031
 20
267.0551605985385208
 30
0.0
 11
3860.0778810148190132
 21
266.9027058204384844
 31
0.0
  0
LINE
  5
161AF
  8
0
 10
3859.9866665837071196
 20
268.4145168441498868
 30
0.0
 11
3859.8945053317838756
 21
268.2278896608614218
 31
0.0
  0
LINE
  5
161B0
  8
0
 10
3859.8945053317838756
 20
268.2278896608614218
 30
0.0
 11
3859.8944905501821268
 21
268.2176664504614223
 31
0.0
  0
LINE
  5
161B1
  8
0
 10
3859.8944905501821268
 20
268.2176664504614223
 30
0.0
 11
3859.9856948205829212
 21
268.2176664504499968
 31
0.0
  0
LINE
  5
161B2
  8
0
 10
3859.9856948205829212
 20
268.2176664504499968
 30
0.0
 11
3859.8942227266597911
 21
268.032434817161402
 31
0.0
  0
LINE
  5
161B3
  8
0
 10
3859.8942227266597911
 20
268.032434817161402
 30
0.0
 11
3859.8942227266588816
 21
268.0208160566613742
 31
0.0
  0
LINE
  5
161B4
  8
0
 10
3852.1345075109111349
 20
268.0208160571452822
 30
0.0
 11
3859.9847230573582237
 21
268.0208160566501192
 31
0.0
  0
LINE
  5
161B5
  8
0
 10
3859.9847230573582237
 20
268.0208160566501192
 30
0.0
 11
3859.8939401216348415
 21
267.8369799734613821
 31
0.0
  0
LINE
  5
161B6
  8
0
 10
3859.8939401216348415
 20
267.8369799734613821
 30
0.0
 11
3859.8939213044332064
 21
267.8239656629614274
 31
0.0
  0
LINE
  5
161B7
  8
0
 10
3859.8939213044332064
 20
267.8239656629614274
 30
0.0
 11
3859.9837512942331159
 21
267.8239656629501724
 31
0.0
  0
LINE
  5
161B8
  8
0
 10
3859.9837512942331159
 20
267.8239656629501724
 30
0.0
 11
3859.8936575166108014
 21
267.6415251297614759
 31
0.0
  0
LINE
  5
161B9
  8
0
 10
3859.8936575166108014
 20
267.6415251297614759
 30
0.0
 11
3859.8936366816092232
 21
267.6271152692614805
 31
0.0
  0
LINE
  5
161BA
  8
0
 10
3859.8936366816092232
 20
267.6271152692614805
 30
0.0
 11
3859.9827795311080081
 21
267.6271152692502824
 31
0.0
  0
LINE
  5
161BB
  8
0
 10
3859.9827795311080081
 20
267.6271152692502824
 30
0.0
 11
3859.8933749115858518
 21
267.4460702859615253
 31
0.0
  0
LINE
  5
161BC
  8
0
 10
3859.8933749115858518
 20
267.4460702859615253
 30
0.0
 11
3859.8933520587838757
 21
267.4302648755614769
 31
0.0
  0
LINE
  5
161BD
  8
0
 10
3852.0469056702099806
 20
267.430264876045328
 30
0.0
 11
3859.9818077679838098
 21
267.4302648755505061
 31
0.0
  0
LINE
  5
161BE
  8
0
 10
3859.9818077679838098
 20
267.4302648755505061
 30
0.0
 11
3859.893092306462222
 21
267.2506154422616191
 31
0.0
  0
LINE
  5
161BF
  8
0
 10
3859.893092306462222
 20
267.2506154422616191
 30
0.0
 11
3859.8930923064590388
 21
267.2334144818614732
 31
0.0
  0
LINE
  5
161C0
  8
0
 10
3852.0478774333109868
 20
267.2334144823453244
 30
0.0
 11
3859.9808360048600662
 21
267.2334144818506161
 31
0.0
  0
LINE
  5
161C1
  8
0
 10
3859.9808360048600662
 20
267.2334144818506161
 30
0.0
 11
3859.8928097014368177
 21
267.0551605985615993
 31
0.0
  0
LINE
  5
161C2
  8
0
 10
3859.8928097014368177
 20
267.0551605985615993
 30
0.0
 11
3859.892589269518794
 21
266.9027058204616196
 31
0.0
  0
LINE
  5
161C3
  8
0
 10
3852.1342081065108687
 20
268.227889661345273
 30
0.0
 11
3859.8945053316110716
 21
268.227889661345273
 31
0.0
  0
LINE
  5
161C4
  8
0
 10
3852.1344913320208434
 20
268.03243481764531
 30
0.0
 11
3859.894222726508815
 21
268.0324348168579149
 31
0.0
  0
LINE
  5
161C5
  8
0
 10
3852.1347733130660345
 20
267.8369824256268998
 30
0.0
 11
3859.8939401215111502
 21
267.8369799739452901
 31
0.0
  0
LINE
  5
161C6
  8
0
 10
3852.1350559216120928
 20
267.6415251295570101
 30
0.0
 11
3859.8936575165098475
 21
267.6415251295570101
 31
0.0
  0
LINE
  5
161C7
  8
0
 10
3852.1353385266111218
 20
267.4460702864453197
 30
0.0
 11
3859.8933634851109673
 21
267.4460702864453197
 31
0.0
  0
LINE
  5
161C8
  8
0
 10
3852.135621124570207
 20
267.2506203815493109
 30
0.0
 11
3859.893092306462222
 21
267.2506154781892747
 31
0.0
  0
LINE
  5
161C9
  8
0
 10
3852.1319472663099077
 20
267.0551605985056085
 30
0.0
 11
3859.8928097014099876
 21
267.0551605985056085
 31
0.0
  0
LINE
  5
161CA
  8
0
 10
3852.1342228881107985
 20
268.2176664509452735
 30
0.0
 11
3859.8944905500097775
 21
268.2176664504614223
 31
0.0
  0
LINE
  5
161CB
  8
0
 10
3859.8936366816092232
 20
267.6271152692614805
 30
0.0
 11
3852.135076756610033
 21
267.6271152697452749
 31
0.0
  0
LINE
  5
161CC
  8
0
 10
3854.3214433332109365
 20
268.4145168446452772
 30
0.0
 11
3854.3214433332109365
 21
268.3259341674453253
 31
0.0
  0
LINE
  5
161CD
  8
0
 10
3854.3214433332109365
 20
268.3259341674453253
 30
0.0
 11
3854.4395535694097816
 21
268.3259341674453253
 31
0.0
  0
LINE
  5
161CE
  8
0
 10
3854.4395535694097816
 20
268.3259341674453253
 30
0.0
 11
3854.4395535694097816
 21
268.4145168446452772
 31
0.0
  0
LINE
  5
161CF
  8
0
 10
3857.5891598687107944
 20
268.4145168446452772
 30
0.0
 11
3857.5891598687107944
 21
268.3259341674453253
 31
0.0
  0
LINE
  5
161D0
  8
0
 10
3857.5891598687107944
 20
268.3259341674453253
 30
0.0
 11
3857.7072701049100942
 21
268.3259341674453253
 31
0.0
  0
LINE
  5
161D1
  8
0
 10
3857.7072701049100942
 20
268.3259341674453253
 30
0.0
 11
3857.7072701049100942
 21
268.4145168446452772
 31
0.0
  0
LINE
  5
161D2
  8
0
 10
3854.3214433332109365
 20
268.2176664509452735
 30
0.0
 11
3854.3214433332109365
 21
268.1290837737453217
 31
0.0
  0
LINE
  5
161D3
  8
0
 10
3854.3214433332109365
 20
268.1290837737453217
 30
0.0
 11
3854.4395535694097816
 21
268.1290837737453217
 31
0.0
  0
LINE
  5
161D4
  8
0
 10
3854.4395535694097816
 20
268.1290837737453217
 30
0.0
 11
3854.4395535694097816
 21
268.2176664509452735
 31
0.0
  0
LINE
  5
161D5
  8
0
 10
3857.5891598687107944
 20
268.2176664509452735
 30
0.0
 11
3857.5891598687107944
 21
268.1290837737453217
 31
0.0
  0
LINE
  5
161D6
  8
0
 10
3857.5891598687107944
 20
268.1290837737453217
 30
0.0
 11
3857.7072701049100942
 21
268.1290837737453217
 31
0.0
  0
LINE
  5
161D7
  8
0
 10
3857.7072701049100942
 20
268.1290837737453217
 30
0.0
 11
3857.7072701049100942
 21
268.2176664509452735
 31
0.0
  0
LINE
  5
161D8
  8
0
 10
3854.3214433332109365
 20
268.0208160572453266
 30
0.0
 11
3854.3214433332109365
 21
267.932233380045318
 31
0.0
  0
LINE
  5
161D9
  8
0
 10
3854.3214433332109365
 20
267.932233380045318
 30
0.0
 11
3854.4395535694097816
 21
267.932233380045318
 31
0.0
  0
LINE
  5
161DA
  8
0
 10
3854.4395535694097816
 20
267.932233380045318
 30
0.0
 11
3854.4395535694097816
 21
268.0208160572453266
 31
0.0
  0
LINE
  5
161DB
  8
0
 10
3857.5891598687107944
 20
268.0208160572453266
 30
0.0
 11
3857.5891598687107944
 21
267.932233380045318
 31
0.0
  0
LINE
  5
161DC
  8
0
 10
3857.5891598687107944
 20
267.932233380045318
 30
0.0
 11
3857.7072701049100942
 21
267.932233380045318
 31
0.0
  0
LINE
  5
161DD
  8
0
 10
3857.7072701049100942
 20
267.932233380045318
 30
0.0
 11
3857.7072701049100942
 21
268.0208160572453266
 31
0.0
  0
LINE
  5
161DE
  8
0
 10
3854.3214433332109365
 20
267.823965663545323
 30
0.0
 11
3854.3214433332109365
 21
267.7353829863453143
 31
0.0
  0
LINE
  5
161DF
  8
0
 10
3854.3214433332109365
 20
267.7353829863453143
 30
0.0
 11
3854.4395535694097816
 21
267.7353829863453143
 31
0.0
  0
LINE
  5
161E0
  8
0
 10
3854.4395535694097816
 20
267.7353829863453143
 30
0.0
 11
3854.4395535694097816
 21
267.823965663545323
 31
0.0
  0
LINE
  5
161E1
  8
0
 10
3857.5891598687107944
 20
267.823965663545323
 30
0.0
 11
3857.5891598687107944
 21
267.7353829863453143
 31
0.0
  0
LINE
  5
161E2
  8
0
 10
3857.5891598687107944
 20
267.7353829863453143
 30
0.0
 11
3857.7072701049100942
 21
267.7353829863453143
 31
0.0
  0
LINE
  5
161E3
  8
0
 10
3857.7072701049100942
 20
267.7353829863453143
 30
0.0
 11
3857.7072701049100942
 21
267.823965663545323
 31
0.0
  0
LINE
  5
161E4
  8
0
 10
3854.3214433332109365
 20
267.6271152698453193
 30
0.0
 11
3854.3214433332109365
 21
267.5385325926453106
 31
0.0
  0
LINE
  5
161E5
  8
0
 10
3854.3214433332109365
 20
267.5385325926453106
 30
0.0
 11
3854.4395535694097816
 21
267.5385325926453106
 31
0.0
  0
LINE
  5
161E6
  8
0
 10
3854.4395535694097816
 20
267.5385325926453106
 30
0.0
 11
3854.4395535694097816
 21
267.6271152698453193
 31
0.0
  0
LINE
  5
161E7
  8
0
 10
3857.5891598687107944
 20
267.6271152698453193
 30
0.0
 11
3857.5891598687107944
 21
267.5385325926453106
 31
0.0
  0
LINE
  5
161E8
  8
0
 10
3857.5891598687107944
 20
267.5385325926453106
 30
0.0
 11
3857.7072701049100942
 21
267.5385325926453106
 31
0.0
  0
LINE
  5
161E9
  8
0
 10
3857.7072701049100942
 20
267.5385325926453106
 30
0.0
 11
3857.7072701049100942
 21
267.6271152698453193
 31
0.0
  0
LINE
  5
161EA
  8
0
 10
3854.3214433332109365
 20
267.2334144824453119
 30
0.0
 11
3854.3214433332109365
 21
267.1448318052453033
 31
0.0
  0
LINE
  5
161EB
  8
0
 10
3854.3214433332109365
 20
267.1448318052453033
 30
0.0
 11
3854.4395535694097816
 21
267.1448318052453033
 31
0.0
  0
LINE
  5
161EC
  8
0
 10
3854.4395535694097816
 20
267.1448318052453033
 30
0.0
 11
3854.4395535694097816
 21
267.2334144824453119
 31
0.0
  0
LINE
  5
161ED
  8
0
 10
3857.5891598687107944
 20
267.2334144824453119
 30
0.0
 11
3857.5891598687107944
 21
267.1448318052453033
 31
0.0
  0
LINE
  5
161EE
  8
0
 10
3857.5891598687107944
 20
267.1448318052453033
 30
0.0
 11
3857.7072701049100942
 21
267.1448318052453033
 31
0.0
  0
LINE
  5
161EF
  8
0
 10
3857.7072701049100942
 20
267.1448318052453033
 30
0.0
 11
3857.7072701049100942
 21
267.2334144824453119
 31
0.0
  0
LINE
  5
161F0
  8
0
 10
3854.3214433332109365
 20
267.4302648761453156
 30
0.0
 11
3854.3214433332109365
 21
267.3416821989453069
 31
0.0
  0
LINE
  5
161F1
  8
0
 10
3854.3214433332109365
 20
267.3416821989453069
 30
0.0
 11
3854.4395535694097816
 21
267.3416821989453069
 31
0.0
  0
LINE
  5
161F2
  8
0
 10
3854.4395535694097816
 20
267.3416821989453069
 30
0.0
 11
3854.4395535694097816
 21
267.4302648761453156
 31
0.0
  0
LINE
  5
161F3
  8
0
 10
3857.5891598687107944
 20
267.4302648761453156
 30
0.0
 11
3857.5891598687107944
 21
267.3416821989453069
 31
0.0
  0
LINE
  5
161F4
  8
0
 10
3857.5891598687107944
 20
267.3416821989453069
 30
0.0
 11
3857.7072701049100942
 21
267.3416821989453069
 31
0.0
  0
LINE
  5
161F5
  8
0
 10
3857.7072701049100942
 20
267.3416821989453069
 30
0.0
 11
3857.7072701049100942
 21
267.4302648761453156
 31
0.0
  0
LINE
  5
161F6
  8
0
 10
3848.0025456954099354
 20
269.4381388918453126
 30
0.0
 11
3864.0261677427110953
 21
269.4381388918453126
 31
0.0
  0
LINE
  5
161F7
  8
0
 10
3851.9198685301098521
 20
266.839713694945317
 30
0.0
 11
3851.9198685301098521
 21
266.9027058209453003
 31
0.0
  0
LINE
  5
161F8
  8
0
 10
3851.9198685301098521
 20
266.9027058209453003
 30
0.0
 11
3860.1088449080098144
 21
266.9027058209453003
 31
0.0
  0
LINE
  5
161F9
  8
0
 10
3860.1088449080098144
 20
266.9027058209453003
 30
0.0
 11
3860.1088449080098144
 21
266.839713694945317
 31
0.0
  0
LINE
  5
161FA
  8
0
 10
3860.1088449080098144
 20
266.839713694945317
 30
0.0
 11
3851.9198685301098521
 21
266.839713694945317
 31
0.0
  0
LINE
  5
161FB
  8
0
 10
3852.0773488450108744
 20
266.839713694945317
 30
0.0
 11
3852.0773488450108744
 21
266.4460129075453096
 31
0.0
  0
LINE
  5
161FC
  8
0
 10
3852.0773488450108744
 20
266.4460129075453096
 30
0.0
 11
3859.9513645931101564
 21
266.4460129075453096
 31
0.0
  0
LINE
  5
161FD
  8
0
 10
3859.9513645931101564
 20
266.4460129075453096
 30
0.0
 11
3859.9513645931101564
 21
266.839713694945317
 31
0.0
  0
LINE
  5
161FE
  8
0
 10
3859.9513645931101564
 20
266.8338081831453223
 30
0.0
 11
3860.069474829309911
 21
266.8338081831453223
 31
0.0
  0
LINE
  5
161FF
  8
0
 10
3860.069474829309911
 20
266.8338081831453223
 30
0.0
 11
3860.069474829309911
 21
266.839713694945317
 31
0.0
  0
LINE
  5
16200
  8
0
 10
3851.9592386088111198
 20
266.839713694945317
 30
0.0
 11
3851.9592386088111198
 21
266.8338081831453223
 31
0.0
  0
LINE
  5
16201
  8
0
 10
3851.9592386088111198
 20
266.8338081831453223
 30
0.0
 11
3852.0773488450108744
 21
266.8338081831453223
 31
0.0
  0
LINE
  5
16202
  8
0
 10
3851.6634851867111138
 20
266.5314427071452883
 30
0.0
 11
3851.6442779789099404
 21
266.8003436162452999
 31
0.0
  0
LINE
  5
16203
  8
0
 10
3851.6442779789099404
 20
266.8003436162452999
 30
0.0
 11
3852.0773488450108744
 21
266.8003436162452999
 31
0.0
  0
LINE
  5
16204
  8
0
 10
3852.0759713737611492
 20
266.8338081831453223
 30
0.0
 11
3852.0758854077371325
 21
266.8199034427104266
 31
0.0
  0
ARC
  5
16205
  8
0
 10
3852.0558027753309034
 20
266.8202557475435128
 30
0.0
 40
0.0200857223682802
 50
277.5382558312005017
 51
358.9949768874654978
  0
ARC
  5
16206
  8
0
 10
3852.4710496324241831
 20
266.0092440429983185
 30
0.0
 40
0.4687432661670718
 50
208.1272887880446945
 51
331.8727112072464251
  0
LINE
  5
16207
  8
0
 10
3851.6671247709109593
 20
266.5188384264453134
 30
0.0
 11
3852.0576638056368211
 21
265.7882634832453164
 31
0.0
  0
LINE
  5
16208
  8
0
 10
3852.8844354592110903
 20
265.7882634832453164
 30
0.0
 11
3853.2360445962108315
 21
266.4460129075453096
 31
0.0
  0
ARC
  5
16209
  8
0
 10
3851.6949012076938743
 20
266.533686708332084
 30
0.0
 40
0.0314960619087149
 50
184.0856162139126866
 51
208.1273536410078009
  0
LINE
  5
1620A
  8
0
 10
3851.6634851867111138
 20
266.5314427071452883
 30
0.0
 11
3852.0773488450108744
 21
266.5314427071452883
 31
0.0
  0
LINE
  5
1620B
  8
0
 10
3854.0065460069431538
 20
266.4460129075453096
 30
0.0
 11
3854.0083348907110121
 21
266.091290272445292
 31
0.0
  0
LINE
  5
1620C
  8
0
 10
3854.0083348907110121
 20
266.091290272445292
 30
0.0
 11
3855.1329474960898551
 21
266.0902089141839042
 31
0.0
  0
LINE
  5
1620D
  8
0
 10
3854.2428567191100228
 20
266.0910647706899113
 30
0.0
 11
3854.2428567191100228
 21
265.4503060204452822
 31
0.0
  0
LINE
  5
1620E
  8
0
 10
3853.7288567191108086
 20
265.3253060204452822
 30
0.0
 11
3855.1322120126110349
 21
265.3253060204452822
 31
0.0
  0
LINE
  5
1620F
  8
0
 10
3853.3763567191099355
 20
264.0653060204452913
 30
0.0
 11
3853.3765614435110365
 21
264.8134600583452993
 31
0.0
  0
LINE
  5
16210
  8
0
 10
3853.3765614435110365
 20
264.8134600583452993
 30
0.0
 11
3855.1317198529750385
 21
264.8134600583452993
 31
0.0
  0
LINE
  5
16211
  8
0
 10
3853.4788567191108086
 20
265.0753060204452822
 30
0.0
 11
3853.4788567191108086
 21
264.8134600583452993
 31
0.0
  0
LINE
  5
16212
  8
0
 10
3853.3763567191099355
 20
264.0653060204452913
 30
0.0
 11
3855.1310004741008015
 21
264.0653060204452913
 31
0.0
  0
LINE
  5
16213
  8
0
 10
3853.4553016009108433
 20
263.9670033654452936
 30
0.0
 11
3855.1309059523177893
 21
263.9670033654452936
 31
0.0
  0
LINE
  5
16214
  8
0
 10
3853.3765614434109921
 20
264.0457435229453154
 30
0.0
 11
3853.3763567191258517
 21
264.0653060764659017
 31
0.0
  0
ARC
  5
16215
  8
0
 10
3853.4553016009108433
 20
264.0457435229453154
 30
0.0
 40
0.0787401575000026
 50
180.0
 51
270.0
  0
ARC
  5
16216
  8
0
 10
3853.7288567191108086
 20
265.0753060204452822
 30
0.0
 40
0.2499999999999938
 50
90.0
 51
180.0
  0
ARC
  5
16217
  8
0
 10
3854.1178567191100228
 20
265.4503060204452822
 30
0.0
 40
0.1250000000000018
 50
270.0
 51
359.9999999999968168
  0
LINE
  5
16218
  8
0
 10
3855.1332896153107868
 20
266.4460129075453096
 30
0.0
 11
3855.1296277669098345
 21
262.6376905258453007
 31
0.0
  0
LINE
  5
16219
  8
0
 10
3860.0694748294108649
 20
266.839713694945317
 30
0.0
 11
3860.0694748294108649
 21
266.8338081831453223
 31
0.0
  0
LINE
  5
1621A
  8
0
 10
3860.0694748294108649
 20
266.8338081831453223
 30
0.0
 11
3859.9513645932111103
 21
266.8338081831453223
 31
0.0
  0
LINE
  5
1621B
  8
0
 10
3860.3652282515108709
 20
266.5314427071452883
 30
0.0
 11
3860.3844354593111348
 21
266.8003436162452999
 31
0.0
  0
LINE
  5
1621C
  8
0
 10
3860.3844354593111348
 20
266.8003436162452999
 30
0.0
 11
3859.9513645932111103
 21
266.8003436162452999
 31
0.0
  0
LINE
  5
1621D
  8
0
 10
3859.952742064459926
 20
266.8338081831453223
 30
0.0
 11
3859.9528280304848522
 21
266.8199034427104266
 31
0.0
  0
ARC
  5
1621E
  8
0
 10
3859.9729106628910813
 20
266.8202557475435128
 30
0.0
 40
0.0200857223682802
 50
181.0050231125345022
 51
262.4617441687993846
  0
ARC
  5
1621F
  8
0
 10
3859.5576638057978016
 20
266.0092440429983185
 30
0.0
 40
0.4687432661670718
 50
208.1272887927538875
 51
331.8727112119553908
  0
LINE
  5
16220
  8
0
 10
3860.3615886673110253
 20
266.5188384264453134
 30
0.0
 11
3859.9710496325837994
 21
265.7882634832453164
 31
0.0
  0
LINE
  5
16221
  8
0
 10
3859.1442779790108943
 20
265.7882634832453164
 30
0.0
 11
3858.7926688420097889
 21
266.4460129075453096
 31
0.0
  0
ARC
  5
16222
  8
0
 10
3860.3338122305272009
 20
266.533686708332084
 30
0.0
 40
0.0314960619087149
 50
331.8726463589920854
 51
355.914383786087285
  0
LINE
  5
16223
  8
0
 10
3860.3652282515108709
 20
266.5314427071452883
 30
0.0
 11
3859.9513645932111103
 21
266.5314427071452883
 31
0.0
  0
LINE
  5
16224
  8
0
 10
3858.0221674312779214
 20
266.4460129075453096
 30
0.0
 11
3858.0203785475109726
 21
266.091290272445292
 31
0.0
  0
LINE
  5
16225
  8
0
 10
3858.0203785475109726
 20
266.091290272445292
 30
0.0
 11
3856.8957659421312201
 21
266.0902089141839042
 31
0.0
  0
LINE
  5
16226
  8
0
 10
3857.7858567191110524
 20
266.0910647706899113
 30
0.0
 11
3857.7858567191110524
 21
265.4503060204452822
 31
0.0
  0
LINE
  5
16227
  8
0
 10
3858.2998567191098118
 20
265.3253060204452822
 30
0.0
 11
3856.8965014256109498
 21
265.3253060204452822
 31
0.0
  0
LINE
  5
16228
  8
0
 10
3858.6523567191111397
 20
264.0653060204452913
 30
0.0
 11
3858.6521519947109482
 21
264.8134600583452993
 31
0.0
  0
LINE
  5
16229
  8
0
 10
3858.6521519947109482
 20
264.8134600583452993
 30
0.0
 11
3856.8969935852469462
 21
264.8134600583452993
 31
0.0
  0
LINE
  5
1622A
  8
0
 10
3858.5498567191098118
 20
265.0753060204452822
 30
0.0
 11
3858.5498567191098118
 21
264.8134600583452993
 31
0.0
  0
LINE
  5
1622B
  8
0
 10
3858.6523567191111397
 20
264.0653060204452913
 30
0.0
 11
3856.8977129641211832
 21
264.0653060204452913
 31
0.0
  0
LINE
  5
1622C
  8
0
 10
3858.5734118373111414
 20
263.9670033654452936
 30
0.0
 11
3856.8978074859028311
 21
263.9670033654452936
 31
0.0
  0
LINE
  5
1622D
  8
0
 10
3858.6521519948109926
 20
264.0457435229453154
 30
0.0
 11
3858.6523567190952235
 21
264.0653060764659017
 31
0.0
  0
ARC
  5
1622E
  8
0
 10
3858.5734118373111414
 20
264.0457435229453154
 30
0.0
 40
0.0787401575000026
 50
270.0
 51
0.0
  0
ARC
  5
1622F
  8
0
 10
3858.2998567191098118
 20
265.0753060204452822
 30
0.0
 40
0.2499999999999938
 50
0.0
 51
90.0
  0
ARC
  5
16230
  8
0
 10
3857.9108567191110524
 20
265.4503060204452822
 30
0.0
 40
0.1250000000000018
 50
180.0000000000032117
 51
270.0
  0
LINE
  5
16231
  8
0
 10
3856.8954238229111979
 20
266.4460129075453096
 30
0.0
 11
3856.899085671310786
 21
262.6376905258453007
 31
0.0
  0
CIRCLE
  5
16232
  8
0
 10
3851.841128372610001
 20
271.0523121201453023
 30
0.0
 40
0.7578740157000002
  0
CIRCLE
  5
16233
  8
0
 10
3851.841128372610001
 20
271.0523121201453023
 30
0.0
 40
0.3622047244000002
  0
LINE
  5
16234
  8
0
 10
3846.7427031757101759
 20
273.3554617264452986
 30
0.0
 11
3848.0419157742098832
 21
273.3554617264452986
 31
0.0
  0
ARC
  5
16236
  8
0
 10
3851.3824669555838227
 20
271.317120412672125
 30
0.0
 40
0.0393700790732055
 50
120.0000001455266982
 51
179.9999996024023972
  0
ARC
  5
16237
  8
0
 10
3852.3005623714248031
 20
271.3175664630031179
 30
0.0
 40
0.0386000745762263
 50
359.3378936476120771
 51
60.6621065432672566
  0
ARC
  5
16238
  8
0
 10
3851.841128372610001
 20
271.5819287057453266
 30
0.0
 40
0.0393700786999888
 50
59.9999999998820783
 51
120.0000000000023022
  0
LINE
  5
16239
  8
0
 10
3851.3627819160328727
 20
271.3512159013159817
 30
0.0
 11
3851.8214433332109365
 21
271.6160241940452806
 31
0.0
  0
LINE
  5
1623A
  8
0
 10
3851.8608134120108843
 20
271.6160241940452806
 30
0.0
 11
3852.3198622461782179
 21
271.3509952020133937
 31
0.0
  0
ARC
  5
1623B
  8
0
 10
3851.3824669555838227
 20
270.787503827718524
 30
0.0
 40
0.0393700790732055
 50
180.0000003975960112
 51
239.9999998544732023
  0
ARC
  5
1623C
  8
0
 10
3852.3005623714248031
 20
270.7870577773874743
 30
0.0
 40
0.0386000745762263
 50
299.3378934567326723
 51
0.6621063523878697
  0
ARC
  5
1623D
  8
0
 10
3851.841128372610001
 20
270.5226955346453224
 30
0.0
 40
0.0393700786999888
 50
239.9999999999976978
 51
300.0000000001178933
  0
LINE
  5
1623E
  8
0
 10
3851.3627819160328727
 20
270.7534083390746105
 30
0.0
 11
3851.8214433332109365
 21
270.4886000463453115
 31
0.0
  0
LINE
  5
1623F
  8
0
 10
3851.8608134120108843
 20
270.4886000463453115
 30
0.0
 11
3852.3198622461782179
 21
270.7536290383770847
 31
0.0
  0
LINE
  5
16240
  8
0
 10
3851.3430968765110265
 20
271.317120412672125
 30
0.0
 11
3851.3430968765110265
 21
270.787503827718524
 31
0.0
  0
LINE
  5
16241
  8
0
 10
3852.3391598687107944
 20
271.3171204129453145
 30
0.0
 11
3852.3391598686112047
 21
270.7875038274452777
 31
0.0
  0
LINE
  5
16242
  8
0
 10
3851.4670856934108087
 20
271.2283232446453098
 30
0.0
 11
3851.4523043180111017
 21
271.2842685051452918
 31
0.0
  0
LINE
  5
16243
  8
0
 10
3851.4523043180111017
 20
271.2842685051452918
 30
0.0
 11
3851.4656860327108916
 21
271.3053668219453129
 31
0.0
  0
LINE
  5
16244
  8
0
 10
3851.4656860327108916
 20
271.3053668219453129
 30
0.0
 11
3851.5226091187109887
 21
271.3158141631453191
 31
0.0
  0
LINE
  5
16245
  8
0
 10
3851.5226091187109887
 20
271.3158141631453191
 30
0.0
 11
3851.5226091187109887
 21
271.3736777790452948
 31
0.0
  0
LINE
  5
16246
  8
0
 10
3851.5226091187109887
 20
271.3736777790452948
 30
0.0
 11
3851.5404133584102055
 21
271.3907853584453278
 31
0.0
  0
LINE
  5
16247
  8
0
 10
3851.5404133584102055
 20
271.3907853584453278
 30
0.0
 11
3851.5981462801109956
 21
271.3867482792452961
 31
0.0
  0
LINE
  5
16248
  8
0
 10
3851.5981462801109956
 20
271.3867482792452961
 30
0.0
 11
3851.612145096902168
 21
271.4428944666622101
 31
0.0
  0
LINE
  5
16249
  8
0
 10
3851.612145096902168
 20
271.4428944666622101
 30
0.0
 11
3851.6340357151098033
 21
271.4549363921453278
 31
0.0
  0
LINE
  5
1624A
  8
0
 10
3851.6340357151098033
 20
271.4549363921453278
 30
0.0
 11
3851.688950900009786
 21
271.4366685415453162
 31
0.0
  0
LINE
  5
1624B
  8
0
 10
3851.688950900009786
 20
271.4366685415453162
 30
0.0
 11
3851.7164729072901537
 21
271.4875694290221873
 31
0.0
  0
LINE
  5
1624C
  8
0
 10
3851.7164729072901537
 20
271.4875694290221873
 30
0.0
 11
3851.7406704688100945
 21
271.4937890777453049
 31
0.0
  0
LINE
  5
1624D
  8
0
 10
3851.7406704688100945
 20
271.4937890777453049
 30
0.0
 11
3851.7893173902098169
 21
271.4624382762452797
 31
0.0
  0
LINE
  5
1624E
  8
0
 10
3851.7893173902098169
 20
271.4624382762452797
 30
0.0
 11
3851.8286378305110702
 21
271.5049004891453137
 31
0.0
  0
LINE
  5
1624F
  8
0
 10
3851.8286378305110702
 20
271.5049004891453137
 30
0.0
 11
3851.8536234663129108
 21
271.5048955738844825
 31
0.0
  0
LINE
  5
16250
  8
0
 10
3851.8536234663129108
 20
271.5048955738844825
 30
0.0
 11
3851.8929393550110944
 21
271.4624382762452797
 31
0.0
  0
LINE
  5
16251
  8
0
 10
3851.8929393550110944
 20
271.4624382762452797
 30
0.0
 11
3851.9415787633661239
 21
271.4937842358697822
 31
0.0
  0
LINE
  5
16252
  8
0
 10
3851.9415787633661239
 20
271.4937842358697822
 30
0.0
 11
3851.965783837968047
 21
271.4875694290116144
 31
0.0
  0
LINE
  5
16253
  8
0
 10
3851.965783837968047
 20
271.4875694290116144
 30
0.0
 11
3851.9933058452111254
 21
271.4366685415453162
 31
0.0
  0
LINE
  5
16254
  8
0
 10
3851.9933058452111254
 20
271.4366685415453162
 30
0.0
 11
3852.0482190747111417
 21
271.4549357416452722
 31
0.0
  0
LINE
  5
16255
  8
0
 10
3852.0482190747111417
 20
271.4549357416452722
 30
0.0
 11
3852.0701116483060105
 21
271.4428944666706229
 31
0.0
  0
LINE
  5
16256
  8
0
 10
3852.0701116483060105
 20
271.4428944666706229
 30
0.0
 11
3852.0841104651099158
 21
271.3867482792452961
 31
0.0
  0
LINE
  5
16257
  8
0
 10
3852.0841104651099158
 20
271.3867482792452961
 30
0.0
 11
3852.1418345348110961
 21
271.3907847394452801
 31
0.0
  0
LINE
  5
16258
  8
0
 10
3852.1418345348110961
 20
271.3907847394452801
 30
0.0
 11
3852.1600516591111045
 21
271.3736866367452762
 31
0.0
  0
LINE
  5
16259
  8
0
 10
3852.1600516591111045
 20
271.3736866367452762
 30
0.0
 11
3852.1596476265099227
 21
271.3158141631453191
 31
0.0
  0
LINE
  5
1625A
  8
0
 10
3852.1596476265099227
 20
271.3158141631453191
 30
0.0
 11
3852.2165686857110813
 21
271.3053671939453011
 31
0.0
  0
LINE
  5
1625B
  8
0
 10
3852.2165686857110813
 20
271.3053671939453011
 30
0.0
 11
3852.2299524272111739
 21
271.2842685051452918
 31
0.0
  0
LINE
  5
1625C
  8
0
 10
3852.2299524272111739
 20
271.2842685051452918
 30
0.0
 11
3852.2151710518110121
 21
271.2283232446453098
 31
0.0
  0
LINE
  5
1625D
  8
0
 10
3852.2151710518110121
 20
271.2283232446453098
 30
0.0
 11
3852.2677057469109059
 21
271.2040488076452789
 31
0.0
  0
LINE
  5
1625E
  8
0
 10
3852.2677057469109059
 20
271.2040488076452789
 30
0.0
 11
3852.2754263640099452
 21
271.1802923460452917
 31
0.0
  0
LINE
  5
1625F
  8
0
 10
3852.2754263640099452
 20
271.1802923460452917
 30
0.0
 11
3852.2471919999111378
 21
271.1297728998453067
 31
0.0
  0
LINE
  5
16260
  8
0
 10
3852.2471919999111378
 20
271.1297728998453067
 30
0.0
 11
3852.2920341828698838
 21
271.0932005077362987
 31
0.0
  0
LINE
  5
16261
  8
0
 10
3852.2920341828698838
 20
271.0932005077362987
 30
0.0
 11
3852.293609505411041
 21
271.0682661181452886
 31
0.0
  0
LINE
  5
16262
  8
0
 10
3852.293609505411041
 20
271.0682661181452886
 30
0.0
 11
3852.253698476910813
 21
271.0263554093452854
 31
0.0
  0
LINE
  5
16263
  8
0
 10
3852.253698476910813
 20
271.0263554093452854
 30
0.0
 11
3852.2880407571110482
 21
270.9797746735453075
 31
0.0
  0
LINE
  5
16264
  8
0
 10
3852.2880407571110482
 20
270.9797746735453075
 30
0.0
 11
3852.2833614401110935
 21
270.9552373267453049
 31
0.0
  0
LINE
  5
16265
  8
0
 10
3852.2833614401110935
 20
270.9552373267453049
 30
0.0
 11
3852.2342816569098432
 21
270.9245688744452991
 31
0.0
  0
LINE
  5
16266
  8
0
 10
3852.2342816569098432
 20
270.9245688744452991
 30
0.0
 11
3852.2559582771691566
 21
270.8709173565785022
 31
0.0
  0
LINE
  5
16267
  8
0
 10
3852.2559582771691566
 20
270.8709173565785022
 30
0.0
 11
3852.2453263864108521
 21
270.8483082280453118
 31
0.0
  0
LINE
  5
16268
  8
0
 10
3852.2453263864108521
 20
270.8483082280453118
 30
0.0
 11
3852.1901615701099217
 21
270.8308089175453119
 31
0.0
  0
LINE
  5
16269
  8
0
 10
3852.1901615701099217
 20
270.8308089175453119
 30
0.0
 11
3852.1978154906109921
 21
270.7734454517453173
 31
0.0
  0
LINE
  5
1626A
  8
0
 10
3852.1978154906109921
 20
270.7734454517453173
 30
0.0
 11
3852.1818940888110774
 21
270.7541974287452717
 31
0.0
  0
LINE
  5
1626B
  8
0
 10
3852.1818940888110774
 20
270.7541974287452717
 30
0.0
 11
3852.1241104439109222
 21
270.7509668214452745
 31
0.0
  0
LINE
  5
1626C
  8
0
 10
3852.1241104439109222
 20
270.7509668214452745
 30
0.0
 11
3852.1172589952861927
 21
270.6935088465002082
 31
0.0
  0
LINE
  5
1626D
  8
0
 10
3852.1172589952861927
 20
270.6935088465002082
 30
0.0
 11
3852.0970415090100687
 21
270.6788199829452992
 31
0.0
  0
LINE
  5
1626E
  8
0
 10
3852.0970415090100687
 20
270.6788199829452992
 30
0.0
 11
3852.0402785135111117
 21
270.6900593587453159
 31
0.0
  0
LINE
  5
1626F
  8
0
 10
3852.0402785135111117
 20
270.6900593587453159
 30
0.0
 11
3852.0193530983187884
 21
270.6361104177087213
 31
0.0
  0
LINE
  5
16270
  8
0
 10
3852.0193530983187884
 20
270.6361104177087213
 30
0.0
 11
3851.9961258552098116
 21
270.6269070615452961
 31
0.0
  0
LINE
  5
16271
  8
0
 10
3851.9961258552098116
 20
270.6269070615452961
 30
0.0
 11
3851.9439332472111346
 21
270.6519135693453109
 31
0.0
  0
LINE
  5
16272
  8
0
 10
3851.9439332472111346
 20
270.6519135693453109
 30
0.0
 11
3851.9102486864121602
 21
270.6048634726055866
 31
0.0
  0
LINE
  5
16273
  8
0
 10
3851.9102486864121602
 20
270.6048634726055866
 30
0.0
 11
3851.8854624144100853
 21
270.6017256153452877
 31
0.0
  0
LINE
  5
16274
  8
0
 10
3851.8854624144100853
 20
270.6017256153452877
 30
0.0
 11
3851.841128372610001
 21
270.6389262934453086
 31
0.0
  0
LINE
  5
16275
  8
0
 10
3851.841128372610001
 20
270.6389262934453086
 30
0.0
 11
3851.7968011909820234
 21
270.6017313716284889
 31
0.0
  0
LINE
  5
16276
  8
0
 10
3851.7968011909820234
 20
270.6017313716284889
 30
0.0
 11
3851.7720131682099236
 21
270.6048563358452839
 31
0.0
  0
LINE
  5
16277
  8
0
 10
3851.7720131682099236
 20
270.6048563358452839
 30
0.0
 11
3851.7383234980111411
 21
270.6519135693453109
 31
0.0
  0
LINE
  5
16278
  8
0
 10
3851.7383234980111411
 20
270.6519135693453109
 30
0.0
 11
3851.686138935397139
 21
270.6269109162008135
 31
0.0
  0
LINE
  5
16279
  8
0
 10
3851.686138935397139
 20
270.6269109162008135
 30
0.0
 11
3851.6629068330112204
 21
270.6361022034453185
 31
0.0
  0
LINE
  5
1627A
  8
0
 10
3851.6629068330112204
 20
270.6361022034453185
 30
0.0
 11
3851.641978231711164
 21
270.6900593587453159
 31
0.0
  0
LINE
  5
1627B
  8
0
 10
3851.641978231711164
 20
270.6900593587453159
 30
0.0
 11
3851.5852152361330809
 21
270.6788199829289852
 31
0.0
  0
LINE
  5
1627C
  8
0
 10
3851.5852152361330809
 20
270.6788199829289852
 30
0.0
 11
3851.5649987969109134
 21
270.6935000665453117
 31
0.0
  0
LINE
  5
1627D
  8
0
 10
3851.5649987969109134
 20
270.6935000665453117
 30
0.0
 11
3851.5581463012099448
 21
270.7509668214452745
 31
0.0
  0
LINE
  5
1627E
  8
0
 10
3851.5581463012099448
 20
270.7509668214452745
 30
0.0
 11
3851.500371500510937
 21
270.7541969342452717
 31
0.0
  0
LINE
  5
1627F
  8
0
 10
3851.500371500510937
 20
270.7541969342452717
 30
0.0
 11
3851.484440982011165
 21
270.7734434092453171
 31
0.0
  0
LINE
  5
16280
  8
0
 10
3851.484440982011165
 20
270.7734434092453171
 30
0.0
 11
3851.4920951750109452
 21
270.8308089175453119
 31
0.0
  0
LINE
  5
16281
  8
0
 10
3851.4920951750109452
 20
270.8308089175453119
 30
0.0
 11
3851.4369387722817919
 21
270.8483055590962181
 31
0.0
  0
LINE
  5
16282
  8
0
 10
3851.4369387722817919
 20
270.8483055590962181
 30
0.0
 11
3851.4262951323112247
 21
270.8709091002452851
 31
0.0
  0
LINE
  5
16283
  8
0
 10
3851.4262951323112247
 20
270.8709091002452851
 30
0.0
 11
3851.4479750883110682
 21
270.9245688744452991
 31
0.0
  0
LINE
  5
16284
  8
0
 10
3851.4479750883110682
 20
270.9245688744452991
 30
0.0
 11
3851.398902763156002
 21
270.9552326665627788
 31
0.0
  0
LINE
  5
16285
  8
0
 10
3851.398902763156002
 20
270.9552326665627788
 30
0.0
 11
3851.394220069027142
 21
270.9797802088675098
 31
0.0
  0
LINE
  5
16286
  8
0
 10
3851.394220069027142
 20
270.9797802088675098
 30
0.0
 11
3851.4285582683110079
 21
271.0263554093452854
 31
0.0
  0
LINE
  5
16287
  8
0
 10
3851.4285582683110079
 20
271.0263554093452854
 30
0.0
 11
3851.3886486611099826
 21
271.0682646255452823
 31
0.0
  0
LINE
  5
16288
  8
0
 10
3851.3886486611099826
 20
271.0682646255452823
 30
0.0
 11
3851.3902157602101397
 21
271.093194960145297
 31
0.0
  0
LINE
  5
16289
  8
0
 10
3851.3902157602101397
 20
271.093194960145297
 30
0.0
 11
3851.4350647453111378
 21
271.1297728998453067
 31
0.0
  0
LINE
  5
1628A
  8
0
 10
3851.4350647453111378
 20
271.1297728998453067
 30
0.0
 11
3851.4068347334841746
 21
271.1802845585040131
 31
0.0
  0
LINE
  5
1628B
  8
0
 10
3851.4068347334841746
 20
271.1802845585040131
 30
0.0
 11
3851.4145491277099609
 21
271.2040479432453139
 31
0.0
  0
LINE
  5
1628C
  8
0
 10
3851.4145491277099609
 20
271.2040479432453139
 30
0.0
 11
3851.4670856934108087
 21
271.2283232446453098
 31
0.0
  0
CIRCLE
  5
1628D
  8
0
 10
3851.841128372610001
 20
271.0523121201453023
 30
0.0
 40
0.3937007874
  0
ARC
  5
1628E
  8
0
 10
3851.841128372610001
 20
271.0523121201453023
 30
0.0
 40
0.4446218740000001
 50
179.0164391714729959
 51
188.1835608178226096
  0
ARC
  5
1628F
  8
0
 10
3851.841128372610001
 20
271.0523121201453023
 30
0.0
 40
0.4446218740000001
 50
193.4164391609658935
 51
202.5835608313346086
  0
ARC
  5
16290
  8
0
 10
3851.841128372610001
 20
271.0523121201453023
 30
0.0
 40
0.4446218740000001
 50
207.816439169033913
 51
216.9835608160709057
  0
ARC
  5
16291
  8
0
 10
3851.841128372610001
 20
271.0523121201453023
 30
0.0
 40
0.4446218740000001
 50
222.2164391624621089
 51
231.3835608244392006
  0
ARC
  5
16292
  8
0
 10
3851.841128372610001
 20
271.0523121201453023
 30
0.0
 40
0.4446218740000001
 50
236.6164391711392057
 51
245.7835608272669106
  0
ARC
  5
16293
  8
0
 10
3851.841128372610001
 20
271.0523121201453023
 30
0.0
 40
0.4446218740000001
 50
251.0164391706690026
 51
260.1835608267326734
  0
ARC
  5
16294
  8
0
 10
3851.841128372610001
 20
271.0523121201453023
 30
0.0
 40
0.4446218740000001
 50
265.4164391599583155
 51
274.5835608385257274
  0
ARC
  5
16295
  8
0
 10
3851.841128372610001
 20
271.0523121201453023
 30
0.0
 40
0.4446218740000001
 50
279.8164391650443008
 51
288.9835608351721135
  0
ARC
  5
16296
  8
0
 10
3851.841128372610001
 20
271.0523121201453023
 30
0.0
 40
0.4446218740000001
 50
294.2164391664770733
 51
303.383560838632377
  0
ARC
  5
16297
  8
0
 10
3851.841128372610001
 20
271.0523121201453023
 30
0.0
 40
0.4446218740000001
 50
308.6164391762234231
 51
317.7835608330307196
  0
ARC
  5
16298
  8
0
 10
3851.841128372610001
 20
271.0523121201453023
 30
0.0
 40
0.4446218740000001
 50
323.016439169769626
 51
332.1835608347467996
  0
ARC
  5
16299
  8
0
 10
3851.841128372610001
 20
271.0523121201453023
 30
0.0
 40
0.4446218740000001
 50
337.4164391731072214
 51
346.5835608238543273
  0
ARC
  5
1629A
  8
0
 10
3851.841128372610001
 20
271.0523121201453023
 30
0.0
 40
0.4446218740000001
 50
351.8164391733404841
 51
0.9835608374521523
  0
ARC
  5
1629B
  8
0
 10
3851.841128372610001
 20
271.0523121201453023
 30
0.0
 40
0.4446218740000001
 50
6.2164391730592934
 51
15.3835608315835692
  0
ARC
  5
1629C
  8
0
 10
3851.841128372610001
 20
271.0523121201453023
 30
0.0
 40
0.4446218740000001
 50
20.6164391892366794
 51
29.7835608309920516
  0
ARC
  5
1629D
  8
0
 10
3851.841128372610001
 20
271.0523121201453023
 30
0.0
 40
0.4446218740000001
 50
35.016439186424833
 51
44.18356083356651
  0
ARC
  5
1629E
  8
0
 10
3851.841128372610001
 20
271.0523121201453023
 30
0.0
 40
0.4446218740000001
 50
49.4164391739055731
 51
58.5835608273014472
  0
ARC
  5
1629F
  8
0
 10
3851.841128372610001
 20
271.0523121201453023
 30
0.0
 40
0.4446218740000001
 50
63.8164391792957488
 51
72.9835608219613192
  0
ARC
  5
162A0
  8
0
 10
3851.841128372610001
 20
271.0523121201453023
 30
0.0
 40
0.4446218740000001
 50
78.2164391788099351
 51
87.3835608180452112
  0
ARC
  5
162A1
  8
0
 10
3851.841128372610001
 20
271.0523121201453023
 30
0.0
 40
0.4446218740000001
 50
92.6164391797899782
 51
101.7835608200986997
  0
ARC
  5
162A2
  8
0
 10
3851.841128372610001
 20
271.0523121201453023
 30
0.0
 40
0.4446218740000001
 50
107.016439173978597
 51
116.1835608171955982
  0
ARC
  5
162A3
  8
0
 10
3851.841128372610001
 20
271.0523121201453023
 30
0.0
 40
0.4446218740000001
 50
121.4164391753838999
 51
130.5835608185450099
  0
ARC
  5
162A4
  8
0
 10
3851.841128372610001
 20
271.0523121201453023
 30
0.0
 40
0.4446218740000001
 50
135.7566009251547996
 51
144.9835608154108115
  0
ARC
  5
162A5
  8
0
 10
3851.841128372610001
 20
271.0523121201453023
 30
0.0
 40
0.4446218740000001
 50
150.2164391717369085
 51
159.3835608189710911
  0
ARC
  5
162A6
  8
0
 10
3851.841128372610001
 20
271.0523121201453023
 30
0.0
 40
0.4446218740000001
 50
164.6164391734104129
 51
173.7835608155540967
  0
ARC
  5
162A7
  8
0
 10
3851.841128372610001
 20
271.0523121201453023
 30
0.0
 40
0.5020575304000037
 50
127.2608969336997973
 51
172.7391030663013112
  0
ARC
  5
162A8
  8
0
 10
3851.841128372610001
 20
271.0523121201453023
 30
0.0
 40
0.5020575303999945
 50
67.260896933693914
 51
112.7391030663061002
  0
ARC
  5
162A9
  8
0
 10
3851.841128372610001
 20
271.0523121201453023
 30
0.0
 40
0.5020575304000192
 50
7.2608969360643663
 51
52.7391030663001885
  0
ARC
  5
162AA
  8
0
 10
3851.841128372610001
 20
271.0523121201453023
 30
0.0
 40
0.5020575304000495
 50
307.2608969423741883
 51
352.7391030662981279
  0
ARC
  5
162AB
  8
0
 10
3851.8411283727841692
 20
271.0523121202975858
 30
0.0
 40
0.5020575306259241
 50
187.2608969479360894
 51
232.7391030039725877
  0
ARC
  5
162AC
  8
0
 10
3851.841128372610001
 20
271.0523121201453023
 30
0.0
 40
0.5020575304000016
 50
247.2608969805341985
 51
292.7391030491864967
  0
ARC
  5
162AD
  8
0
 10
3853.8371913647151814
 20
272.7125806396467738
 30
0.0
 40
0.0078740157044104
 50
180.0000000106500124
 51
253.398451482785589
  0
ARC
  5
162AE
  8
0
 10
3853.8293051889299932
 20
272.6861521738650822
 30
0.0
 40
0.0197059695884993
 50
2.253523875197299
 51
73.3796911628443951
  0
LINE
  5
162AF
  8
0
 10
3853.848995918311175
 20
272.6869270376453187
 30
0.0
 11
3853.8481616781109551
 21
272.6960390707453143
 31
0.0
  0
LINE
  5
162B0
  8
0
 10
3853.8481616781109551
 20
272.6960390707453143
 30
0.0
 11
3853.8517971994260733
 21
272.7017754742427087
 31
0.0
  0
LINE
  5
162B1
  8
0
 10
3853.8517971994260733
 20
272.7017754742427087
 30
0.0
 11
3853.8580954637891409
 21
272.7036193428145907
 31
0.0
  0
LINE
  5
162B2
  8
0
 10
3853.8580954637891409
 20
272.7036193428145907
 30
0.0
 11
3853.8717059250111561
 21
272.7050350902453033
 31
0.0
  0
LINE
  5
162B3
  8
0
 10
3853.8489939639111981
 20
272.6533309680452817
 30
0.0
 11
3853.8450645036109563
 21
272.6530858271452757
 31
0.0
  0
LINE
  5
162B4
  8
0
 10
3853.8450645036109563
 20
272.6530858271452757
 30
0.0
 11
3853.8608134119590432
 21
272.6521018902449782
 31
0.0
  0
LINE
  5
162B5
  8
0
 10
3853.8608134120108843
 20
272.652101890241795
 30
0.0
 11
3853.8608134120108843
 21
272.6501368908795939
 31
0.0
  0
LINE
  5
162B6
  8
0
 10
3853.8608030356599556
 20
272.6521018354550279
 30
0.0
 11
3853.7801016230441746
 21
272.6508523753751092
 31
0.0
  0
ARC
  5
162B7
  8
0
 10
3853.9474219088278915
 20
282.2379109057441156
 30
0.0
 40
9.5885185165777802
 50
269.0001340887529864
 51
270.9999337687057732
  0
LINE
  5
162B8
  8
0
 10
3854.034041758409785
 20
272.6497836462415876
 30
0.0
 11
3854.034041758409785
 21
272.652101915945309
 31
0.0
  0
LINE
  5
162B9
  8
0
 10
3854.034041758409785
 20
272.652101915945309
 30
0.0
 11
3854.1147535473769494
 21
272.6508523753852273
 31
0.0
  0
LINE
  5
162BA
  8
0
 10
3854.0458599013109051
 20
272.6533310079453258
 30
0.0
 11
3854.0497906669111217
 21
272.6530858271452757
 31
0.0
  0
LINE
  5
162BB
  8
0
 10
3854.0497906669111217
 20
272.6530858271452757
 30
0.0
 11
3854.034041758409785
 21
272.6521018902453193
 31
0.0
  0
LINE
  5
162BC
  8
0
 10
3853.848995918311175
 20
272.6869270376453187
 30
0.0
 11
3853.8490023883109643
 21
272.6528412719453058
 31
0.0
  0
LINE
  5
162BD
  8
0
 10
3853.8293173490101253
 20
272.7125806396467738
 30
0.0
 11
3853.8293135092108059
 21
272.7452266367453149
 31
0.0
  0
LINE
  5
162BE
  8
0
 10
3853.8293135092108059
 20
272.7452266367453149
 30
0.0
 11
3853.8686866738112258
 21
272.7845981443452956
 31
0.0
  0
ARC
  5
162BF
  8
0
 10
3854.0577153981312222
 20
272.712755360871995
 30
0.0
 40
0.0078740157044104
 50
286.6923394078270917
 51
0.0907908799775586
  0
ARC
  5
162C0
  8
0
 10
3854.0656434425441148
 20
272.6863394246993266
 30
0.0
 40
0.0197059695884993
 50
106.7110997277971052
 51
177.8372670154321895
  0
LINE
  5
162C1
  8
0
 10
3854.0459515100360477
 20
272.6870830855904728
 30
0.0
 11
3854.0467713102680136
 21
272.6961964291870117
 31
0.0
  0
LINE
  5
162C2
  8
0
 10
3854.0467713102680136
 20
272.6961964291870117
 30
0.0
 11
3854.0431267036151439
 21
272.7019270646380278
 31
0.0
  0
LINE
  5
162C3
  8
0
 10
3854.0431267036151439
 20
272.7019270646380278
 30
0.0
 11
3854.0368255253670213
 21
272.7037609506695048
 31
0.0
  0
LINE
  5
162C4
  8
0
 10
3854.0368255253670213
 20
272.7037609506695048
 30
0.0
 11
3854.0232128378411289
 21
272.7051551291954183
 31
0.0
  0
LINE
  5
162C5
  8
0
 10
3854.0459515100360477
 20
272.6870830855904728
 30
0.0
 11
3854.0459990523258966
 21
272.6529973524321235
 31
0.0
  0
LINE
  5
162C6
  8
0
 10
3854.0655894039500708
 20
272.712767838031823
 30
0.0
 11
3854.065541512920845
 21
272.7454138002286186
 31
0.0
  0
LINE
  5
162C7
  8
0
 10
3854.065541512920845
 20
272.7454138002286186
 30
0.0
 11
3854.0261060096891015
 21
272.7847228677089788
 31
0.0
  0
LINE
  5
162C8
  8
0
 10
3853.8293173490101253
 20
272.7452266367453149
 30
0.0
 11
3854.0655417876719184
 21
272.7452265102892852
 31
0.0
  0
LINE
  5
162C9
  8
0
 10
3853.8349416459100212
 20
272.7050348534452837
 30
0.0
 11
3854.059413981778107
 21
272.7050348534452837
 31
0.0
  0
ARC
  5
162CA
  8
0
 10
3857.9710476492841735
 20
272.7125807028746749
 30
0.0
 40
0.0078740157044104
 50
180.0000000106500124
 51
253.398451482785589
  0
ARC
  5
162CB
  8
0
 10
3857.9631614734989853
 20
272.6861522370929833
 30
0.0
 40
0.0197059695884993
 50
2.253523875197299
 51
73.3796911628443951
  0
LINE
  5
162CC
  8
0
 10
3857.9828522028801672
 20
272.6869271008732767
 30
0.0
 11
3857.9820179626799472
 21
272.6960391339732723
 31
0.0
  0
LINE
  5
162CD
  8
0
 10
3857.9820179626799472
 20
272.6960391339732723
 30
0.0
 11
3857.9856534839950655
 21
272.7017755374707235
 31
0.0
  0
LINE
  5
162CE
  8
0
 10
3857.9856534839950655
 20
272.7017755374707235
 30
0.0
 11
3857.991951748358133
 21
272.7036194060424918
 31
0.0
  0
LINE
  5
162CF
  8
0
 10
3857.991951748358133
 20
272.7036194060424918
 30
0.0
 11
3858.0055622095801482
 21
272.7050351534733181
 31
0.0
  0
LINE
  5
162D0
  8
0
 10
3857.9828502484801902
 20
272.6533310312732965
 30
0.0
 11
3857.9789207881799484
 21
272.6530858903732906
 31
0.0
  0
LINE
  5
162D1
  8
0
 10
3857.9789207881799484
 20
272.6530858903732906
 30
0.0
 11
3857.9946696965289448
 21
272.652101953472993
 31
0.0
  0
LINE
  5
162D2
  8
0
 10
3857.9946696965798765
 20
272.6521019534698098
 30
0.0
 11
3857.9946696965798765
 21
272.6501369541074951
 31
0.0
  0
LINE
  5
162D3
  8
0
 10
3857.9946593202298573
 20
272.6521018986828722
 30
0.0
 11
3857.9139579076140762
 21
272.6508524386030103
 31
0.0
  0
ARC
  5
162D4
  8
0
 10
3858.0812781933968836
 20
282.2379109689720735
 30
0.0
 40
9.5885185165777802
 50
269.0001340887529864
 51
270.9999337687057732
  0
LINE
  5
162D5
  8
0
 10
3858.1678980429801413
 20
272.6497837094696024
 30
0.0
 11
3858.1678980429801413
 21
272.6521019791733238
 31
0.0
  0
LINE
  5
162D6
  8
0
 10
3858.1678980429801413
 20
272.6521019791733238
 30
0.0
 11
3858.2486098319459416
 21
272.6508524386131853
 31
0.0
  0
LINE
  5
162D7
  8
0
 10
3858.1797161858798972
 20
272.6533310711732838
 30
0.0
 11
3858.1836469514801138
 21
272.6530858903732906
 31
0.0
  0
LINE
  5
162D8
  8
0
 10
3858.1836469514801138
 20
272.6530858903732906
 30
0.0
 11
3858.1678980429801413
 21
272.6521019534732773
 31
0.0
  0
LINE
  5
162D9
  8
0
 10
3857.9828522028801672
 20
272.6869271008732767
 30
0.0
 11
3857.9828586728799564
 21
272.6528413351733207
 31
0.0
  0
LINE
  5
162DA
  8
0
 10
3857.9631736335800269
 20
272.7125807028746749
 30
0.0
 11
3857.9631697937797981
 21
272.7452266999732728
 31
0.0
  0
LINE
  5
162DB
  8
0
 10
3857.9631697937797981
 20
272.7452266999732728
 30
0.0
 11
3858.0025429583802179
 21
272.7845982075733104
 31
0.0
  0
ARC
  5
162DC
  8
0
 10
3858.1915716827011238
 20
272.7127554240998961
 30
0.0
 40
0.0078740157044104
 50
286.6923394078270917
 51
0.0907908799775586
  0
ARC
  5
162DD
  8
0
 10
3858.1994997271140164
 20
272.6863394879272846
 30
0.0
 40
0.0197059695884993
 50
106.7110997277971052
 51
177.8372670154321895
  0
LINE
  5
162DE
  8
0
 10
3858.1798077946059493
 20
272.6870831488184876
 30
0.0
 11
3858.1806275948370057
 21
272.6961964924150266
 31
0.0
  0
LINE
  5
162DF
  8
0
 10
3858.1806275948370057
 20
272.6961964924150266
 30
0.0
 11
3858.1769829881850455
 21
272.7019271278658721
 31
0.0
  0
LINE
  5
162E0
  8
0
 10
3858.1769829881850455
 20
272.7019271278658721
 30
0.0
 11
3858.1706818099360135
 21
272.7037610138975197
 31
0.0
  0
LINE
  5
162E1
  8
0
 10
3858.1706818099360135
 20
272.7037610138975197
 30
0.0
 11
3858.1570691224092116
 21
272.7051551924233195
 31
0.0
  0
LINE
  5
162E2
  8
0
 10
3858.1798077946059493
 20
272.6870831488184876
 30
0.0
 11
3858.1798553368948888
 21
272.6529974156600815
 31
0.0
  0
LINE
  5
162E3
  8
0
 10
3858.1994456885199725
 20
272.712767901259781
 30
0.0
 11
3858.1993977974898371
 21
272.7454138634565197
 31
0.0
  0
LINE
  5
162E4
  8
0
 10
3858.1993977974898371
 20
272.7454138634565197
 30
0.0
 11
3858.1599622942590031
 21
272.7847229309369936
 31
0.0
  0
LINE
  5
162E5
  8
0
 10
3857.9631736335800269
 20
272.7452266999732728
 30
0.0
 11
3858.1993980722409106
 21
272.7452265735173
 31
0.0
  0
LINE
  5
162E6
  8
0
 10
3857.9687979304799228
 20
272.7050349166732985
 30
0.0
 11
3858.1932702663480086
 21
272.7050349166732985
 31
0.0
  0
LINE
  5
162E7
  8
0
 10
3847.2348291600110315
 20
272.2063198303453078
 30
0.0
 11
3847.3923094750111886
 21
272.297194009945315
 31
0.0
  0
LINE
  5
162E8
  8
0
 10
3847.3923094750111886
 20
272.297194009945315
 30
0.0
 11
3847.5497897899108466
 21
272.2063198303453078
 31
0.0
  0
LINE
  5
162E9
  8
0
 10
3847.5497897899108466
 20
272.2063198303453078
 30
0.0
 11
3847.5497897899108466
 21
272.0242886619453202
 31
0.0
  0
LINE
  5
162EA
  8
0
 10
3847.5497897899108466
 20
272.0242886619453202
 30
0.0
 11
3847.3923094750111886
 21
271.933414482345313
 31
0.0
  0
LINE
  5
162EB
  8
0
 10
3847.3923094750111886
 20
271.933414482345313
 30
0.0
 11
3847.2348291600110315
 21
272.0242886619453202
 31
0.0
  0
LINE
  5
162EC
  8
0
 10
3847.2348291600110315
 20
272.0242886619453202
 30
0.0
 11
3847.2348291600110315
 21
272.2063198303453078
 31
0.0
  0
LINE
  5
162ED
  8
0
 10
3864.4789236482101842
 20
272.2063198303453078
 30
0.0
 11
3864.6364039631098422
 21
272.297194009945315
 31
0.0
  0
LINE
  5
162EE
  8
0
 10
3864.6364039631098422
 20
272.297194009945315
 30
0.0
 11
3864.7938842781109088
 21
272.2063198303453078
 31
0.0
  0
LINE
  5
162EF
  8
0
 10
3864.7938842781109088
 20
272.2063198303453078
 30
0.0
 11
3864.7938842781109088
 21
272.0242886619453202
 31
0.0
  0
LINE
  5
162F0
  8
0
 10
3864.7938842781109088
 20
272.0242886619453202
 30
0.0
 11
3864.6364039631098422
 21
271.933414482345313
 31
0.0
  0
LINE
  5
162F1
  8
0
 10
3864.6364039631098422
 20
271.933414482345313
 30
0.0
 11
3864.4789236482101842
 21
272.0242886619453202
 31
0.0
  0
LINE
  5
162F2
  8
0
 10
3864.4789236482101842
 20
272.0242886619453202
 30
0.0
 11
3864.4789236482101842
 21
272.2063198303453078
 31
0.0
  0
ARC
  5
162F3
  8
0
 10
3864.90565849208906
 20
272.9815476470852786
 30
0.0
 40
0.0199307485844151
 50
263.1074471507157
 51
359.7077275234801732
  0
ARC
  5
162F4
  8
0
 10
3864.7768667422201361
 20
272.9802778350331778
 30
0.0
 40
0.0185769426411357
 50
274.6079946291181955
 51
3.605215063101689
  0
ARC
  5
162F5
  8
0
 10
3864.7768664397058274
 20
273.1794642535948014
 30
0.0
 40
0.0185772280864829
 50
356.3956499505304123
 51
85.3911393630188655
  0
ARC
  5
162F6
  8
0
 10
3864.9056584921440844
 20
273.1781947035282201
 30
0.0
 40
0.0199307485288419
 50
0.2922724112965265
 51
96.892551972472603
  0
ARC
  5
162F7
  8
0
 10
3864.7997883723110135
 20
273.9995489310574044
 30
0.0
 40
0.7686748413104314
 50
268.6599510998457276
 51
277.4947750819328007
  0
ARC
  5
162F8
  8
0
 10
3864.7452292321559071
 20
271.3313989526091063
 30
0.0
 40
1.91231969370133
 50
85.3562466771939086
 51
93.0621618982382586
  0
ARC
  5
162F9
  8
0
 10
3864.6372563318850553
 20
275.5732645063338282
 30
0.0
 40
2.3446758377234578
 50
273.4581768939568747
 51
274.9852136519825763
  0
ARC
  5
162FA
  8
0
 10
3864.7452438261097996
 20
271.5159359441449851
 30
0.0
 40
1.724177078306131
 50
86.8161132446527262
 51
93.3867282073324247
  0
ARC
  5
162FB
  8
0
 10
3864.4967792219858893
 20
273.3349693054711906
 30
0.0
 40
0.0836051577293863
 50
234.3946945774993083
 51
266.8154443787955188
  0
ARC
  5
162FC
  8
0
 10
3864.7001499604789387
 20
271.7896582010890256
 30
0.0
 40
1.5074087002275489
 50
92.157521437301213
 51
97.5416245787453704
  0
ARC
  5
162FD
  8
0
 10
3864.5191606738858354
 20
273.1103743285443102
 30
0.0
 40
0.1744689937813914
 50
95.54309224636593
 51
113.0807676002172997
  0
ARC
  5
162FE
  8
0
 10
3864.4535287983439957
 20
273.2661317931272151
 30
0.0
 40
0.005492512511905
 50
120.2249995373547051
 51
170.9642622488593133
  0
ARC
  5
162FF
  8
0
 10
3864.7001741665908412
 20
271.2718953630583201
 30
0.0
 40
2.0292328693725121
 50
91.6130774997489965
 51
97.1850957711493209
  0
ARC
  5
16300
  8
0
 10
3864.5717333512429832
 20
274.0850802513754729
 30
0.0
 40
0.845621043290594
 50
260.5315069013764173
 51
263.7794659470803253
  0
ARC
  5
16301
  8
0
 10
3864.4513690343442249
 20
273.3934939986988866
 30
0.0
 40
0.1437416831900667
 50
245.900495934092902
 51
262.5069524201402942
  0
ARC
  5
16302
  8
0
 10
3864.4883227276591242
 20
272.9706881152154097
 30
0.0
 40
0.3172911825474492
 50
97.5984306279169544
 51
105.109755135586596
  0
ARC
  5
16303
  8
0
 10
3864.4183068907350389
 20
273.2284128585305893
 30
0.0
 40
0.0502271908633519
 50
104.6369775295420936
 51
122.1267008058368049
  0
ARC
  5
16304
  8
0
 10
3864.3951953904188485
 20
273.2679578971118985
 30
0.0
 40
0.0062106561140098
 50
188.7844332367014886
 51
246.0683827907888883
  0
ARC
  5
16305
  8
0
 10
3864.3946477822760244
 20
273.2661946878047274
 30
0.0
 40
0.0056492555415577
 50
122.6930008090881046
 51
171.7078985003570892
  0
LINE
  5
16306
  8
0
 10
3864.9710496324610176
 20
273.3554617264452986
 30
0.0
 11
3864.9710496324610176
 21
273.3160916477452815
 31
0.0
  0
LINE
  5
16307
  8
0
 10
3864.9710496324610176
 20
273.3160916477452815
 30
0.0
 11
3864.3017582938609848
 21
273.3160916477452815
 31
0.0
  0
LINE
  5
16308
  8
0
 10
3864.3017582938609848
 20
273.3160916477452815
 30
0.0
 11
3864.3017582938609848
 21
273.3554617264452986
 31
0.0
  0
LINE
  5
16309
  8
0
 10
3864.3890578206987811
 20
273.2670079043397209
 30
0.0
 11
3864.3890578206987811
 21
273.3160916477452815
 31
0.0
  0
LINE
  5
1630A
  8
0
 10
3864.6434006140420934
 20
273.2959983025272095
 30
0.0
 11
3864.6430516784607789
 21
273.3003240799453124
 31
0.0
  0
LINE
  5
1630B
  8
0
 10
3864.6430516784607789
 20
273.3003240799453124
 30
0.0
 11
3864.6430516784607789
 21
273.3160916477452815
 31
0.0
  0
LINE
  5
1630C
  8
0
 10
3864.6434006140420934
 20
273.2959983025272095
 30
0.0
 11
3864.6434006140420934
 21
273.3160916477452815
 31
0.0
  0
LINE
  5
1630D
  8
0
 10
3864.8090440662608671
 20
273.290725783045275
 30
0.0
 11
3864.8090531373600243
 21
273.2939033825452952
 31
0.0
  0
LINE
  5
1630E
  8
0
 10
3864.8090531373600243
 20
273.2939033825452952
 30
0.0
 11
3864.7786413308708688
 21
273.3116027172112013
 31
0.0
  0
LINE
  5
1630F
  8
0
 10
3864.7786413308708688
 20
273.3116027172112013
 30
0.0
 11
3864.7863867598598517
 21
273.3160916477452815
 31
0.0
  0
ARC
  5
16310
  8
0
 10
3864.612302564789843
 20
274.7205143461852117
 30
0.0
 40
1.418696753518025
 50
271.2561414035034204
 51
276.7332775126819229
  0
ARC
  5
16311
  8
0
 10
3864.7469402260448987
 20
271.699598104252118
 30
0.0
 40
1.592339448339736
 50
84.4818593737293781
 51
93.7408815142349567
  0
LINE
  5
16312
  8
0
 10
3864.9000510746609507
 20
273.237441063245285
 30
0.0
 11
3864.9000717118601642
 21
273.2845582379453049
 31
0.0
  0
LINE
  5
16313
  8
0
 10
3864.6433878182610897
 20
273.2371018138452996
 30
0.0
 11
3864.643038955459815
 21
273.2414266097453037
 31
0.0
  0
LINE
  5
16314
  8
0
 10
3864.643038881361008
 20
273.2414276088452993
 30
0.0
 11
3864.6430491198598247
 21
273.2885447681453002
 31
0.0
  0
LINE
  5
16315
  8
0
 10
3864.7863937846609588
 20
273.1979814115452996
 30
0.0
 11
3864.8090531373600243
 21
273.2112262171452812
 31
0.0
  0
LINE
  5
16316
  8
0
 10
3864.8090531373600243
 20
273.2112262171452812
 30
0.0
 11
3864.8090531373600243
 21
273.2151632250452735
 31
0.0
  0
LINE
  5
16317
  8
0
 10
3864.8090531373600243
 20
273.2151632250452735
 30
0.0
 11
3864.7786869461610877
 21
273.2328581455453218
 31
0.0
  0
LINE
  5
16318
  8
0
 10
3864.4679261985597805
 20
273.1979814115452996
 30
0.0
 11
3864.4941492375501184
 21
273.2131728445247063
 31
0.0
  0
LINE
  5
16319
  8
0
 10
3864.4941492375501184
 20
273.2131728445247063
 30
0.0
 11
3864.4637547889610687
 21
273.230911256545312
 31
0.0
  0
LINE
  5
1631A
  8
0
 10
3864.4637547889610687
 20
273.230911256545312
 30
0.0
 11
3864.4637547889610687
 21
273.2348482644453043
 31
0.0
  0
LINE
  5
1631B
  8
0
 10
3864.4637547889610687
 20
273.2348482644453043
 30
0.0
 11
3864.4949136098598501
 21
273.2531230632453116
 31
0.0
  0
LINE
  5
1631C
  8
0
 10
3864.4949136098598501
 20
273.2531230632453116
 30
0.0
 11
3864.4641196390598452
 21
273.2699843736452863
 31
0.0
  0
LINE
  5
1631D
  8
0
 10
3864.4641196390598452
 20
273.2699843736452863
 30
0.0
 11
3864.4637547889610687
 21
273.2742183431453213
 31
0.0
  0
ARC
  5
1631E
  8
0
 10
3864.680320512947219
 20
271.0225767428945005
 30
0.0
 40
2.2620324066612918
 50
90.9441257453263034
 51
95.4938808064929674
  0
ARC
  5
1631F
  8
0
 10
3864.6990146654538876
 20
271.2619227654843144
 30
0.0
 40
2.0016332997574038
 50
91.6023556924931768
 51
95.8524651288360161
  0
ARC
  5
16320
  8
0
 10
3874.0083926083511869
 20
137.7571185890604966
 30
0.0
 40
135.7897767189344052
 50
93.8974305083242058
 51
94.0177767254939596
  0
LINE
  5
16321
  8
0
 10
3864.8090531373600243
 20
273.2131947210953058
 30
0.0
 11
3864.5114964934609816
 21
273.1979814115452996
 31
0.0
  0
LINE
  5
16322
  8
0
 10
3864.4637547889610687
 20
273.2328797604952797
 30
0.0
 11
3864.6430392767001649
 21
273.2432469422735153
 31
0.0
  0
LINE
  5
16323
  8
0
 10
3864.4639237600599699
 20
273.2722498391952968
 30
0.0
 11
3864.6430473417508438
 21
273.280365032177599
 31
0.0
  0
ARC
  5
16324
  8
0
 10
3864.7923262653398524
 20
273.3454523340028004
 30
0.0
 40
0.0541958913988103
 50
270.9693788138400237
 51
287.9771218459212037
  0
LINE
  5
16325
  8
0
 10
3864.9032666467610397
 20
272.9617609390452913
 30
0.0
 11
3864.3685605962391492
 21
272.9617942529055767
 31
0.0
  0
LINE
  5
16326
  8
0
 10
3864.9032666470889126
 20
273.1979814115452996
 30
0.0
 11
3864.3695412795609627
 21
273.1979814115452996
 31
0.0
  0
LINE
  5
16327
  8
0
 10
3864.7954069208599321
 20
272.981445978445322
 30
0.0
 11
3864.7954069212610193
 21
273.1782963721453257
 31
0.0
  0
LINE
  5
16328
  8
0
 10
3864.9255889813598515
 20
273.1782963721453257
 30
0.0
 11
3864.9255889813598515
 21
272.981445978445322
 31
0.0
  0
ARC
  5
16329
  8
0
 10
3864.3671494343329869
 20
272.9815476470852786
 30
0.0
 40
0.0199307485844151
 50
180.2922724765197984
 51
276.8925528492843
  0
ARC
  5
1632A
  8
0
 10
3864.4959411842010013
 20
272.9802778350331778
 30
0.0
 40
0.0185769426411357
 50
176.3947849368967127
 51
265.3920053708818045
  0
ARC
  5
1632B
  8
0
 10
3864.4959414867162195
 20
273.1794642535948014
 30
0.0
 40
0.0185772280864829
 50
94.6088606369811487
 51
183.6043500494679108
  0
ARC
  5
1632C
  8
0
 10
3864.3671494342770529
 20
273.1781947035282201
 30
0.0
 40
0.0199307485288419
 50
83.107448027527397
 51
179.707727588703392
  0
LINE
  5
1632D
  8
0
 10
3864.4774010055612052
 20
272.981445978445322
 30
0.0
 11
3864.4774010051601181
 21
273.1782963721453257
 31
0.0
  0
LINE
  5
1632E
  8
0
 10
3864.3472189450608312
 20
273.1782963721453257
 30
0.0
 11
3864.3472189450608312
 21
272.981445978445322
 31
0.0
  0
LINE
  5
1632F
  8
0
 10
3864.7865009860611281
 20
272.9617609390452913
 30
0.0
 11
3864.7787515885611356
 21
272.9572741321453009
 31
0.0
  0
LINE
  5
16330
  8
0
 10
3864.7787515885611356
 20
272.9572741321453009
 30
0.0
 11
3864.7853696691881851
 21
272.9532463301727034
 31
0.0
  0
LINE
  5
16331
  8
0
 10
3864.7853696691881851
 20
272.9532463301727034
 30
0.0
 11
3864.7545141993600737
 21
272.9223908603452742
 31
0.0
  0
LINE
  5
16332
  8
0
 10
3864.7545141993600737
 20
272.9223908603452742
 30
0.0
 11
3864.5182937269610193
 21
272.9223908603452742
 31
0.0
  0
LINE
  5
16333
  8
0
 10
3864.5182937269610193
 20
272.9223908603452742
 30
0.0
 11
3864.4789236482611159
 21
272.9617609390452913
 31
0.0
  0
LINE
  5
16334
  8
0
 10
3864.7853696696261068
 20
272.9532463299059941
 30
0.0
 11
3864.6098695856048835
 21
272.9463022700344936
 31
0.0
  0
LINE
  5
16335
  8
0
 10
3864.7787518379991525
 20
272.9572742765669773
 30
0.0
 11
3864.6098696117651343
 21
272.9463022728173769
 31
0.0
  0
LINE
  5
16336
  8
0
 10
3864.429711049810976
 20
272.4500467343452783
 30
0.0
 11
3864.429711049810976
 21
272.8830207816453139
 31
0.0
  0
LINE
  5
16337
  8
0
 10
3864.8430968765110265
 20
272.450383862939475
 30
0.0
 11
3864.8430968766110709
 21
272.8830207816453139
 31
0.0
  0
ARC
  5
16338
  8
0
 10
3864.6364039632098866
 20
272.8830207816453139
 30
0.0
 40
0.206692913399996
 50
157.6073122202940908
 51
180.0000000000015916
  0
ARC
  5
16339
  8
0
 10
3864.6364039632098866
 20
272.8830207816453139
 30
0.0
 40
0.2066929134000075
 50
359.9999999867525844
 51
22.3926877797040902
  0
LINE
  5
1633A
  8
0
 10
3863.9867976639111475
 20
273.3554617264452986
 30
0.0
 11
3865.2860102624108549
 21
273.3554617264452986
 31
0.0
  0
LINE
  5
1633B
  8
0
 10
3863.3856368051269783
 20
272.2320909518646772
 30
0.0
 11
3863.3856368051269783
 21
270.0286900729453237
 31
0.0
  0
LINE
  5
1633C
  8
0
 10
3848.643076632994962
 20
272.2320909518671215
 30
0.0
 11
3848.643076632994962
 21
270.0286900729453237
 31
0.0
  0
ENDSEC
  0
EOF
