  0
SECTION
  2
HEADER
  9
$ACADVER
  1
AC1009
  9
$INSBASE
 10
3240.7470430333260083
 20
143.8555726991727965
 30
0.0
  9
$EXTMIN
 10
3211.434421398215818
 20
143.8471152060486133
 30
-0.0015258207003583
  9
$EXTMAX
 10
3240.8571956961291107
 20
174.6374269807369046
 30
0.0000000349246037
  9
$LIMMIN
 10
0.0
 20
0.0
  9
$LIMMAX
 10
11.6929133858000007
 20
8.2677165353999982
  9
$ORTHOMODE
 70
     1
  9
$REGENMODE
 70
     1
  9
$FILLMODE
 70
     1
  9
$QTEXTMODE
 70
     0
  9
$MIRRTEXT
 70
     0
  9
$DRAGMODE
 70
     2
  9
$LTSCALE
 40
0.6431102362
  9
$OSMODE
 70
  2039
  9
$ATTMODE
 70
     1
  9
$TEXTSIZE
 40
0.2
  9
$TRACEWID
 40
0.05
  9
$TEXTSTYLE
  7
STANDARD
  9
$CLAYER
  8
0
  9
$CELTYPE
  6
BYLAYER
  9
$CECOLOR
 62
   256
  9
$DIMSCALE
 40
1.0
  9
$DIMASZ
 40
0.1875
  9
$DIMEXO
 40
0.0625
  9
$DIMDLI
 40
0.4443307087
  9
$DIMRND
 40
0.0
  9
$DIMDLE
 40
0.0
  9
$DIMEXE
 40
0.125
  9
$DIMTP
 40
0.01
  9
$DIMTM
 40
0.01
  9
$DIMTXT
 40
2.0
  9
$DIMCEN
 40
0.1052362205
  9
$DIMTSZ
 40
0.0
  9
$DIMTOL
 70
     1
  9
$DIMLIM
 70
     0
  9
$DIMTIH
 70
     1
  9
$DIMTOH
 70
     1
  9
$DIMSE1
 70
     0
  9
$DIMSE2
 70
     0
  9
$DIMTAD
 70
     0
  9
$DIMZIN
 70
     0
  9
$DIMBLK
  1

  9
$DIMASO
 70
     1
  9
$DIMSHO
 70
     1
  9
$DIMPOST
  1
\X
  9
$DIMAPOST
  1

  9
$DIMALT
 70
     1
  9
$DIMALTD
 70
     2
  9
$DIMALTF
 40
25.3999999999999986
  9
$DIMLFAC
 40
1.0
  9
$DIMTOFL
 70
     0
  9
$DIMTVP
 40
0.0
  9
$DIMTIX
 70
     0
  9
$DIMSOXD
 70
     0
  9
$DIMSAH
 70
     0
  9
$DIMBLK1
  1

  9
$DIMBLK2
  1

  9
$DIMSTYLE
  2
STANDARD
  9
$DIMCLRD
 70
     0
  9
$DIMCLRE
 70
     0
  9
$DIMCLRT
 70
     0
  9
$DIMTFAC
 40
1.0
  9
$DIMGAP
 40
0.09
  9
$LUNITS
 70
     2
  9
$LUPREC
 70
     4
  9
$SKETCHINC
 40
0.1
  9
$FILLETRAD
 40
0.0
  9
$AUNITS
 70
     0
  9
$AUPREC
 70
     0
  9
$MENU
  1
.
  9
$ELEVATION
 40
0.0
  9
$PELEVATION
 40
0.0
  9
$THICKNESS
 40
0.0
  9
$LIMCHECK
 70
     0
  9
$BLIPMODE
 70
     0
  9
$CHAMFERA
 40
0.0
  9
$CHAMFERB
 40
0.0
  9
$SKPOLY
 70
     0
  9
$TDCREATE
 40
2458060.468368056230247
  9
$TDUPDATE
 40
2459322.4031134261749685
  9
$TDINDWG
 40
0.6052385417
  9
$TDUSRTIMER
 40
0.6052385417
  9
$USRTIMER
 70
     1
  9
$ANGBASE
 50
0.0
  9
$ANGDIR
 70
     0
  9
$PDMODE
 70
     0
  9
$PDSIZE
 40
0.3125
  9
$PLINEWID
 40
0.0
  9
$COORDS
 70
     1
  9
$SPLFRAME
 70
     0
  9
$SPLINETYPE
 70
     6
  9
$SPLINESEGS
 70
     8
  9
$ATTDIA
 70
     1
  9
$ATTREQ
 70
     1
  9
$HANDLING
 70
     1
  9
$HANDSEED
  5
2725D
  9
$SURFTAB1
 70
     6
  9
$SURFTAB2
 70
     6
  9
$SURFTYPE
 70
     6
  9
$SURFU
 70
     6
  9
$SURFV
 70
     6
  9
$UCSNAME
  2

  9
$UCSORG
 10
0.0
 20
0.0
 30
0.0
  9
$UCSXDIR
 10
1.0
 20
0.0
 30
0.0
  9
$UCSYDIR
 10
0.0
 20
1.0
 30
0.0
  9
$PUCSNAME
  2

  9
$PUCSORG
 10
0.0
 20
0.0
 30
0.0
  9
$PUCSXDIR
 10
1.0
 20
0.0
 30
0.0
  9
$PUCSYDIR
 10
0.0
 20
1.0
 30
0.0
  9
$USERI1
 70
     0
  9
$USERI2
 70
     0
  9
$USERI3
 70
     0
  9
$USERI4
 70
     0
  9
$USERI5
 70
     0
  9
$USERR1
 40
0.0
  9
$USERR2
 40
0.0
  9
$USERR3
 40
0.0
  9
$USERR4
 40
0.0
  9
$USERR5
 40
0.0
  9
$WORLDVIEW
 70
     1
  9
$SHADEDGE
 70
     3
  9
$SHADEDIF
 70
    70
  9
$TILEMODE
 70
     1
  9
$MAXACTVP
 70
    64
  9
$PLIMCHECK
 70
     0
  9
$PEXTMIN
 10
1.0000000000000000E+20
 20
1.0000000000000000E+20
 30
1.0000000000000000E+20
  9
$PEXTMAX
 10
-1.0000000000000000E+20
 20
-1.0000000000000000E+20
 30
-1.0000000000000000E+20
  9
$PLIMMIN
 10
0.0
 20
0.0
  9
$PLIMMAX
 10
12.0
 20
9.0
  9
$UNITMODE
 70
     0
  9
$VISRETAIN
 70
     1
  9
$PLINEGEN
 70
     0
  9
$PSLTSCALE
 70
     1
  0
ENDSEC
  0
SECTION
  2
TABLES
  0
TABLE
  2
VPORT
 70
     1
  0
VPORT
  2
*ACTIVE
 70
     0
 10
0.0
 20
0.0
 11
1.0
 21
1.0
 12
-77.547306687202763
 22
-36.0192404824950074
 13
0.0
 23
0.0
 14
1.0
 24
1.0
 15
0.0
 25
0.0
 16
0.0
 26
0.0
 36
96.5995694866707311
 17
3303.693115234375
 27
195.2615115758877096
 37
0.0
 40
31.0465418310657313
 41
2.6486111111111108
 42
50.0
 43
0.0
 44
0.0
 50
0.0
 51
0.0
 71
     0
 72
   100
 73
     1
 74
     1
 75
     0
 76
     0
 77
     0
 78
     0
  0
ENDTAB
  0
TABLE
  2
LTYPE
 70
     2
  0
LTYPE
  2
CONTINUOUS
 70
     0
  3
Solid line
 72
    65
 73
     0
 40
0.0
  0
LTYPE
  2
PHANTOM2
 70
     0
  3
___ _ _ ___ _ _ ___ _ _ ___ _ _
 72
    65
 73
     6
 40
1.25
 49
0.625
 49
-0.125
 49
0.125
 49
-0.125
 49
0.125
 49
-0.125
  0
ENDTAB
  0
TABLE
  2
LAYER
 70
     2
  0
LAYER
  2
0
 70
     0
 62
   255
  6
CONTINUOUS
  0
LAYER
  2
DEFPOINTS
 70
     0
 62
     7
  6
CONTINUOUS
  0
ENDTAB
  0
TABLE
  2
STYLE
 70
     1
  0
STYLE
  2
STANDARD
 70
     0
 40
0.0
 41
0.8
 50
0.0
 71
     0
 42
0.2
  3
txt
  4

  0
ENDTAB
  0
TABLE
  2
VIEW
 70
     0
  0
ENDTAB
  0
TABLE
  2
UCS
 70
     0
  0
ENDTAB
  0
TABLE
  2
APPID
 70
     9
  0
APPID
  2
ACAD
 70
     0
  0
APPID
  2
ACAD_MLEADERVER
 70
     0
  0
APPID
  2
ACAD_EXEMPT_FROM_CAD_STANDARDS
 70
     0
  0
APPID
  2
ACAD_NAV_VCDISPLAY
 70
     0
  0
APPID
  2
ACAECLAYERSTANDARD
 70
     0
  0
APPID
  2
ACCMTRANSPARENCY
 70
     0
  0
APPID
  2
ACAD_DSTYLE_DIMJAG
 70
     0
  0
APPID
  2
ACAD_DSTYLE_DIMTALN
 70
     0
  0
APPID
  2
ACDBATTR
 70
     0
  0
ENDTAB
  0
TABLE
  2
DIMSTYLE
 70
     1
  0
DIMSTYLE
  2
STANDARD
 70
     0
  3

  4

  5

  6

  7

 40
1.0
 41
0.1875
 42
0.0625
 43
0.38
 44
0.125
 45
0.0
 46
0.0
 47
0.01
 48
0.01
140
0.15625
141
0.09
142
0.0
143
25.3999999999999986
144
1.0
145
0.0
146
1.0
147
0.09
 71
     1
 72
     0
 73
     1
 74
     1
 75
     0
 76
     0
 77
     0
 78
     4
170
     0
171
     2
172
     0
173
     0
174
     0
175
     0
176
     0
177
     0
178
     0
  0
ENDTAB
  0
ENDSEC
  0
SECTION
  2
BLOCKS
  0
BLOCK
  8
0
  2
$MODEL_SPACE
 70
     0
 10
0.0
 20
0.0
 30
0.0
  3
$MODEL_SPACE
  1

  0
ENDBLK
  5
21
  8
0
  0
BLOCK
 67
     1
  8
0
  2
$PAPER_SPACE
 70
     0
 10
0.0
 20
0.0
 30
0.0
  3
$PAPER_SPACE
  1

  0
ENDBLK
  5
1D
 67
     1
  8
0
  0
BLOCK
  8
0
  2
_FILLED
 70
     0
 10
0.0
 20
0.0
 30
0.0
  3
_FILLED
  1

  0
SOLID
  5
211E5
  8
0
  6
BYBLOCK
 62
     0
 10
0.0
 20
0.0
 30
0.0
 11
-1.0
 21
0.1666666667
 31
0.0
 12
-1.0
 22
-0.1666666667
 32
0.0
 13
-1.0
 23
-0.1666666667
 33
0.0
  0
ENDBLK
  5
211E6
  8
0
  6
BYBLOCK
 62
     0
  0
ENDSEC
  0
SECTION
  2
ENTITIES
  0
ATTDEF
  5
25F34
  8
DEFPOINTS
 10
3240.747621389626147
 20
143.8596078847045021
 30
0.0
 40
0.001
  1
K-4153T-S2
  3

  2
MODELNUMBER
 70
     0
1001
ACDBATTR
1070
     0
1070
     1
  0
ATTDEF
  5
25F35
  8
DEFPOINTS
 10
3240.747621389626147
 20
143.8579412180378085
 30
0.0
 40
0.001
  1
REACH
  3

  2
TRADENAME
 70
     0
1001
ACDBATTR
1070
     0
1070
     1
  0
ATTDEF
  5
25F36
  8
DEFPOINTS
 10
3240.747621389626147
 20
143.8562745513712002
 30
0.0
 40
0.001
  1
TOILET
  3

  2
PRODUCT
 70
     0
1001
ACDBATTR
1070
     0
1070
     1
  0
LINE
  5
2704D
  8
0
 10
3215.3359559099349099
 20
143.8555727074486867
 30
0.0
 11
3239.5881973861942242
 21
143.8555727074486867
 31
0.0
  0
LINE
  5
2704E
  8
0
 10
3211.897198841484169
 20
157.0498726598727046
 30
0.0
 11
3239.5885497398339794
 21
157.0498726598727046
 31
0.0
  0
LINE
  5
2704F
  8
0
 10
3211.904803557834839
 20
159.2498726868728056
 30
0.0
 11
3233.8869150747341337
 21
159.2498726868728056
 31
0.0
  0
LINE
  5
27050
  8
0
 10
3233.9717077999548565
 20
172.9534144641806961
 30
0.0
 11
3240.6029013807751653
 21
172.9534144641806961
 31
0.0
  0
LINE
  5
27051
  8
0
 10
3215.3359559099349099
 20
143.8555727074486867
 30
0.0
 11
3215.7189463209338101
 21
151.8549175534728022
 31
0.0
  0
ARC
  5
27052
  8
0
 10
3215.5198389936472267
 20
151.8644503587935048
 30
0.0
 40
0.1993354011622846
 50
357.2589017531356035
 51
60.1517758019639288
  0
ARC
  5
27053
  8
0
 10
3219.1700273457367985
 20
158.5619294920313109
 30
0.0
 40
7.4283020885903301
 50
191.785792065509213
 51
241.4429454226543896
  0
ARC
  5
27054
  8
0
 10
3222.5757962813918311
 20
159.3670855684370053
 30
0.0
 40
10.9271185107154505
 50
181.9787703781599078
 51
192.271038361127097
  0
ARC
  5
27055
  8
0
 10
3211.9049928714971429
 20
158.9998699564999072
 30
0.0
 40
0.250002802051392
 50
90.0433870129320439
 51
182.3128247868993128
  0
LINE
  5
27056
  8
0
 10
3211.7317228390338641
 20
159.3994789860728076
 30
0.0
 11
3230.1902877594338861
 21
159.3994789860728076
 31
0.0
  0
ARC
  5
27057
  8
0
 10
3230.1902877594338861
 20
176.9838944970713044
 30
0.0
 40
17.5844155109985785
 50
270.0
 51
273.2696427257067171
  0
ARC
  5
27058
  8
0
 10
3231.1764211780769074
 20
159.7220889736852882
 30
0.0
 40
0.2944649891906392
 50
273.2696427257064897
 51
289.1758507629688211
  0
ARC
  5
27059
  8
0
 10
3231.230430823522056
 20
159.5571667146616051
 30
0.0
 40
0.1209942292053757
 50
290.6718742573880832
 51
358.8574148148666154
  0
ARC
  5
2705A
  8
0
 10
3217.2057656009569655
 20
158.092955104264405
 30
0.0
 40
14.2209653956307402
 50
5.8999587267268518
 51
7.1666861511641411
  0
LINE
  5
2705B
  8
0
 10
3231.3156283805601561
 20
159.8671109949634115
 30
0.0
 11
3231.1739415011338679
 21
161.0553325076726878
 31
0.0
  0
ARC
  5
2705C
  8
0
 10
3230.9753064283409003
 20
161.030221504794099
 30
0.0
 40
0.2002160198603921
 50
7.2049848343000873
 51
89.141985812681213
  0
ARC
  5
2705D
  8
0
 10
3231.1839024739429078
 20
164.5196373396204876
 30
0.0
 40
3.2956416061090459
 50
264.9143158907158977
 51
266.4232926260481804
  0
ARC
  5
2705E
  8
0
 10
3230.693474215921924
 20
161.1548314927150045
 30
0.0
 40
0.2146241807207083
 50
22.5015184356303912
 51
86.8981598609493346
  0
LINE
  5
2705F
  8
0
 10
3230.7050877197339105
 20
161.3691412346288985
 30
0.0
 11
3222.137346854568932
 21
161.3691412346288985
 31
0.0
  0
ARC
  5
27060
  8
0
 10
3222.5529916223808868
 20
39.8179954732962429
 30
0.0
 40
121.5518564089655058
 50
90.1959224489715865
 51
94.9410454045024181
  0
ARC
  5
27061
  8
0
 10
3212.106833658764117
 20
160.6006613071388927
 30
0.0
 40
0.3183309619528453
 50
94.1764890101692345
 51
173.8583349993353124
  0
ARC
  5
27062
  8
0
 10
3211.731683628385781
 20
159.4781842653345905
 30
0.0
 40
0.0787052890291085
 50
173.1713592284183107
 51
270.0285445200801178
  0
ARC
  5
27063
  8
0
 10
3212.0967388991789448
 20
159.4231438521809139
 30
0.0
 40
0.0787830149532738
 50
197.4804465846301014
 51
269.9433943594335119
  0
LINE
  5
27064
  8
0
 10
3212.0966610651339579
 20
159.3443608756759033
 30
0.0
 11
3229.6453569454001808
 21
159.3443608756759033
 31
0.0
  0
ARC
  5
27065
  8
0
 10
3229.6425819730970943
 20
159.4269650126099123
 30
0.0
 40
0.0826507344788397
 50
271.9240492981576267
 51
340.5759908548217254
  0
LINE
  5
27066
  8
0
 10
3231.3819333638339231
 20
159.2498726861728073
 30
0.0
 11
3231.3671749948121033
 21
160.0953790789766913
 31
0.0
  0
ARC
  5
27067
  8
0
 10
3231.1309905003581662
 20
160.0912564632801036
 30
0.0
 40
0.2362204719762098
 50
1.00000000262081
 51
13.9999970334355393
  0
LINE
  5
27068
  8
0
 10
3231.360194217733806
 20
160.1484033557727003
 30
0.0
 11
3231.2975599327060081
 21
160.3996158073603908
 31
0.0
  0
ARC
  5
27069
  8
0
 10
3230.7913803926821856
 20
160.2734939090678097
 30
0.0
 40
0.5216554993173219
 50
13.99117205803649
 51
31.887600995130299
  0
LINE
  5
2706A
  8
0
 10
3231.3740304800330705
 20
159.702628592372804
 30
0.0
 11
3231.4488486007339816
 21
159.702628592372804
 31
0.0
  0
ARC
  5
2706B
  8
0
 10
3231.4488486007339816
 20
159.6908174652722892
 30
0.0
 40
0.01181112710045
 50
0.0005020806953097
 51
90.0
  0
LINE
  5
2706C
  8
0
 10
3231.4606597278338995
 20
159.6908175687727862
 30
0.0
 11
3231.460662798319845
 21
159.3404238679862033
 31
0.0
  0
ARC
  5
2706D
  8
0
 10
3231.4488518777789068
 20
159.3404237644874968
 30
0.0
 40
0.0118109205411999
 50
269.9846043748709121
 51
0.0005020806936813
  0
LINE
  5
2706E
  8
0
 10
3231.4488487041339795
 20
159.3286128443727137
 30
0.0
 11
3231.3805589492581021
 21
159.3286128442726977
 31
0.0
  0
LINE
  5
2706F
  8
0
 10
3239.5881973861942242
 20
143.8555727074486867
 30
0.0
 11
3239.2135169098692131
 21
150.8855814667581114
 31
0.0
  0
ARC
  5
27070
  8
0
 10
3239.0138001668178731
 20
150.8749371038593097
 30
0.0
 40
0.2000001997913031
 50
3.0508237313967501
 51
85.4107605607314468
  0
LINE
  5
27071
  8
0
 10
3239.0298025269339632
 20
151.0742960875728045
 30
0.0
 11
3238.8190304511908835
 21
151.0912145659657995
 31
0.0
  0
ARC
  5
27072
  8
0
 10
3238.8270316448611084
 20
151.1908941272122036
 30
0.0
 40
0.1000001701518797
 50
181.4743729275610917
 51
265.4107559679686119
  0
ARC
  5
27073
  8
0
 10
11307.1115757079405739
 20
359.9942058120000183
 30
0.0
 40
8071.0859564782467714
 50
181.4486848014014129
 51
181.4824561339422928
  0
ARC
  5
27074
  8
0
 10
3234.1586378835331743
 20
156.5652341259215916
 30
0.0
 40
4.4899343545459001
 50
352.0473665035959812
 51
353.9717814009985091
  0
ARC
  5
27075
  8
0
 10
3598.1838762669822245
 20
121.6296042328742999
 30
0.0
 40
361.208060648441176
 50
174.3724996000788963
 51
174.5248835378444028
  0
ARC
  5
27076
  8
0
 10
3215.7606045188008466
 20
151.7718840340110091
 30
0.0
 40
0.1268326399373681
 50
85.0970948734513968
 51
109.924821082016706
  0
ARC
  5
27077
  8
0
 10
3214.4909006616421721
 20
143.3216074073366997
 30
0.0
 40
8.6717146686667288
 50
77.6541241989105657
 51
81.5081309871276858
  0
ARC
  5
27078
  8
0
 10
3248.3204795162600931
 20
356.2601997581178921
 30
0.0
 40
206.9525383454908081
 50
261.1118395689003933
 51
261.838540723072299
  0
ARC
  5
27079
  8
0
 10
3222.5459534183842152
 20
180.7125135774631133
 30
0.0
 40
29.5297145707132209
 50
262.9876174290350832
 51
267.8087500186489933
  0
ARC
  5
2707A
  8
0
 10
3221.122909655544845
 20
162.3080048238597044
 30
0.0
 40
11.1075034682097105
 50
271.5165563383084191
 51
300.4828124494035819
  0
ARC
  5
2707B
  8
0
 10
3222.1289184135239339
 20
158.3323785930658971
 30
0.0
 40
7.2626480989840028
 50
309.5919939627701751
 51
327.1398814985241756
  0
ARC
  5
2707C
  8
0
 10
3239.5769918954820241
 20
157.2685732395320031
 30
0.0
 40
0.2190057700366827
 50
273.0251416580027808
 51
337.8172583734569798
  0
ARC
  5
2707D
  8
0
 10
3210.1852987004990609
 20
165.6170611812258073
 30
0.0
 40
30.7720411644577503
 50
344.0982734228325057
 51
345.9517364744471024
  0
LINE
  5
2707E
  8
0
 10
3240.0369972674338896
 20
158.1474822040727872
 30
0.0
 11
3240.036922853456872
 21
160.6247571492440898
 31
0.0
  0
ARC
  5
2707F
  8
0
 10
3239.8369228558340183
 20
160.6247395171727135
 30
0.0
 40
0.1999999984000146
 50
0.0050512164022714
 51
89.9978640970013259
  0
LINE
  5
27080
  8
0
 10
3239.8369303115418916
 20
160.8247395154338051
 30
0.0
 11
3234.7017002934339871
 21
160.8247393860727072
 31
0.0
  0
ARC
  5
27081
  8
0
 10
3234.7017002934339871
 20
160.6247393860726902
 30
0.0
 40
0.1999999999999993
 50
90.0
 51
172.8761963162826021
  0
LINE
  5
27082
  8
0
 10
3234.5032441930961795
 20
160.6495421326727069
 30
0.0
 11
3234.383055325883106
 21
159.6878658201291898
 31
0.0
  0
ARC
  5
27083
  8
0
 10
3233.886915075314846
 20
159.7498726865946992
 30
0.0
 40
0.4999999997219263
 50
269.9999999333771257
 51
352.8761963162825737
  0
ARC
  5
27084
  8
0
 10
3238.5759600276651327
 20
156.8249239303511047
 30
0.0
 40
0.1188581828763179
 50
1.0616241398120669
 51
37.4254477893703807
  0
ARC
  5
27085
  8
0
 10
3238.4417803140040633
 20
156.6532297724504019
 30
0.0
 40
0.3342829673901474
 50
46.861599755651639
 51
81.5339243651018108
  0
ARC
  5
27086
  8
0
 10
3238.2077891584331155
 20
155.760017066586812
 30
0.0
 40
1.2561933392940621
 50
76.9708097989386033
 51
89.8593172361052552
  0
ARC
  5
27087
  8
0
 10
3237.130592630036972
 20
223.2327297448877914
 30
0.0
 40
66.2253345918251455
 50
270.4125892272709279
 51
270.9346617122957923
  0
ARC
  5
27088
  8
0
 10
3237.7324614775798182
 20
123.6688565511364999
 30
0.0
 40
33.3404899080735433
 50
90.2147820291756091
 51
92.6874963224957042
  0
ARC
  5
27089
  8
0
 10
3237.3639549971471752
 20
131.706471654784707
 30
0.0
 40
25.2944379447488892
 50
92.7073622490860458
 51
97.4267727315396002
  0
ARC
  5
2708A
  8
0
 10
3235.8805394549449375
 20
143.4323336757846903
 30
0.0
 40
13.4752750775365708
 50
97.6168414590992057
 51
118.0730143204329039
  0
ARC
  5
2708B
  8
0
 10
3231.1276196911258012
 20
151.699688366227889
 30
0.0
 40
3.9555128597303519
 50
113.6776335346523013
 51
137.1108617991162077
  0
ARC
  5
2708C
  8
0
 10
3217.5370572579959116
 20
158.9279737124325038
 30
0.0
 40
12.4541042409006799
 50
342.9643599946659833
 51
351.326606434229177
  0
ARC
  5
2708D
  8
0
 10
3237.1196212389368156
 20
156.1175116213800891
 30
0.0
 40
1.495863857290272
 50
338.7870501032903121
 51
353.3402568557182235
  0
ARC
  5
2708E
  8
0
 10
3237.8790355800488214
 20
156.1167655720117864
 30
0.0
 40
0.833962989745842
 50
288.1222417618552072
 51
319.5997958826171157
  0
ARC
  5
2708F
  8
0
 10
3233.0917471235870835
 20
171.2187839964346097
 30
0.0
 40
16.6765638432204
 50
279.9722014593131121
 51
287.6151320615833242
  0
ARC
  5
27090
  8
0
 10
3235.9960098120600378
 20
154.6960559009569067
 30
0.0
 40
0.0994729360614028
 50
99.4757565497662029
 51
229.4602563308843912
  0
ARC
  5
27091
  8
0
 10
3233.3777388056951168
 20
151.6261203603395131
 30
0.0
 40
3.9353564386249049
 50
43.8544866756006968
 51
49.5419852377612671
  0
ARC
  5
27092
  8
0
 10
3232.5126799566210138
 20
150.7960494751588953
 30
0.0
 40
5.1342492734226441
 50
6.4140407120179681
 51
43.8458655026850934
  0
ARC
  5
27093
  8
0
 10
3237.715195136616785
 20
151.3815769743819999
 30
0.0
 40
0.1011141237691791
 50
186.797476477413511
 51
265.6573034929435835
  0
LINE
  5
27094
  8
0
 10
3237.7075385928619653
 20
151.2807531509901935
 30
0.0
 11
3238.7267897788260598
 21
151.1989399460316008
 31
0.0
  0
ARC
  5
27095
  8
0
 10
2952.3961316459922273
 20
-3520.7628282096447947
 30
0.0
 40
3682.8339979924239742
 50
85.5333085225004481
 51
85.5889649978970937
  0
ARC
  5
27096
  8
0
 10
3235.4814996450018043
 20
153.6484644054278021
 30
0.0
 40
2.4914925779650372
 50
257.1872604804144089
 51
273.8037712551898153
  0
ARC
  5
27097
  8
0
 10
3235.0403808777368795
 20
151.7523302865394044
 30
0.0
 40
0.5448324818740817
 50
204.3253669273385071
 51
258.2008838155127251
  0
ARC
  5
27098
  8
0
 10
3226.42100783572414
 20
149.081570527996206
 30
0.0
 40
8.4832905570452066
 50
16.7604451465714988
 51
29.2022077260757804
  0
ARC
  5
27099
  8
0
 10
3231.6593967447479372
 20
152.0164639934220077
 30
0.0
 40
2.4787763776195062
 50
29.0611324623342107
 51
54.1092493859544703
  0
ARC
  5
2709A
  8
0
 10
3233.4100440367569718
 20
154.3892181275693929
 30
0.0
 40
0.4705700904463888
 50
115.0679779429977998
 51
230.7887776582759045
  0
ARC
  5
2709B
  8
0
 10
3233.8887274208527742
 20
153.3776733858736065
 30
0.0
 40
1.5896559307818541
 50
91.4447744609208399
 51
115.2485344891283034
  0
ARC
  5
2709C
  8
0
 10
3246.0794370201479069
 20
99.1971546147339467
 30
0.0
 40
57.0950807652690813
 50
101.4072961213874038
 51
102.3696492517364049
  0
ARC
  5
2709D
  8
0
 10
3228.1618700142089438
 20
188.0000205253618901
 30
0.0
 40
33.4973482856911602
 50
281.4072961213875033
 51
286.702999559710122
  0
ARC
  5
2709E
  8
0
 10
3239.2875468100969556
 20
150.9290793148620935
 30
0.0
 40
5.2071137876851399
 50
97.3239922535626647
 51
106.7214005382974022
  0
ARC
  5
2709F
  8
0
 10
3227.8597669501227756
 20
201.4325296766402005
 30
0.0
 40
47.2401491669063702
 50
279.8683634333120267
 51
282.567134456034978
  0
ARC
  5
270A0
  8
0
 10
3239.8216074474607922
 20
119.1231752258109964
 30
0.0
 40
35.9764419270469915
 50
96.1681998699923213
 51
98.3128007118476432
  0
ARC
  5
270A1
  8
0
 10
3234.6513755332111941
 20
154.523487217187693
 30
0.0
 40
0.2005765592429931
 50
98.9325681599670048
 51
233.7965985493509891
  0
ARC
  5
270A2
  8
0
 10
3232.7372578160639023
 20
151.8960695951894877
 30
0.0
 40
3.0501423676862141
 50
28.1607000226446402
 51
53.9345471725964174
  0
ARC
  5
270A3
  8
0
 10
3226.0969638441638381
 20
148.3205127558441063
 30
0.0
 40
10.5918936725744697
 50
16.9515437710028714
 51
28.2604903726439787
  0
ARC
  5
270A4
  8
0
 10
3236.4127291547110872
 20
151.4837984533834003
 30
0.0
 40
0.1987959993610359
 50
202.1906396646610915
 51
265.3346415661321771
  0
LINE
  5
270A5
  8
0
 10
3238.8190304511908835
 20
151.0912145659657995
 30
0.0
 11
3236.396559899733802
 21
151.2856611157727968
 31
0.0
  0
CIRCLE
  5
270A6
  8
0
 10
3233.6054944844290731
 20
145.4152490300720046
 30
0.0
 40
0.5408997137921081
  0
LINE
  5
270A7
  8
0
 10
3229.8491121748338628
 20
159.3994789860728076
 30
0.0
 11
3229.8491121748338628
 21
159.2498726868728056
 31
0.0
  0
LINE
  5
270A8
  8
0
 10
3227.9422540863502036
 20
159.2498726868728056
 30
0.0
 11
3228.1596252876511244
 21
159.3443608756759033
 31
0.0
  0
ARC
  5
270A9
  8
0
 10
3224.4044740871340764
 20
159.3482978836727
 30
0.0
 40
0.0590551180999903
 50
183.8225538493564102
 51
269.9996472719953999
  0
LINE
  5
270AA
  8
0
 10
3224.404473723574938
 20
159.2892427655739027
 30
0.0
 11
3224.7373447810277867
 21
159.2892407163315056
 31
0.0
  0
ARC
  5
270AB
  8
0
 10
3224.737345144586925
 20
159.3482959572185109
 30
0.0
 40
0.059055240888092
 50
269.9996472719953999
 51
356.1793273341385202
  0
ARC
  5
270AC
  8
0
 10
3428.3681740455640465
 20
165.6571926242901043
 30
0.0
 40
212.9688958759786033
 50
181.6986123875284136
 51
181.7086226961623083
  0
ARC
  5
270AD
  8
0
 10
3215.5529988965881785
 20
159.3089298232522992
 30
0.0
 40
0.0590576479621499
 50
181.7086226961623083
 51
269.7615168179332272
  0
ARC
  5
270AE
  8
0
 10
3215.1589573450100943
 20
159.3531987019698875
 30
0.0
 40
1.166968774014111
 50
357.7360217267288931
 51
359.5660766606570178
  0
ARC
  5
270AF
  8
0
 10
3216.2649897000737838
 20
159.3094723179650032
 30
0.0
 40
0.0600724070918129
 50
277.1930497511826275
 51
357.7360217267257099
  0
ARC
  5
270B0
  8
0
 10
3216.3596864206829196
 20
159.6090933767648039
 30
0.0
 40
0.284043218632448
 50
263.1145976423619004
 51
273.8167980865320033
  0
ARC
  5
270B1
  8
0
 10
3216.3683672160641436
 20
159.478974626261504
 30
0.0
 40
0.1536352225548056
 50
273.8167980865320033
 51
298.8137927031368122
  0
LINE
  5
270B2
  8
0
 10
3213.992678781613904
 20
159.2498726868728056
 30
0.0
 11
3213.8813538381277795
 21
159.3443608756813035
 31
0.0
  0
ARC
  5
270B3
  8
0
 10
3233.991746847118975
 20
173.0093422887871952
 30
0.0
 40
0.0594094687439469
 50
172.8986847372408135
 51
250.2873003391723898
  0
ARC
  5
270B4
  8
0
 10
3027.196208563215805
 20
198.3008161940109915
 30
0.0
 40
208.2769852604635048
 50
353.0272856069652221
 51
353.3931979298047281
  0
ARC
  5
270B5
  8
0
 10
3234.3269125337228616
 20
174.3079410943529126
 30
0.0
 40
0.238699086443627
 50
94.8461167298809187
 51
172.8887318216359006
  0
LINE
  5
270B6
  8
0
 10
3234.3067472630527845
 20
174.5457868757488029
 30
0.0
 11
3240.2499797168520672
 21
174.5457868757488029
 31
0.0
  0
ARC
  5
270B7
  8
0
 10
3240.2493558010328343
 20
174.3088619599512867
 30
0.0
 40
0.2369257373030314
 50
6.9400622113902548
 51
89.8491181878985685
  0
LINE
  5
270B8
  8
0
 10
3240.4845456065531835
 20
174.3374899248807139
 30
0.0
 11
3240.6419231392619622
 21
173.0166822621987137
 31
0.0
  0
ARC
  5
270B9
  8
0
 10
3240.5832552841038705
 20
173.0091992599346042
 30
0.0
 40
0.0591431530416118
 50
289.4010681798515066
 51
7.2687479568202962
  0
LINE
  5
270BA
  8
0
 10
3236.3424215206409826
 20
174.5457868757488029
 30
0.0
 11
3236.3424215216177799
 21
174.593033358280195
 31
0.0
  0
ARC
  5
270BB
  8
0
 10
3236.3817924207669421
 20
174.5930330149545
 30
0.0
 40
0.0393708991499608
 50
90.0097437190123912
 51
179.9995003640713946
  0
LINE
  5
270BC
  8
0
 10
3236.3817857253520742
 20
174.6324039135350858
 30
0.0
 11
3238.1928093272608749
 21
174.6324039135350858
 31
0.0
  0
ARC
  5
270BD
  8
0
 10
3238.1928167288861005
 20
174.5930532270575952
 30
0.0
 40
0.0393506871736116
 50
359.9708115822314767
 51
90.0107769876411936
  0
LINE
  5
270BE
  8
0
 10
3238.232167410953025
 20
174.5930331804806883
 30
0.0
 11
3238.2321700443621921
 21
174.5457868757488029
 31
0.0
  0
LINE
  5
270BF
  8
0
 10
3240.6056588126270981
 20
172.9302546704807924
 30
0.0
 11
3233.9689362513458946
 21
172.9302546704807924
 31
0.0
  0
ARC
  5
270C0
  8
0
 10
3233.9812286190999657
 20
172.8780149618866915
 30
0.0
 40
0.0536664649387414
 50
103.2412178893393957
 51
180.5940495457138866
  0
LINE
  5
270C1
  8
0
 10
3233.9275650386530288
 20
172.8774585514806859
 30
0.0
 11
3234.438757276834167
 21
160.9995719580726927
 31
0.0
  0
ARC
  5
270C2
  8
0
 10
3234.5594944798422148
 20
161.005620191075792
 30
0.0
 40
0.1208885987707493
 50
182.8677887235537014
 51
269.2747159012163252
  0
LINE
  5
270C3
  8
0
 10
3234.5579642408338259
 20
160.8847412777726902
 30
0.0
 11
3239.9185903667871571
 21
160.8847393860727948
 31
0.0
  0
ARC
  5
270C4
  8
0
 10
3239.9186221250010931
 20
161.0045859220315947
 30
0.0
 40
0.1198465401666618
 50
269.984817153780682
 51
357.6680061174022853
  0
ARC
  5
270C5
  8
0
 10
4430.2047868341551293
 20
103.6960065020526969
 30
0.0
 40
1191.5451378464349546
 50
176.6903043250474923
 51
177.2434722387937995
  0
ARC
  5
270C6
  8
0
 10
3240.5939895397400505
 20
172.8785004315049889
 30
0.0
 40
0.0530534935857828
 50
358.8577392029242219
 51
77.2937299480574609
  0
ARC
  5
270C7
  8
0
 10
3225.3279952015268464
 20
173.3610703193668883
 30
0.0
 40
15.3266695346608195
 50
356.8745475126473821
 51
358.1917522768704885
  0
ARC
  5
270C8
  8
0
 10
3240.597592546766009
 20
172.4896668937566915
 30
0.0
 40
0.0495307151970336
 50
357.4261402783760104
 51
46.2125580549442887
  0
LINE
  5
270C9
  8
0
 10
3240.6056588126270981
 20
172.9302546704807924
 30
0.0
 11
3240.6029013807751653
 21
172.9534144641806961
 31
0.0
  0
LINE
  5
270CA
  8
0
 10
3233.9689362513458946
 20
172.9302546704807924
 30
0.0
 11
3233.9717077999548565
 21
172.9534144641806961
 31
0.0
  0
ARC
  5
270CB
  8
0
 10
3234.6212388925050618
 20
160.7628385029219942
 30
0.0
 40
0.1219239962333184
 50
42.2012972921803708
 51
88.9303966651310134
  0
ARC
  5
270CC
  8
0
 10
3234.7574713683961818
 20
160.886372189614093
 30
0.0
 40
0.061977768943331
 50
222.2012972921791913
 51
263.9520376984974064
  0
ARC
  5
270CD
  8
0
 10
3239.8545915254057945
 20
160.766976014388689
 30
0.0
 40
0.1177650056314105
 50
89.6932744630376675
 51
137.5074560636344074
  0
ARC
  5
270CE
  8
0
 10
3239.7167974640610737
 20
160.8932080243475014
 30
0.0
 40
0.0691085443431138
 50
277.8038437553294102
 51
317.5074560636355727
  0
LINE
  5
270CF
  8
0
 10
3212.0836499494412237
 20
160.9181469240728006
 30
0.0
 11
3231.1902998964619655
 21
160.9181469240728006
 31
0.0
  0
LINE
  5
270D2
  8
0
 10
3211.7903297869997914
 20
160.6347186190807008
 30
0.0
 11
3211.6535366591901948
 21
159.4875423488257979
 31
0.0
  0
ENDSEC
  0
EOF
