  0
SECTION
  2
HEADER
  9
$ACADVER
  1
AC1009
  9
$INSBASE
 10
4383.2472846322816622
 20
225.9838146924874991
 30
0.0
  9
$EXTMIN
 10
4373.3823603738892416
 20
205.5403957207691121
 30
-0.0000000000112498
  9
$EXTMAX
 10
4391.1377261319712488
 20
225.9899457068825086
 30
0.0000000000002956
  9
$LIMMIN
 10
0.0
 20
0.0
  9
$LIMMAX
 10
11.6929133858000007
 20
8.2677165353999982
  9
$ORTHOMODE
 70
     0
  9
$REGENMODE
 70
     1
  9
$FILLMODE
 70
     1
  9
$QTEXTMODE
 70
     0
  9
$MIRRTEXT
 70
     0
  9
$DRAGMODE
 70
     2
  9
$LTSCALE
 40
0.6431102362
  9
$OSMODE
 70
     7
  9
$ATTMODE
 70
     1
  9
$TEXTSIZE
 40
0.2
  9
$TRACEWID
 40
0.05
  9
$TEXTSTYLE
  7
STANDARD
  9
$CLAYER
  8
0
  9
$CELTYPE
  6
BYLAYER
  9
$CECOLOR
 62
   256
  9
$DIMSCALE
 40
1.0
  9
$DIMASZ
 40
0.1875
  9
$DIMEXO
 40
0.0625
  9
$DIMDLI
 40
0.4443307087
  9
$DIMRND
 40
0.0
  9
$DIMDLE
 40
0.0
  9
$DIMEXE
 40
0.125
  9
$DIMTP
 40
0.01
  9
$DIMTM
 40
0.01
  9
$DIMTXT
 40
2.0
  9
$DIMCEN
 40
0.1052362205
  9
$DIMTSZ
 40
0.0
  9
$DIMTOL
 70
     1
  9
$DIMLIM
 70
     0
  9
$DIMTIH
 70
     1
  9
$DIMTOH
 70
     1
  9
$DIMSE1
 70
     0
  9
$DIMSE2
 70
     0
  9
$DIMTAD
 70
     0
  9
$DIMZIN
 70
     0
  9
$DIMBLK
  1

  9
$DIMASO
 70
     1
  9
$DIMSHO
 70
     1
  9
$DIMPOST
  1
\X
  9
$DIMAPOST
  1

  9
$DIMALT
 70
     1
  9
$DIMALTD
 70
     2
  9
$DIMALTF
 40
25.3999999999999986
  9
$DIMLFAC
 40
1.0
  9
$DIMTOFL
 70
     0
  9
$DIMTVP
 40
0.0
  9
$DIMTIX
 70
     0
  9
$DIMSOXD
 70
     0
  9
$DIMSAH
 70
     0
  9
$DIMBLK1
  1

  9
$DIMBLK2
  1

  9
$DIMSTYLE
  2
STANDARD
  9
$DIMCLRD
 70
     0
  9
$DIMCLRE
 70
     0
  9
$DIMCLRT
 70
     0
  9
$DIMTFAC
 40
1.0
  9
$DIMGAP
 40
0.09
  9
$LUNITS
 70
     2
  9
$LUPREC
 70
     4
  9
$SKETCHINC
 40
0.1
  9
$FILLETRAD
 40
0.0
  9
$AUNITS
 70
     0
  9
$AUPREC
 70
     0
  9
$MENU
  1
.
  9
$ELEVATION
 40
0.0
  9
$PELEVATION
 40
0.0
  9
$THICKNESS
 40
0.0
  9
$LIMCHECK
 70
     0
  9
$BLIPMODE
 70
     0
  9
$CHAMFERA
 40
0.0
  9
$CHAMFERB
 40
0.0
  9
$SKPOLY
 70
     0
  9
$TDCREATE
 40
2458060.468368056230247
  9
$TDUPDATE
 40
2459538.7381712961941957
  9
$TDINDWG
 40
0.7100649306
  9
$TDUSRTIMER
 40
0.7100649306
  9
$USRTIMER
 70
     1
  9
$ANGBASE
 50
0.0
  9
$ANGDIR
 70
     0
  9
$PDMODE
 70
     0
  9
$PDSIZE
 40
0.3125
  9
$PLINEWID
 40
0.0
  9
$COORDS
 70
     1
  9
$SPLFRAME
 70
     0
  9
$SPLINETYPE
 70
     6
  9
$SPLINESEGS
 70
     8
  9
$ATTDIA
 70
     1
  9
$ATTREQ
 70
     1
  9
$HANDLING
 70
     1
  9
$HANDSEED
  5
1422C
  9
$SURFTAB1
 70
     6
  9
$SURFTAB2
 70
     6
  9
$SURFTYPE
 70
     6
  9
$SURFU
 70
     6
  9
$SURFV
 70
     6
  9
$UCSNAME
  2

  9
$UCSORG
 10
0.0
 20
0.0
 30
0.0
  9
$UCSXDIR
 10
1.0
 20
0.0
 30
0.0
  9
$UCSYDIR
 10
0.0
 20
1.0
 30
0.0
  9
$PUCSNAME
  2

  9
$PUCSORG
 10
0.0
 20
0.0
 30
0.0
  9
$PUCSXDIR
 10
1.0
 20
0.0
 30
0.0
  9
$PUCSYDIR
 10
0.0
 20
1.0
 30
0.0
  9
$USERI1
 70
     0
  9
$USERI2
 70
     0
  9
$USERI3
 70
     0
  9
$USERI4
 70
     0
  9
$USERI5
 70
     0
  9
$USERR1
 40
0.0
  9
$USERR2
 40
0.0
  9
$USERR3
 40
0.0
  9
$USERR4
 40
0.0
  9
$USERR5
 40
0.0
  9
$WORLDVIEW
 70
     1
  9
$SHADEDGE
 70
     3
  9
$SHADEDIF
 70
    70
  9
$TILEMODE
 70
     1
  9
$MAXACTVP
 70
    64
  9
$PLIMCHECK
 70
     0
  9
$PEXTMIN
 10
1.0000000000000000E+20
 20
1.0000000000000000E+20
 30
1.0000000000000000E+20
  9
$PEXTMAX
 10
-1.0000000000000000E+20
 20
-1.0000000000000000E+20
 30
-1.0000000000000000E+20
  9
$PLIMMIN
 10
0.0
 20
0.0
  9
$PLIMMAX
 10
12.0
 20
9.0
  9
$UNITMODE
 70
     0
  9
$VISRETAIN
 70
     1
  9
$PLINEGEN
 70
     0
  9
$PSLTSCALE
 70
     1
  0
ENDSEC
  0
SECTION
  2
TABLES
  0
TABLE
  2
VPORT
 70
     1
  0
VPORT
  2
*ACTIVE
 70
     0
 10
0.0
 20
0.0
 11
1.0
 21
1.0
 12
220.7036467685547905
 22
-10.3456615005296708
 13
0.0
 23
0.0
 14
1.0
 24
1.0
 15
0.0
 25
0.0
 16
0.0
 26
0.0
 36
202.37134017897489
 17
4161.556396484375
 27
226.1108322143554972
 37
0.0
 40
20.5959668117896513
 41
2.2831541218637992
 42
50.0
 43
0.0
 44
0.0
 50
0.0
 51
0.0
 71
     0
 72
   100
 73
     1
 74
     1
 75
     0
 76
     0
 77
     0
 78
     0
  0
ENDTAB
  0
TABLE
  2
LTYPE
 70
     2
  0
LTYPE
  2
CONTINUOUS
 70
     0
  3
Solid line
 72
    65
 73
     0
 40
0.0
  0
LTYPE
  2
PHANTOM2
 70
     0
  3
___ _ _ ___ _ _ ___ _ _ ___ _ _
 72
    65
 73
     6
 40
1.25
 49
0.625
 49
-0.125
 49
0.125
 49
-0.125
 49
0.125
 49
-0.125
  0
ENDTAB
  0
TABLE
  2
LAYER
 70
     2
  0
LAYER
  2
0
 70
     0
 62
   255
  6
CONTINUOUS
  0
LAYER
  2
DEFPOINTS
 70
     0
 62
     7
  6
CONTINUOUS
  0
ENDTAB
  0
TABLE
  2
STYLE
 70
     1
  0
STYLE
  2
STANDARD
 70
     0
 40
0.0
 41
0.8
 50
0.0
 71
     0
 42
0.2
  3
txt
  4

  0
ENDTAB
  0
TABLE
  2
VIEW
 70
     0
  0
ENDTAB
  0
TABLE
  2
UCS
 70
     0
  0
ENDTAB
  0
TABLE
  2
APPID
 70
    10
  0
APPID
  2
ACAD
 70
     0
  0
APPID
  2
ACAD_MLEADERVER
 70
     0
  0
APPID
  2
ACAD_EXEMPT_FROM_CAD_STANDARDS
 70
     0
  0
APPID
  2
ACAD_NAV_VCDISPLAY
 70
     0
  0
APPID
  2
ACAECLAYERSTANDARD
 70
     0
  0
APPID
  2
ACCMTRANSPARENCY
 70
     0
  0
APPID
  2
ACAD_DSTYLE_DIMJAG
 70
     0
  0
APPID
  2
ACAD_DSTYLE_DIMTALN
 70
     0
  0
APPID
  2
ACDBATTR
 70
     0
  0
APPID
  2
DCO15
 70
     0
  0
ENDTAB
  0
TABLE
  2
DIMSTYLE
 70
     1
  0
DIMSTYLE
  2
STANDARD
 70
     0
  3

  4

  5

  6

  7

 40
1.0
 41
0.1875
 42
0.0625
 43
0.38
 44
0.125
 45
0.0
 46
0.0
 47
0.01
 48
0.01
140
0.15625
141
0.09
142
0.0
143
25.3999999999999986
144
1.0
145
0.0
146
1.0
147
0.09
 71
     1
 72
     0
 73
     1
 74
     1
 75
     0
 76
     0
 77
     0
 78
     4
170
     0
171
     2
172
     0
173
     0
174
     0
175
     0
176
     0
177
     0
178
     0
  0
ENDTAB
  0
ENDSEC
  0
SECTION
  2
BLOCKS
  0
BLOCK
  8
0
  2
$MODEL_SPACE
 70
     0
 10
0.0
 20
0.0
 30
0.0
  3
$MODEL_SPACE
  1

  0
ENDBLK
  5
21
  8
0
  0
BLOCK
 67
     1
  8
0
  2
$PAPER_SPACE
 70
     0
 10
0.0
 20
0.0
 30
0.0
  3
$PAPER_SPACE
  1

  0
ENDBLK
  5
1D
 67
     1
  8
0
  0
ENDSEC
  0
SECTION
  2
ENTITIES
  0
ATTDEF
  5
12CA7
  8
DEFPOINTS
 10
4383.2472869349057873
 20
225.9871495903514074
 30
0.0
 40
0.001
  1
K-4107T-XP
  3

  2
MODELNUMBER
 70
     0
1001
ACDBATTR
1070
     0
1070
     1
  0
ATTDEF
  5
12CA8
  8
DEFPOINTS
 10
4383.2472869349057873
 20
225.9854829236847138
 30
0.0
 40
0.001
  1
C3
  3

  2
TRADENAME
 70
     0
1001
ACDBATTR
1070
     0
1070
     1
  0
ATTDEF
  5
12CA9
  8
DEFPOINTS
 10
4383.2472869349057873
 20
225.9838162570181055
 30
0.0
 40
0.001
  1
TOILET SEAT
  3

  2
PRODUCT
 70
     0
1001
ACDBATTR
1070
     0
1070
     1
  0
ARC
  5
13FEF
  8
0
 10
4382.9171310771089338
 20
215.6128765233007982
 30
0.0
 40
10.3096338143805699
 50
89.2173256981280502
 51
104.5013266990020071
  0
ARC
  5
13FF0
  8
0
 10
4381.7793144004472197
 20
220.0120669396009987
 30
0.0
 40
5.7656814479316312
 50
104.5013266990020071
 51
115.7226742813914058
  0
ARC
  5
13FF1
  8
0
 10
4379.5866551801927926
 20
223.6754068503356905
 30
0.0
 40
1.489088408822524
 50
133.8267139055610073
 51
140.9151420644901123
  0
ARC
  5
13FF2
  8
0
 10
4380.135062223604109
 20
223.0527151226675073
 30
0.0
 40
2.318354967454439
 50
98.3317918303198724
 51
132.9478514172486996
  0
ARC
  5
13FF3
  8
0
 10
4379.9152303747277983
 20
224.5716377584809038
 30
0.0
 40
0.7836132313358183
 50
90.9792494785191082
 51
98.5210351048671953
  0
LINE
  5
13FF4
  8
0
 10
4379.9018381930172836
 20
225.3551365432875002
 30
0.0
 11
4380.2904719833168201
 21
225.3525581124874861
 31
0.0
  0
LINE
  5
13FF5
  8
0
 10
4380.2904719833168201
 20
225.3525581124874861
 30
0.0
 11
4380.2894333790172823
 21
225.1960145516875116
 31
0.0
  0
ARC
  5
13FF6
  8
0
 10
4383.1706906103418078
 20
217.7993453136859898
 30
0.0
 40
8.3011573232584546
 50
124.8193531741536049
 51
125.2504079603785954
  0
ARC
  5
13FF7
  8
0
 10
4381.7005643884249366
 20
219.8794943785669034
 30
0.0
 40
5.7539448781542912
 50
125.2504079603785954
 51
137.8017200906477058
  0
ARC
  5
13FF8
  8
0
 10
4382.2638228901187176
 20
219.4270288884947036
 30
0.0
 40
6.4752847671300469
 50
138.183461196095692
 51
162.5202499517343142
  0
ARC
  5
13FF9
  8
0
 10
4383.8967226393988312
 20
218.8275760049546932
 30
0.0
 40
8.2132416608052647
 50
161.9530894512880081
 51
169.853220781803401
  0
ARC
  5
13FFA
  8
0
 10
4384.2172297318284109
 20
218.7824953675138886
 30
0.0
 40
8.5366863533800288
 50
169.9343541467376042
 51
172.995132440544694
  0
ARC
  5
13FFB
  8
0
 10
4383.321426344487918
 20
218.9253802838456977
 30
0.0
 40
7.630213609121979
 50
173.2397176488939863
 51
180.8831759590073887
  0
ARC
  5
13FFC
  8
0
 10
4393.9029075173302772
 20
219.306465292975389
 30
0.0
 40
18.2176153236712608
 50
181.5686293888180103
 51
187.1040997187901098
  0
ARC
  5
13FFD
  8
0
 10
4407.4619810203903398
 20
221.0990591328749986
 30
0.0
 40
31.8944545190590105
 50
187.2872412686365919
 51
194.293797352761004
  0
ARC
  5
13FFE
  8
0
 10
4394.7274417405369604
 20
217.9810567472136995
 30
0.0
 40
18.784728886729539
 50
194.667763719122803
 51
205.2672127559490036
  0
ARC
  5
13FFF
  8
0
 10
4387.2323819420607833
 20
214.2801251148179063
 30
0.0
 40
10.4280824473823408
 50
204.455899428535588
 51
223.3958287402620044
  0
ARC
  5
14000
  8
0
 10
4383.5256916529797309
 20
210.8690061709916961
 30
0.0
 40
5.3915820827120138
 50
224.1187029574120118
 51
240.4697261484332955
  0
LINE
  5
14001
  8
0
 10
4376.8015945309171002
 20
211.3271646886875033
 30
0.0
 11
4376.7828061125392196
 21
211.3762031729457078
 31
0.0
  0
ARC
  5
14002
  8
0
 10
4376.8529654065878276
 20
212.701854905702703
 30
0.0
 40
1.375649722721723
 50
267.8599066125748891
 51
269.9195468657936203
  0
ARC
  5
14003
  8
0
 10
4379.0744627154108457
 20
202.1028285079231921
 30
0.0
 40
9.5002267214968334
 50
103.6175386188429997
 51
103.8418997367181049
  0
ARC
  5
14004
  8
0
 10
4395.1819888788786557
 20
218.3035597943616892
 30
0.0
 40
19.6596401103361202
 50
200.8406399279880929
 51
206.7213800059917901
  0
ARC
  5
14005
  8
0
 10
4386.7591229168147038
 20
214.1822893692755088
 30
0.0
 40
10.2837152002620904
 50
207.3132375073163018
 51
224.1570861994318875
  0
ARC
  5
14006
  8
0
 10
4382.9176407660143013
 20
211.1561705646876135
 30
0.0
 40
5.6155696877624051
 50
253.2278625452030951
 51
291.5230698914730851
  0
ARC
  5
14007
  8
0
 10
4383.3762876645287179
 20
211.0434379750963103
 30
0.0
 40
5.6711132739752053
 50
225.2145697283123127
 51
238.6006130184192102
  0
ARC
  5
14008
  8
0
 10
4382.8791432835414525
 20
210.1683743450307134
 30
0.0
 40
4.6652914697179568
 50
238.2129164529249863
 51
250.1783941350334999
  0
LINE
  5
14009
  8
0
 10
4376.8086089600174091
 20
211.3092507058875071
 30
0.0
 11
4376.8087533411171535
 21
211.3092962082876056
 31
0.0
  0
LINE
  5
1400A
  8
0
 10
4376.8087533411171535
 20
211.3092962082876056
 30
0.0
 11
4376.8618811414171432
 21
211.3144795119875141
 31
0.0
  0
ARC
  5
1400B
  8
0
 10
4376.864590343711825
 20
211.3142850546263958
 30
0.0
 40
0.0027161720748938
 50
108.7983121936322988
 51
175.894543697217614
  0
ARC
  5
1400C
  8
0
 10
4369.859225020224585
 20
200.8662672334610022
 30
0.0
 40
12.5778508724191198
 50
54.8119146943453828
 51
56.1690067048124533
  0
ARC
  5
1400D
  8
0
 10
4373.8980774396522975
 20
206.5942339375289123
 30
0.0
 40
5.5691468960180641
 50
52.5985524176482571
 51
54.8119146943453828
  0
ARC
  5
1400E
  8
0
 10
4366.7298767344163934
 20
197.5859739178802101
 30
0.0
 40
17.0655152863540813
 50
53.5714665364796971
 51
54.2890328889688405
  0
ARC
  5
1400F
  8
0
 10
4392.6750729101122488
 20
235.0333527046672089
 30
0.0
 40
28.4958092701169114
 50
233.0911060964922967
 51
235.8799644041536112
  0
ARC
  5
14010
  8
0
 10
4379.8806504483336539
 20
217.8953933780647958
 30
0.0
 40
7.1090940044752786
 50
226.993140947592309
 51
232.5930715640502058
  0
ARC
  5
14011
  8
0
 10
4377.660922472627135
 20
215.5401807470771018
 30
0.0
 40
3.8727839580190881
 50
197.0926633521210931
 51
227.241210735362813
  0
ARC
  5
14012
  8
0
 10
4384.450631488189174
 20
217.4731601727982877
 30
0.0
 40
10.9317354375035798
 50
183.2881484696424934
 51
196.3168518729756897
  0
ARC
  5
14013
  8
0
 10
4377.1381939545308342
 20
217.0234690498091936
 30
0.0
 40
3.6056640907378381
 50
169.8228536669763002
 51
182.8189365093782897
  0
ARC
  5
14014
  8
0
 10
4375.1507670333558053
 20
217.3575389674604992
 30
0.0
 40
1.5906364983347061
 50
129.1135737546713926
 51
169.0178001024432035
  0
ARC
  5
14015
  8
0
 10
4376.9032515633898583
 20
215.4036519541753023
 30
0.0
 40
4.2141409794320781
 50
124.9668213455628063
 51
130.8421553066534955
  0
ARC
  5
14016
  8
0
 10
4391.021112845510288
 20
194.6608328090082978
 30
0.0
 40
29.3052544556838583
 50
122.1623029727128937
 51
124.3443155965825042
  0
ARC
  5
14017
  8
0
 10
4375.3785248769308964
 20
219.5284243986322963
 30
0.0
 40
0.073245459776228
 50
305.7869381853925006
 51
321.2157908246830971
  0
ARC
  5
14018
  8
0
 10
4375.6086675156202546
 20
219.387016946292789
 30
0.0
 40
0.1976631934529824
 50
141.3331127107009024
 51
151.0999461033246121
  0
ARC
  5
14019
  8
0
 10
4375.4676770020942058
 20
219.5009406022421956
 30
0.0
 40
0.0164230304981641
 50
103.8719222484785973
 51
144.3381559138258012
  0
LINE
  5
1401A
  8
0
 10
4375.463739542516123
 20
219.5168846400875111
 30
0.0
 11
4375.5144181807172572
 21
219.5325692029875029
 31
0.0
  0
LINE
  5
1401B
  8
0
 10
4375.5144181807172572
 20
219.5325692029875029
 30
0.0
 11
4375.7189595103700412
 21
219.5755016240287034
 31
0.0
  0
ARC
  5
1401C
  8
0
 10
4383.2354403740346243
 20
218.9900725206861125
 30
0.0
 40
7.6784373580168968
 50
174.7172670189032999
 51
175.8500845198396121
  0
LINE
  5
1401D
  8
0
 10
4375.5896172527727686
 20
219.6970301285882954
 30
0.0
 11
4375.650796323022405
 21
219.7113793196074027
 31
0.0
  0
LINE
  5
1401E
  8
0
 10
4375.5823625480170449
 20
219.8232769678874945
 30
0.0
 11
4375.6361943326173787
 21
219.7481563180874957
 31
0.0
  0
LINE
  5
1401F
  8
0
 10
4375.6422227613165887
 20
219.7094315094875014
 30
0.0
 11
4375.6436181693161416
 21
219.7239315297875066
 31
0.0
  0
ARC
  5
14020
  8
0
 10
4375.6043120148642629
 20
219.7251358493207931
 30
0.0
 40
0.0393245999778822
 50
358.2450370194206926
 51
35.8309798783100319
  0
LINE
  5
14021
  8
0
 10
4375.5823625480170449
 20
219.8232769678874945
 30
0.0
 11
4375.6116867983173506
 21
220.0007924548874882
 31
0.0
  0
LINE
  5
14022
  8
0
 10
4375.636524194616868
 20
219.9966894999874967
 30
0.0
 11
4375.605860250517253
 21
220.001754957587508
 31
0.0
  0
LINE
  5
14023
  8
0
 10
4375.605860250517253
 20
220.001754957587508
 30
0.0
 11
4375.7127622219177283
 21
220.6488901898875099
 31
0.0
  0
LINE
  5
14024
  8
0
 10
4375.7127622219177283
 20
220.6488901898875099
 30
0.0
 11
4375.7437622028182886
 21
220.6437692215874904
 31
0.0
  0
LINE
  5
14025
  8
0
 10
4375.718588769616872
 20
220.6479276871874902
 30
0.0
 11
4375.7479130198171333
 21
220.8254431740874963
 31
0.0
  0
LINE
  5
14026
  8
0
 10
4375.7479130198171333
 20
220.8254431740874963
 30
0.0
 11
4375.8415304571926754
 21
220.8923429661051898
 31
0.0
  0
LINE
  5
14027
  8
0
 10
4375.5922258349173717
 20
219.8829847575875931
 30
0.0
 11
4375.6014852988455459
 21
219.881455162418689
 31
0.0
  0
LINE
  5
14028
  8
0
 10
4375.6012913526183183
 20
219.8811475038874903
 30
0.0
 11
4375.5911928556179191
 21
219.820015872287513
 31
0.0
  0
LINE
  5
14029
  8
0
 10
4375.5911928556179191
 20
219.820015872287513
 30
0.0
 11
4375.6441555435167174
 21
219.7460920428875113
 31
0.0
  0
LINE
  5
1402A
  8
0
 10
4375.6514725757169799
 20
219.719199756987507
 30
0.0
 11
4375.650796323022405
 21
219.7113793196074027
 31
0.0
  0
ARC
  5
1402B
  8
0
 10
4375.6114494002304127
 20
219.7227515612906927
 30
0.0
 40
0.0401804665221842
 50
354.9286462765875854
 51
35.5132531625263326
  0
ARC
  5
1402C
  8
0
 10
4367.7870270946223172
 20
221.6288526938724033
 30
0.0
 40
8.0181481374936965
 50
349.0012612101730269
 51
352.2384774242377148
  0
ARC
  5
1402D
  8
0
 10
4371.7123945498733519
 20
220.8689907982856937
 30
0.0
 40
4.0199133104804616
 50
347.4674010014343821
 51
348.9584121893433917
  0
ARC
  5
1402E
  8
0
 10
4374.3404618210333865
 20
220.2783054758409094
 30
0.0
 40
1.3263051059539901
 50
343.7980949046831824
 51
347.7409974613415216
  0
ARC
  5
1402F
  8
0
 10
4375.4976850353541522
 20
219.9466753108928003
 30
0.0
 40
0.122589406017207
 50
327.68790644447148
 51
341.7259097680741888
  0
LINE
  5
14030
  8
0
 10
4375.6111860991168214
 20
220.0339951882874914
 30
0.0
 11
4375.4946551449165781
 21
220.0532452430875026
 31
0.0
  0
LINE
  5
14031
  8
0
 10
4375.4946551449165781
 20
220.0532452430875026
 30
0.0
 11
4375.5909054192170515
 21
220.6359000140874969
 31
0.0
  0
LINE
  5
14032
  8
0
 10
4375.5909054192170515
 20
220.6359000140874969
 30
0.0
 11
4375.7074363734172948
 21
220.6166499592875994
 31
0.0
  0
ARC
  5
14033
  8
0
 10
4371.6122441769111902
 20
221.1030624972482883
 30
0.0
 40
4.1569690294079509
 50
352.2988056805987185
 51
353.6565792191087212
  0
ARC
  5
14034
  8
0
 10
4374.3675908692221128
 20
220.8015782600411967
 30
0.0
 40
1.385189962433492
 50
353.4583224530786083
 51
357.7685487011494274
  0
ARC
  5
14035
  8
0
 10
4375.7023366159355646
 20
220.7518273141118073
 30
0.0
 40
0.0495706455239349
 50
355.1590548736642177
 51
22.2379410700811206
  0
LINE
  5
14036
  8
0
 10
4375.7482202056171445
 20
220.7705875138875058
 30
0.0
 11
4375.7583157284170738
 21
220.8317006685875015
 31
0.0
  0
LINE
  5
14037
  8
0
 10
4375.7583157284170738
 20
220.8317006685875015
 30
0.0
 11
4375.8354695916168566
 21
220.8869782668874961
 31
0.0
  0
ARC
  5
14038
  8
0
 10
4375.8121242239567437
 20
220.9194591521628865
 30
0.0
 40
0.040000176242929
 50
305.7063789498342885
 51
345.5445489121639753
  0
LINE
  5
14039
  8
0
 10
4375.8508580755997173
 20
220.9094740213973012
 30
0.0
 11
4375.8522843447171908
 21
220.9149683682875036
 31
0.0
  0
ARC
  5
1403A
  8
0
 10
4376.1440232307732003
 20
221.3162698775988986
 30
0.0
 40
0.4961395761401811
 50
229.3726206729272974
 51
233.9835311915375939
  0
LINE
  5
1403B
  8
0
 10
4375.8209684115172422
 20
220.9397196647875035
 30
0.0
 11
4375.8377116131041475
 21
220.9985073420440074
 31
0.0
  0
ARC
  5
1403C
  8
0
 10
4375.8380095673937831
 20
220.9997365159142078
 30
0.0
 40
0.0012647707946584
 50
256.374204981006983
 51
306.2277069580878788
  0
ARC
  5
1403D
  8
0
 10
4375.8213029060980261
 20
221.0163310271530861
 30
0.0
 40
0.0247977208780817
 50
314.7375567958654869
 51
335.352877847971115
  0
ARC
  5
1403E
  8
0
 10
4371.9008222806169215
 20
222.5374135146169863
 30
0.0
 40
4.2299714770265506
 50
338.7743954258775148
 51
345.1651172627593951
  0
LINE
  5
1403F
  8
0
 10
4375.9897990341178229
 20
221.454395598887487
 30
0.0
 11
4375.9840617498166466
 21
221.4567379443874984
 31
0.0
  0
ARC
  5
14040
  8
0
 10
4385.0313330473409223
 20
218.050044524602697
 30
0.0
 40
9.6674028563726431
 50
155.0045533452507982
 51
159.3664488761058919
  0
LINE
  5
14041
  8
0
 10
4376.2693658980178952
 20
222.1349692070874937
 30
0.0
 11
4376.2809554010173088
 21
222.1441781342875004
 31
0.0
  0
ARC
  5
14042
  8
0
 10
4387.6232109800830585
 20
216.6959955944145122
 30
0.0
 40
12.5829032662831004
 50
151.004192100517912
 51
154.3429850413396025
  0
LINE
  5
14043
  8
0
 10
4376.6175095046173738
 20
222.7955029221876089
 30
0.0
 11
4376.6169461390172728
 21
222.8047914510875103
 31
0.0
  0
ARC
  5
14044
  8
0
 10
4381.1765466683473278
 20
220.1863283976495893
 30
0.0
 40
5.2579754420580711
 50
135.0406745412365126
 51
150.1323404908648058
  0
LINE
  5
14045
  8
0
 10
4377.4559581249177427
 20
223.901638161287508
 30
0.0
 11
4377.4735963712228113
 21
223.9136651281660875
 31
0.0
  0
LINE
  5
14046
  8
0
 10
4377.4735963712228113
 20
223.9136651281660875
 30
0.0
 11
4377.7855406753178613
 21
224.2107351434875113
 31
0.0
  0
LINE
  5
14047
  8
0
 10
4377.7855406753178613
 20
224.2107351434875113
 30
0.0
 11
4377.797959412317141
 21
224.2280476634875015
 31
0.0
  0
LINE
  5
14048
  8
0
 10
4377.797959412317141
 20
224.2280476634875015
 30
0.0
 11
4377.7540719226171859
 21
224.272521384987499
 31
0.0
  0
LINE
  5
14049
  8
0
 10
4377.7540719226171859
 20
224.272521384987499
 30
0.0
 11
4377.417613788817107
 21
223.9404983580874955
 31
0.0
  0
LINE
  5
1404A
  8
0
 10
4377.417613788817107
 20
223.9404983580874955
 30
0.0
 11
4377.4559581249177427
 21
223.901638161287508
 31
0.0
  0
ARC
  5
1404B
  8
0
 10
4380.8756170328188091
 20
220.971199083629898
 30
0.0
 40
4.4809640823693133
 50
125.2540053911904039
 51
133.379645056145705
  0
LINE
  5
1404C
  8
0
 10
4378.2891943577178608
 20
224.6303597596875079
 30
0.0
 11
4378.297456076117669
 21
224.6316114963875066
 31
0.0
  0
ARC
  5
1404D
  8
0
 10
4382.0470285675610285
 20
219.377411323621601
 30
0.0
 40
6.4549138897501139
 50
119.3803022937125036
 51
125.5129201911541941
  0
ARC
  5
1404E
  8
0
 10
4374.746539561737336
 20
213.5876372320232122
 30
0.0
 40
0.2762196927976487
 50
218.1302958856765883
 51
310.5507607497946765
  0
ARC
  5
1404F
  8
0
 10
4374.6096292760312281
 20
213.7012901889256113
 30
0.0
 40
0.4525896870293554
 50
314.3692175453638242
 51
322.6563800793820178
  0
ARC
  5
14050
  8
0
 10
4324.4397500540981127
 20
253.1454353105173993
 30
0.0
 40
64.271484453884284
 50
321.8310101596002255
 51
322.9265205175175879
  0
ARC
  5
14051
  8
0
 10
4375.0532082691788673
 20
214.8033352592563006
 30
0.0
 40
0.7788912005437636
 50
328.8211268846521875
 51
10.2219723881132705
  0
ARC
  5
14052
  8
0
 10
4421.081666141041751
 20
224.8239355955275869
 30
0.0
 40
46.3282163697092031
 50
189.3709073874597948
 51
192.3165302340933067
  0
ARC
  5
14053
  8
0
 10
4374.5860773274980602
 20
217.1915848041494996
 30
0.0
 40
0.7906446454293442
 50
6.4602925071271393
 51
67.1569534652227418
  0
LINE
  5
14054
  8
0
 10
4374.8930122916171968
 20
217.9202209860874859
 30
0.0
 11
4374.1806829497172657
 21
218.2329856422875025
 31
0.0
  0
ARC
  5
14055
  8
0
 10
4374.068269410042376
 20
217.9769609887659101
 30
0.0
 40
0.2796165715996422
 50
66.2950139615904419
 51
146.1053764179478094
  0
ARC
  5
14056
  8
0
 10
4375.0999307058682462
 20
217.4093926577488958
 30
0.0
 40
1.4562095782240629
 50
150.2089280171649932
 51
165.8478938808108865
  0
ARC
  5
14057
  8
0
 10
4376.1490137138052887
 20
217.1492269761602927
 30
0.0
 40
2.537066219735296
 50
165.9433748402971958
 51
178.062420154174589
  0
ARC
  5
14058
  8
0
 10
4378.3676160851237
 20
217.0653698702764984
 30
0.0
 40
4.7572435163418278
 50
177.9564740233172984
 51
183.5343659338817872
  0
ARC
  5
14059
  8
0
 10
4384.5100797523236906
 20
217.5348141384534131
 30
0.0
 40
10.9173341927396201
 50
184.0061043968688068
 51
189.4654694555773915
  0
ARC
  5
1405A
  8
0
 10
4387.0528505818547274
 20
217.8526164998617958
 30
0.0
 40
13.4781551279754392
 50
189.0204212695664978
 51
191.3079276467151999
  0
ARC
  5
1405B
  8
0
 10
4378.9915981041485793
 20
216.1363663327391862
 30
0.0
 40
5.2378644325260177
 50
190.1891659253996067
 51
207.4550118850285116
  0
ARC
  5
1405C
  8
0
 10
4377.2465434745981838
 20
215.2829420569557044
 30
0.0
 40
3.2962156396343412
 50
208.2764429920497093
 51
214.4759609420009951
  0
CIRCLE
  5
1405D
  8
0
 10
4373.9616918348174295
 20
217.4684118683375971
 30
0.0
 40
0.2496092447143062
  0
CIRCLE
  5
1405E
  8
0
 10
4374.644893709482858
 20
216.9676594362709068
 30
0.0
 40
0.2496092447143062
  0
CIRCLE
  5
1405F
  8
0
 10
4373.9346680040580395
 20
216.623417281403789
 30
0.0
 40
0.2496092447143062
  0
CIRCLE
  5
14060
  8
0
 10
4374.8548148650852454
 20
215.8936208908667993
 30
0.0
 40
0.2496092447143062
  0
CIRCLE
  5
14061
  8
0
 10
4374.0796691274554178
 20
215.627482720680689
 30
0.0
 40
0.2496092447143062
  0
CIRCLE
  5
14062
  8
0
 10
4374.2904342969150093
 20
214.7244746838483991
 30
0.0
 40
0.2496092447143062
  0
CIRCLE
  5
14063
  8
0
 10
4375.1095535932299754
 20
214.7640226002912129
 30
0.0
 40
0.2496092447143062
  0
CIRCLE
  5
14064
  8
0
 10
4374.6418952665571851
 20
213.8607670096996003
 30
0.0
 40
0.2496092447143062
  0
CIRCLE
  5
14065
  8
0
 10
4374.8153281753566262
 20
213.4793776719502034
 30
0.0
 40
0.0394627590917404
  0
CIRCLE
  5
14066
  8
0
 10
4374.9075277062211171
 20
213.6015886222022004
 30
0.0
 40
0.0331893787630532
  0
CIRCLE
  5
14067
  8
0
 10
4374.9988633428683897
 20
213.722486293337596
 30
0.0
 40
0.0263590388665601
  0
CIRCLE
  5
14068
  8
0
 10
4374.4643194673908511
 20
214.3426747334920037
 30
0.0
 40
0.0394627590917404
  0
CIRCLE
  5
14069
  8
0
 10
4374.5565189982562515
 20
214.4648856837440007
 30
0.0
 40
0.0331893787630532
  0
CIRCLE
  5
1406A
  8
0
 10
4374.6478546349007956
 20
214.585783354879311
 30
0.0
 40
0.0263590388665601
  0
CIRCLE
  5
1406B
  8
0
 10
4374.2546413894442594
 20
215.2450717938932883
 30
0.0
 40
0.0394627590917404
  0
CIRCLE
  5
1406C
  8
0
 10
4374.3468409203087504
 20
215.3672827441453137
 30
0.0
 40
0.0331893787630532
  0
CIRCLE
  5
1406D
  8
0
 10
4374.438176556954204
 20
215.4881804152805955
 30
0.0
 40
0.0263590388665601
  0
CIRCLE
  5
1406E
  8
0
 10
4375.0282955992570351
 20
215.5124873586688068
 30
0.0
 40
0.0394627590917404
  0
CIRCLE
  5
1406F
  8
0
 10
4375.1204951301224355
 20
215.6346983089208038
 30
0.0
 40
0.0331893787630532
  0
CIRCLE
  5
14070
  8
0
 10
4375.2118307667678891
 20
215.7555959800561141
 30
0.0
 40
0.0263590388665601
  0
CIRCLE
  5
14071
  8
0
 10
4374.1114432825934273
 20
216.245560656139105
 30
0.0
 40
0.0394627590917404
  0
CIRCLE
  5
14072
  8
0
 10
4374.2036428134579182
 20
216.3677716063911873
 30
0.0
 40
0.0331893787630532
  0
CIRCLE
  5
14073
  8
0
 10
4374.2949784501042814
 20
216.4886692775264123
 30
0.0
 40
0.0263590388665601
  0
CIRCLE
  5
14074
  8
0
 10
4374.8185297721483948
 20
216.5899441229437912
 30
0.0
 40
0.0394627590917404
  0
CIRCLE
  5
14075
  8
0
 10
4374.9107293030128858
 20
216.7121550731959019
 30
0.0
 40
0.0331893787630532
  0
CIRCLE
  5
14076
  8
0
 10
4375.0020649396601584
 20
216.8330527443312121
 30
0.0
 40
0.0263590388665601
  0
CIRCLE
  5
14077
  8
0
 10
4374.135308351459571
 20
217.0887168985410938
 30
0.0
 40
0.0394627590917404
  0
CIRCLE
  5
14078
  8
0
 10
4374.2275078823258809
 20
217.2109278487932045
 30
0.0
 40
0.0331893787630532
  0
CIRCLE
  5
14079
  8
0
 10
4374.3188435189713346
 20
217.331825519928401
 30
0.0
 40
0.0263590388665601
  0
CIRCLE
  5
1407A
  8
0
 10
4375.3259101898156587
 20
214.4426073725969957
 30
0.0
 40
0.0394627590917404
  0
CIRCLE
  5
1407B
  8
0
 10
4375.4624647286018444
 20
214.6240924718246958
 30
0.0
 40
0.0394627590917404
  0
ARC
  5
1407C
  8
0
 10
4383.2472846322816622
 20
214.4641246757780948
 30
0.0
 40
11.1320413377369398
 50
74.591086602276107
 51
105.408913397723893
  0
ARC
  5
1407D
  8
0
 10
4383.5774381874543906
 20
215.6128765233007982
 30
0.0
 40
10.3096338143805699
 50
75.4986733009979218
 51
90.782674301871964
  0
ARC
  5
1407E
  8
0
 10
4384.7152548641161047
 20
220.0120669396009987
 30
0.0
 40
5.7656814479316312
 50
64.2773257186085942
 51
75.4986733009979218
  0
ARC
  5
1407F
  8
0
 10
4386.9079140843696223
 20
223.6754068503356905
 30
0.0
 40
1.489088408822524
 50
39.0848579355098522
 51
46.17328609443895
  0
ARC
  5
14080
  8
0
 10
4386.3595070409601249
 20
223.0527151226675073
 30
0.0
 40
2.318354967454439
 50
47.0521485827512933
 51
81.6682081696801134
  0
ARC
  5
14081
  8
0
 10
4386.5793388898337071
 20
224.5716377584809038
 30
0.0
 40
0.7836132313358183
 50
81.4789648951328189
 51
89.0207505214809203
  0
LINE
  5
14082
  8
0
 10
4386.5927310715460408
 20
225.3551365432875002
 30
0.0
 11
4386.2040972812455948
 21
225.3525581124874861
 31
0.0
  0
LINE
  5
14083
  8
0
 10
4386.2040972812455948
 20
225.3525581124874861
 30
0.0
 11
4386.2051358855451326
 21
225.1960145516875116
 31
0.0
  0
ARC
  5
14084
  8
0
 10
4383.3238786542196976
 20
217.7993453136859898
 30
0.0
 40
8.3011573232584546
 50
54.7495920396214188
 51
55.1806468258464022
  0
ARC
  5
14085
  8
0
 10
4384.7940048761383878
 20
219.8794943785669034
 30
0.0
 40
5.7539448781542912
 50
42.1982799093523226
 51
54.7495920396214188
  0
ARC
  5
14086
  8
0
 10
4384.2307463744436973
 20
219.4270288884947036
 30
0.0
 40
6.4752847671300469
 50
17.4797500482657
 51
41.8165388039042227
  0
ARC
  5
14087
  8
0
 10
4382.5978466251654027
 20
218.8275760049546932
 30
0.0
 40
8.2132416608052647
 50
10.1467792181966203
 51
18.0469105487119492
  0
ARC
  5
14088
  8
0
 10
4382.2773395327349135
 20
218.7824953675138886
 30
0.0
 40
8.5366863533800288
 50
7.0048675594553274
 51
10.0656458532623798
  0
ARC
  5
14089
  8
0
 10
4383.1731429200754064
 20
218.9253802838456977
 30
0.0
 40
7.630213609121979
 50
359.1168240409925829
 51
6.760282351105924
  0
ARC
  5
1408A
  8
0
 10
4372.5916617472321377
 20
219.306465292975389
 30
0.0
 40
18.2176153236712608
 50
352.8959002812098902
 51
358.4313706111819897
  0
ARC
  5
1408B
  8
0
 10
4359.0325882441738941
 20
221.0990591328749986
 30
0.0
 40
31.8944545190590105
 50
345.7062026472390244
 51
352.7127587313634081
  0
ARC
  5
1408C
  8
0
 10
4371.767127524026364
 20
217.9810567472136995
 30
0.0
 40
18.784728886729539
 50
334.7327872440508827
 51
345.3322362808772255
  0
ARC
  5
1408D
  8
0
 10
4379.2621873225016316
 20
214.2801251148179063
 30
0.0
 40
10.4280824473823408
 50
316.6041712597379956
 51
335.544100571464412
  0
ARC
  5
1408E
  8
0
 10
4382.968877611582684
 20
210.8690061709916961
 30
0.0
 40
5.3915820827120138
 50
299.5302738515666761
 51
315.8812970425880167
  0
ARC
  5
1408F
  8
0
 10
4381.463236217222402
 20
218.050044524602697
 30
0.0
 40
9.6674028563726431
 50
20.6335511238941116
 51
24.9954466547491805
  0
LINE
  5
14090
  8
0
 10
4390.2252033665463387
 20
222.1349692070874937
 30
0.0
 11
4390.2136138635460156
 21
222.1441781342875004
 31
0.0
  0
ARC
  5
14091
  8
0
 10
4378.8713582844793564
 20
216.6959955944145122
 30
0.0
 40
12.5829032662831004
 50
25.6570149586603904
 51
28.2857139409356293
  0
ARC
  5
14092
  8
0
 10
4385.3180225962159966
 20
220.1863283976495893
 30
0.0
 40
5.2579754420580711
 50
41.2046835155342706
 51
44.959325458763459
  0
LINE
  5
14093
  8
0
 10
4389.0386111396446722
 20
223.901638161287508
 30
0.0
 11
4389.0209728933396036
 21
223.9136651281660875
 31
0.0
  0
LINE
  5
14094
  8
0
 10
4389.0209728933396036
 20
223.9136651281660875
 30
0.0
 11
4388.7090285892463726
 21
224.2107351434875113
 31
0.0
  0
LINE
  5
14095
  8
0
 10
4388.7090285892463726
 20
224.2107351434875113
 30
0.0
 11
4388.6966098522461834
 21
224.2280476634875015
 31
0.0
  0
LINE
  5
14096
  8
0
 10
4388.6966098522461834
 20
224.2280476634875015
 30
0.0
 11
4388.7404973419461385
 21
224.272521384987499
 31
0.0
  0
LINE
  5
14097
  8
0
 10
4388.7404973419461385
 20
224.272521384987499
 30
0.0
 11
4389.0769554757462174
 21
223.9404983580874955
 31
0.0
  0
LINE
  5
14098
  8
0
 10
4389.0769554757462174
 20
223.9404983580874955
 30
0.0
 11
4389.0386111396446722
 21
223.901638161287508
 31
0.0
  0
ARC
  5
14099
  8
0
 10
4385.6189522317436058
 20
220.971199083629898
 30
0.0
 40
4.4809640823693133
 50
46.6203549438542524
 51
54.7459946088096316
  0
LINE
  5
1409A
  8
0
 10
4388.2053749068445541
 20
224.6303597596875079
 30
0.0
 11
4388.1971131884456554
 21
224.6316114963875066
 31
0.0
  0
ARC
  5
1409B
  8
0
 10
4384.4475406970013864
 20
219.377411323621601
 30
0.0
 40
6.4549138897501139
 50
54.487079808845742
 51
60.619697706287468
  0
LINE
  5
1409C
  8
0
 10
4389.2170626959177753
 20
223.6297123450875119
 30
0.0
 11
4389.306397060117888
 21
223.6616280945875133
 31
0.0
  0
ARC
  5
1409D
  8
0
 10
4389.3258727927168366
 20
223.6066474533213011
 30
0.0
 40
0.0583281670751212
 50
40.7913133253552971
 51
109.5056172240406056
  0
ARC
  5
1409E
  8
0
 10
4385.5390673834717745
 20
220.2663179069762975
 30
0.0
 40
5.1076722501841019
 50
29.0983620904373907
 51
41.4086003608890394
  0
LINE
  5
1409F
  8
0
 10
4389.8900752204162927
 20
222.6366309766875133
 30
0.0
 11
4389.9703186293172621
 21
222.6652388103875069
 31
0.0
  0
ARC
  5
140A0
  8
0
 10
4389.9501698658295936
 20
222.7211997032769943
 30
0.0
 40
0.0594776781913156
 50
289.8014523048051956
 51
29.2172036279787193
  0
ARC
  5
140A1
  8
0
 10
4391.3772129343042252
 20
225.3468086089046096
 30
0.0
 40
2.7594689039039828
 50
218.481072172490002
 51
220.2179873359750104
  0
ARC
  5
140A2
  8
0
 10
4385.5714850893918992
 20
220.4430198061276087
 30
0.0
 40
4.8401120513649962
 50
27.8744518040134288
 51
40.1677593169851193
  0
ARC
  5
140A3
  8
0
 10
4390.711574110501715
 20
223.1575995134022889
 30
0.0
 40
0.9727634052827021
 50
207.6649618366332106
 51
212.3815741019265033
  0
LINE
  5
140A4
  8
0
 10
4389.8900752204162927
 20
222.6366309766875133
 30
0.0
 11
4389.9703186293172621
 21
222.6652388103875069
 31
0.0
  0
ARC
  5
140A5
  8
0
 10
4389.2778096310830733
 20
223.5881966089345951
 30
0.0
 40
0.0597902891241206
 50
40.533777206835147
 51
104.3433433059586974
  0
ARC
  5
140A6
  8
0
 10
4389.5916580585271731
 20
223.8302645839175966
 30
0.0
 40
0.3366548949703481
 50
217.1293610551288111
 51
220.7222444173403915
  0
ARC
  5
140A7
  8
0
 10
4385.5657105516029333
 20
220.4346452740522011
 30
0.0
 40
4.9300970274689657
 50
27.8959819416164905
 51
40.1060186790875335
  0
ARC
  5
140A8
  8
0
 10
4390.0971888153862892
 20
222.8311466277014006
 30
0.0
 40
0.1960736495017613
 50
207.2797562033209999
 51
213.1874573196678
  0
ARC
  5
140A9
  8
0
 10
4389.8809798192160088
 20
222.6960725274790889
 30
0.0
 40
0.0590440959941515
 50
289.6527745034322834
 51
28.0305304300624911
  0
ARC
  5
140AA
  8
0
 10
4385.5756311454797469
 20
220.4294531968087938
 30
0.0
 40
4.9304866748868799
 50
28.8142813098992185
 51
38.9773785692980823
  0
ARC
  5
140AB
  8
0
 10
4385.5714920791097029
 20
220.4177596402593906
 30
0.0
 40
4.9440735604694392
 50
28.9017992380975706
 51
39.0402978205158604
  0
ARC
  5
140AC
  8
0
 10
4385.5662781733881275
 20
220.4068369201270912
 30
0.0
 40
4.957508504693088
 50
28.9764162244284691
 51
39.0901921295573374
  0
ARC
  5
140AD
  8
0
 10
4385.5625661949552523
 20
220.3954605181220927
 30
0.0
 40
4.9705638218051433
 50
29.0622594468026811
 51
39.1527781366132004
  0
ARC
  5
140AE
  8
0
 10
4385.5575798011450388
 20
220.3847075347862869
 30
0.0
 40
4.9837146874771037
 50
29.1356557291659506
 51
39.202281385624687
  0
ARC
  5
140AF
  8
0
 10
4385.5542937028440065
 20
220.3736457971982929
 30
0.0
 40
4.9962410455144024
 50
29.2199140516488391
 51
39.2645868057041625
  0
ARC
  5
140B0
  8
0
 10
4385.5495802588584411
 20
220.3630916716892045
 30
0.0
 40
5.0090542788196624
 50
29.2921020926161688
 51
39.3137969322188567
  0
ARC
  5
140B1
  8
0
 10
4385.5430434363843233
 20
220.3498289909512948
 30
0.0
 40
5.0254897947006461
 50
29.3792766775409184
 51
39.3714378136478302
  0
ARC
  5
140B2
  8
0
 10
4385.542192719475679
 20
220.3419280898617956
 30
0.0
 40
5.0336334558378626
 50
29.4459970616781597
 51
39.4247154499459072
  0
ARC
  5
140B3
  8
0
 10
4385.5393126651497369
 20
220.3311873159057086
 30
0.0
 40
5.0456423544875282
 50
29.5278412484026411
 51
39.4860565967933823
  0
ARC
  5
140B4
  8
0
 10
4385.5353484030210893
 20
220.3211679992107008
 30
0.0
 40
5.0575365126313789
 50
29.5975409447689017
 51
39.5350255457993072
  0
ARC
  5
140B5
  8
0
 10
4385.5340153713796099
 20
220.3115141969246054
 30
0.0
 40
5.0676606448319603
 50
29.6766658703082307
 51
39.5975366074159183
  0
ARC
  5
140B6
  8
0
 10
4385.5314054056752866
 20
220.3024431932580001
 30
0.0
 40
5.0779067741480528
 50
29.7440414389758203
 51
39.6475779512909625
  0
ARC
  5
140B7
  8
0
 10
4385.5277681268316883
 20
220.2912148169124009
 30
0.0
 40
5.0908101476116814
 50
29.8250769914182499
 51
39.7067203804131026
  0
ARC
  5
140B8
  8
0
 10
4385.5251487286031988
 20
220.2821485957437062
 30
0.0
 40
5.1010604605766741
 50
29.8917835901397986
 51
39.7562407957754402
  0
ARC
  5
140B9
  8
0
 10
4385.5202292379217397
 20
220.2700364398446027
 30
0.0
 40
5.1155144615306769
 50
29.9735204882000907
 51
39.8132901624713398
  0
LINE
  5
140BA
  8
0
 10
4389.8956573678178756
 20
222.8058101332875083
 30
0.0
 11
4389.899778065116152
 21
222.8072792142874903
 31
0.0
  0
LINE
  5
140BB
  8
0
 10
4389.9032017366171203
 20
222.8084997983874871
 30
0.0
 11
4389.9072981612171134
 21
222.8099602277875135
 31
0.0
  0
LINE
  5
140BC
  8
0
 10
4389.9107020947167257
 20
222.8111737758875108
 30
0.0
 11
4389.9147753722181733
 21
222.812625952087501
 31
0.0
  0
LINE
  5
140BD
  8
0
 10
4389.9181604420173244
 20
222.8138327741874889
 30
0.0
 11
4389.9222115680167917
 21
222.8152770539875007
 31
0.0
  0
LINE
  5
140BE
  8
0
 10
4389.9255785504174128
 20
222.8164774275875004
 30
0.0
 11
4389.9296083925173662
 21
222.8179141194875115
 31
0.0
  0
LINE
  5
140BF
  8
0
 10
4389.9329579687173464
 20
222.8191082875875111
 30
0.0
 11
4389.9369672954171619
 21
222.8205376654875067
 31
0.0
  0
LINE
  5
140C0
  8
0
 10
4389.9403000675165458
 20
222.8217258426874992
 30
0.0
 11
4389.9442895590173066
 21
222.8231481489875137
 31
0.0
  0
LINE
  5
140C1
  8
0
 10
4389.9476060610168133
 20
222.8243305257875022
 30
0.0
 11
4389.9515763213166792
 21
222.8257459758874859
 31
0.0
  0
LINE
  5
140C2
  8
0
 10
4389.4085637189173212
 20
223.5307959283875903
 30
0.0
 11
4389.4115695853179204
 21
223.5318675570875939
 31
0.0
  0
LINE
  5
140C3
  8
0
 10
4389.4140699870176832
 20
223.5327589813875022
 30
0.0
 11
4389.4170651125168661
 21
223.5338267811875141
 31
0.0
  0
LINE
  5
140C4
  8
0
 10
4389.4195566085172686
 20
223.5347150308874973
 30
0.0
 11
4389.4225411014167548
 21
223.5357790404875118
 31
0.0
  0
LINE
  5
140C5
  8
0
 10
4389.4250237826163357
 20
223.5366641479874943
 30
0.0
 11
4389.4279977859177961
 21
223.5377244375875136
 31
0.0
  0
LINE
  5
140C6
  8
0
 10
4389.4304717110171623
 20
223.5386064051874939
 30
0.0
 11
4389.4334352693167602
 21
223.539662952887511
 31
0.0
  0
LINE
  5
140C7
  8
0
 10
4389.4359005975184118
 20
223.540541875387504
 30
0.0
 11
4389.4388538868170144
 21
223.5415947809875945
 31
0.0
  0
LINE
  5
140C8
  8
0
 10
4389.4413106765168777
 20
223.5424706591875008
 30
0.0
 11
4389.4442537443183028
 21
223.5435199020874961
 31
0.0
  0
LINE
  5
140C9
  8
0
 10
4389.4467020903166485
 20
223.5443927701874998
 30
0.0
 11
4389.4496350664176134
 21
223.5454384061874862
 31
0.0
  0
ARC
  5
140CA
  8
0
 10
4385.5327737796496876
 20
220.4287973560232103
 30
0.0
 40
4.8730944785584533
 50
28.3213404253361496
 51
39.5664805024850708
  0
ARC
  5
140CB
  8
0
 10
4391.2471087179355891
 20
223.5083956857731948
 30
0.0
 40
1.618249731966658
 50
208.3213404253347107
 51
209.8717601738183873
  0
ARC
  5
140CC
  8
0
 10
4390.1327069177241356
 20
222.8683169028178952
 30
0.0
 40
0.3331068524765127
 50
209.8717601738183873
 51
216.1605841340428924
  0
LINE
  5
140CD
  8
0
 10
4389.8637676306170761
 20
222.6717670744874908
 30
0.0
 11
4389.8679596991833023
 21
222.6732614417267939
 31
0.0
  0
ARC
  5
140CE
  8
0
 10
4393.080044007185279
 20
226.6588459832310036
 30
0.0
 40
4.9133663817291202
 50
219.0769635531148936
 51
219.5110804095504022
  0
ARC
  5
140CF
  8
0
 10
4389.8478991019574096
 20
224.0343101508701125
 30
0.0
 40
0.7498403491773425
 50
215.5723943056518124
 51
219.0769635531148936
  0
LINE
  5
140D0
  8
0
 10
4389.2379931043178658
 20
223.5981046679875135
 30
0.0
 11
4389.2415353268779654
 21
223.5993676832202937
 31
0.0
  0
ARC
  5
140D1
  8
0
 10
4384.3032926188006968
 20
219.1242080819650084
 30
0.0
 40
6.631003869968632
 50
2.4759293347857181
 51
20.5950757207293087
  0
ARC
  5
140D2
  8
0
 10
4382.6605885563749325
 20
218.9125026599610067
 30
0.0
 40
8.2825125110361917
 50
358.8894043988898943
 51
3.4482111758429661
  0
ARC
  5
140D3
  8
0
 10
4390.8811244577609614
 20
218.7550978502029011
 30
0.0
 40
0.0605016962654471
 50
243.5663334432277907
 51
357.0348806982929091
  0
LINE
  5
140D4
  8
0
 10
4390.8541914369989172
 20
218.7009215856247124
 30
0.0
 11
4390.8000035162976928
 21
218.7252612821594084
 31
0.0
  0
ARC
  5
140D5
  8
0
 10
4383.2472846322816622
 20
211.4792348322500004
 30
0.0
 40
5.8107448307893668
 50
245.8318219786299039
 51
294.1681780213701245
  0
LINE
  5
140D6
  8
0
 10
4383.0579588034170229
 20
225.9215484521876078
 30
0.0
 11
4383.0583719135165666
 21
225.9838146924874991
 31
0.0
  0
LINE
  5
140D7
  8
0
 10
4383.0579588034170229
 20
225.9215484521876078
 30
0.0
 11
4383.0789239519172042
 21
225.9162590580874905
 31
0.0
  0
ARC
  5
140D8
  8
0
 10
4383.1086920573261523
 20
226.1330230659781932
 30
0.0
 40
0.2187984808366151
 50
262.1805081087995859
 51
268.3776880992469955
  0
LINE
  5
140D9
  8
0
 10
4383.4366104611463015
 20
225.9215484521876078
 30
0.0
 11
4383.4361973510458483
 21
225.9838146924874991
 31
0.0
  0
LINE
  5
140DA
  8
0
 10
4383.4366104611463015
 20
225.9215484521876078
 30
0.0
 11
4383.4156453126461201
 21
225.9162590580874905
 31
0.0
  0
ARC
  5
140DB
  8
0
 10
4383.3858772072380816
 20
226.1330230659781932
 30
0.0
 40
0.2187984808366151
 50
271.6223119007531182
 51
277.8194918912003004
  0
LINE
  5
140DC
  8
0
 10
4383.4361973510458483
 20
225.9838146924874991
 30
0.0
 11
4383.0583719135165666
 21
225.9838146924874991
 31
0.0
  0
LINE
  5
140DD
  8
0
 10
4383.3920715893445958
 20
225.9143122869874958
 30
0.0
 11
4383.1024976752178191
 21
225.9143122869874958
 31
0.0
  0
ENDSEC
  0
EOF
