  0
SECTION
  2
HEADER
  9
$ACADVER
  1
AC1009
  9
$INSBASE
 10
4420.3167826170129
 20
416.35645690953129
 30
0.0
  9
$EXTMIN
 10
4411.3071981110452
 20
385.60645690953129
 30
0.0
  9
$EXTMAX
 10
4429.3263684309604
 20
416.36079425271407
 30
0.0
  9
$LIMMIN
 10
0.0
 20
0.0
  9
$LIMMAX
 10
11.692913385800001
 20
8.2677165353999982
  9
$ORTHOMODE
 70
     0
  9
$REGENMODE
 70
     1
  9
$FILLMODE
 70
     1
  9
$QTEXTMODE
 70
     0
  9
$MIRRTEXT
 70
     0
  9
$DRAGMODE
 70
     2
  9
$LTSCALE
 40
0.6431102362
  9
$OSMODE
 70
    19
  9
$ATTMODE
 70
     1
  9
$TEXTSIZE
 40
0.2
  9
$TRACEWID
 40
0.05
  9
$TEXTSTYLE
  7
STANDARD
  9
$CLAYER
  8
0
  9
$CELTYPE
  6
BYLAYER
  9
$CECOLOR
 62
   256
  9
$DIMSCALE
 40
1.0
  9
$DIMASZ
 40
0.1875
  9
$DIMEXO
 40
0.0625
  9
$DIMDLI
 40
0.4443307087
  9
$DIMRND
 40
0.0
  9
$DIMDLE
 40
0.0
  9
$DIMEXE
 40
0.125
  9
$DIMTP
 40
0.01
  9
$DIMTM
 40
0.01
  9
$DIMTXT
 40
2.0
  9
$DIMCEN
 40
0.1052362205
  9
$DIMTSZ
 40
0.0
  9
$DIMTOL
 70
     1
  9
$DIMLIM
 70
     0
  9
$DIMTIH
 70
     1
  9
$DIMTOH
 70
     1
  9
$DIMSE1
 70
     0
  9
$DIMSE2
 70
     0
  9
$DIMTAD
 70
     0
  9
$DIMZIN
 70
     0
  9
$DIMBLK
  1

  9
$DIMASO
 70
     1
  9
$DIMSHO
 70
     1
  9
$DIMPOST
  1
\X
  9
$DIMAPOST
  1

  9
$DIMALT
 70
     1
  9
$DIMALTD
 70
     2
  9
$DIMALTF
 40
25.399999999999999
  9
$DIMLFAC
 40
1.0
  9
$DIMTOFL
 70
     0
  9
$DIMTVP
 40
0.0
  9
$DIMTIX
 70
     0
  9
$DIMSOXD
 70
     0
  9
$DIMSAH
 70
     0
  9
$DIMBLK1
  1

  9
$DIMBLK2
  1

  9
$DIMSTYLE
  2
STANDARD
  9
$DIMCLRD
 70
     0
  9
$DIMCLRE
 70
     0
  9
$DIMCLRT
 70
     0
  9
$DIMTFAC
 40
1.0
  9
$DIMGAP
 40
0.09
  9
$LUNITS
 70
     2
  9
$LUPREC
 70
     4
  9
$SKETCHINC
 40
0.1
  9
$FILLETRAD
 40
0.0
  9
$AUNITS
 70
     0
  9
$AUPREC
 70
     0
  9
$MENU
  1
.
  9
$ELEVATION
 40
0.0
  9
$PELEVATION
 40
0.0
  9
$THICKNESS
 40
0.0
  9
$LIMCHECK
 70
     0
  9
$BLIPMODE
 70
     0
  9
$CHAMFERA
 40
0.0
  9
$CHAMFERB
 40
0.0
  9
$SKPOLY
 70
     0
  9
$TDCREATE
 40
2458060.4683680669
  9
$TDUPDATE
 40
2459213.730328056
  9
$TDINDWG
 40
1.1813983217999999
  9
$TDUSRTIMER
 40
1.1813983217999999
  9
$USRTIMER
 70
     1
  9
$ANGBASE
 50
0.0
  9
$ANGDIR
 70
     0
  9
$PDMODE
 70
     0
  9
$PDSIZE
 40
0.3125
  9
$PLINEWID
 40
0.0
  9
$COORDS
 70
     1
  9
$SPLFRAME
 70
     0
  9
$SPLINETYPE
 70
     6
  9
$SPLINESEGS
 70
     8
  9
$ATTDIA
 70
     1
  9
$ATTREQ
 70
     1
  9
$HANDLING
 70
     1
  9
$HANDSEED
  5
18386
  9
$SURFTAB1
 70
     6
  9
$SURFTAB2
 70
     6
  9
$SURFTYPE
 70
     6
  9
$SURFU
 70
     6
  9
$SURFV
 70
     6
  9
$UCSNAME
  2

  9
$UCSORG
 10
0.0
 20
0.0
 30
0.0
  9
$UCSXDIR
 10
1.0
 20
0.0
 30
0.0
  9
$UCSYDIR
 10
0.0
 20
1.0
 30
0.0
  9
$PUCSNAME
  2

  9
$PUCSORG
 10
0.0
 20
0.0
 30
0.0
  9
$PUCSXDIR
 10
1.0
 20
0.0
 30
0.0
  9
$PUCSYDIR
 10
0.0
 20
1.0
 30
0.0
  9
$USERI1
 70
     0
  9
$USERI2
 70
     0
  9
$USERI3
 70
     0
  9
$USERI4
 70
     0
  9
$USERI5
 70
     0
  9
$USERR1
 40
0.0
  9
$USERR2
 40
0.0
  9
$USERR3
 40
0.0
  9
$USERR4
 40
0.0
  9
$USERR5
 40
0.0
  9
$WORLDVIEW
 70
     1
  9
$SHADEDGE
 70
     3
  9
$SHADEDIF
 70
    70
  9
$TILEMODE
 70
     1
  9
$MAXACTVP
 70
    64
  9
$PLIMCHECK
 70
     0
  9
$PEXTMIN
 10
1.0000000000000000E+020
 20
1.0000000000000000E+020
 30
1.0000000000000000E+020
  9
$PEXTMAX
 10
-1.0000000000000000E+020
 20
-1.0000000000000000E+020
 30
-1.0000000000000000E+020
  9
$PLIMMIN
 10
0.0
 20
0.0
  9
$PLIMMAX
 10
12.0
 20
9.0
  9
$UNITMODE
 70
     0
  9
$VISRETAIN
 70
     1
  9
$PLINEGEN
 70
     0
  9
$PSLTSCALE
 70
     1
  0
ENDSEC
  0
SECTION
  2
TABLES
  0
TABLE
  2
VPORT
 70
     1
  0
VPORT
  2
*ACTIVE
 70
     0
 10
0.0
 20
0.0
 11
1.0
 21
1.0
 12
509.69061044374212
 22
268.4132202173198
 13
0.0
 23
0.0
 14
1.0
 24
1.0
 15
0.0
 25
0.0
 16
0.0
 26
0.0
 36
60.496018696580158
 17
3911.365356445312
 27
132.57960510253901
 37
0.0
 40
31.151212362262921
 41
2.530188679245283
 42
50.0
 43
0.0
 44
0.0
 50
0.0
 51
0.0
 71
     0
 72
   100
 73
     1
 74
     1
 75
     0
 76
     0
 77
     0
 78
     0
  0
ENDTAB
  0
TABLE
  2
LTYPE
 70
     2
  0
LTYPE
  2
CONTINUOUS
 70
     0
  3
Solid line
 72
    65
 73
     0
 40
0.0
  0
LTYPE
  2
PHANTOM2
 70
     0
  3
___ _ _ ___ _ _ ___ _ _ ___ _ _
 72
    65
 73
     6
 40
1.25
 49
0.625
 49
-0.125
 49
0.125
 49
-0.125
 49
0.125
 49
-0.125
  0
ENDTAB
  0
TABLE
  2
LAYER
 70
     2
  0
LAYER
  2
0
 70
     0
 62
   255
  6
CONTINUOUS
  0
LAYER
  2
DEFPOINTS
 70
     0
 62
     7
  6
CONTINUOUS
  0
ENDTAB
  0
TABLE
  2
STYLE
 70
     1
  0
STYLE
  2
STANDARD
 70
     0
 40
0.0
 41
0.8
 50
0.0
 71
     0
 42
0.2
  3
txt
  4

  0
ENDTAB
  0
TABLE
  2
VIEW
 70
     0
  0
ENDTAB
  0
TABLE
  2
UCS
 70
     0
  0
ENDTAB
  0
TABLE
  2
APPID
 70
    11
  0
APPID
  2
ACAD
 70
     0
  0
APPID
  2
ACAD_MLEADERVER
 70
     0
  0
APPID
  2
ACAD_EXEMPT_FROM_CAD_STANDARDS
 70
     0
  0
APPID
  2
ACAD_NAV_VCDISPLAY
 70
     0
  0
APPID
  2
ACAECLAYERSTANDARD
 70
     0
  0
APPID
  2
ACCMTRANSPARENCY
 70
     0
  0
APPID
  2
ACAD_DSTYLE_DIMJAG
 70
     0
  0
APPID
  2
ACAD_DSTYLE_DIMTALN
 70
     0
  0
APPID
  2
ACDBATTR
 70
     0
  0
APPID
  2
ACADANNOTATIVE
 70
     0
  0
APPID
  2
DCO15
 70
     0
  0
ENDTAB
  0
TABLE
  2
DIMSTYLE
 70
     1
  0
DIMSTYLE
  2
STANDARD
 70
     0
  3

  4

  5

  6

  7

 40
1.0
 41
0.1875
 42
0.0625
 43
0.38
 44
0.125
 45
0.0
 46
0.0
 47
0.01
 48
0.01
140
0.15625
141
0.09
142
0.0
143
25.399999999999999
144
1.0
145
0.0
146
1.0
147
0.09
 71
     1
 72
     0
 73
     1
 74
     1
 75
     0
 76
     0
 77
     0
 78
     4
170
     0
171
     2
172
     0
173
     0
174
     0
175
     0
176
     0
177
     0
178
     0
  0
ENDTAB
  0
ENDSEC
  0
SECTION
  2
BLOCKS
  0
BLOCK
  8
0
  2
$MODEL_SPACE
 70
     0
 10
0.0
 20
0.0
 30
0.0
  3
$MODEL_SPACE
  1

  0
ENDBLK
  5
21
  8
0
  0
BLOCK
 67
     1
  8
0
  2
$PAPER_SPACE
 70
     0
 10
0.0
 20
0.0
 30
0.0
  3
$PAPER_SPACE
  1

  0
ENDBLK
  5
1D
 67
     1
  8
0
  0
ENDSEC
  0
SECTION
  2
ENTITIES
  0
ATTDEF
  5
159BF
  8
DEFPOINTS
 10
4420.3167825821811
 20
416.3597942527141
 30
0.0
 40
0.001
  1
K-3998-M
  3

  2
MODELNUMBER
 70
     0
1001
ACDBATTR
1070
     0
1070
     1
  0
ATTDEF
  5
159C0
  8
DEFPOINTS
 10
4420.3166567725239
 20
416.35812741233491
 30
0.0
 40
0.001
  1
WELLWORTH
  3

  2
TRADENAME
 70
     0
1001
ACDBATTR
1070
     0
1070
     1
  0
ATTDEF
  5
159C1
  8
DEFPOINTS
 10
4420.3167825821811
 20
416.35646091938082
 30
0.0
 40
0.001
  1
TOILET
  3

  2
PRODUCT
 70
     0
1001
ACDBATTR
1070
     0
1070
     1
  0
LINE
  5
181D5
  8
0
 10
4422.2969954419632
 20
405.87188032073118
 30
0.0
 11
4422.2875617001391
 21
404.79088418703122
 31
0.0
  0
LINE
  5
181D6
  8
0
 10
4423.8365701937628
 20
405.87188027703132
 30
0.0
 11
4423.8460038729627
 21
404.79088411413119
 31
0.0
  0
ARC
  5
181D7
  8
0
 10
4423.0667904210932
 20
870.96517941499906
 30
0.0
 40
464.60046917489848
 50
269.96557464477848
 51
270.03442342584071
  0
ARC
  5
181D8
  8
0
 10
4422.7969763950041
 20
405.86751600219111
 30
0.0
 40
0.5000000006789265
 50
127.913366883411
 51
179.49987958432271
  0
ARC
  5
181D9
  8
0
 10
4422.8067036977691
 20
405.82655172681638
 30
0.0
 40
0.5385798064659432
 50
92.028282184504036
 51
126.0516520790804
  0
ARC
  5
181DA
  8
0
 10
4423.3192818737734
 20
405.80458731406179
 30
0.0
 40
0.5608399079052008
 50
54.642848258063282
 51
87.277264219402454
  0
ARC
  5
181DB
  8
0
 10
4423.3365851592334
 20
405.8675139711147
 30
0.0
 40
0.5000040993657935
 50
0.5003440593076255
 51
52.086402730927809
  0
LINE
  5
181DC
  8
0
 10
4422.2875617001637
 20
404.79088418703122
 30
0.0
 11
4422.3630945557643
 21
404.7908837645312
 31
0.0
  0
LINE
  5
181DD
  8
0
 10
4422.6182518545638
 20
404.79417739823123
 30
0.0
 11
4423.5153135713635
 21
404.79417737453122
 31
0.0
  0
LINE
  5
181DE
  8
0
 10
4423.7704710171638
 20
404.79088372453123
 30
0.0
 11
4423.8460038727644
 21
404.79088414273127
 31
0.0
  0
ARC
  5
181DF
  8
0
 10
4422.422410060095
 20
404.77717999514078
 30
0.0
 40
0.13848040555441
 50
117.3846663774647
 51
166.55833364947139
  0
ARC
  5
181E0
  8
0
 10
4423.0667814001808
 20
355.84449090662582
 30
0.0
 40
49.060761012205461
 50
89.173049446567788
 51
90.826947308608496
  0
ARC
  5
181E1
  8
0
 10
4423.7111555215079
 20
404.7771799694064
 30
0.0
 40
0.1384803913844345
 50
13.44165530216069
 51
62.615332018159393
  0
ARC
  5
181E2
  8
0
 10
4422.3636474420337
 20
404.82348127758092
 30
0.0
 40
0.0326022014632353
 50
269.02829971607031
 51
353.17700198128711
  0
ARC
  5
181E3
  8
0
 10
4422.4152700256482
 20
404.80006599856591
 30
0.0
 40
0.0274317967747772
 50
89.060035422920365
 51
134.57053929189479
  0
LINE
  5
181E4
  8
0
 10
4422.4157200371637
 20
404.8274941039312
 30
0.0
 11
4423.717845661964
 21
404.82749406713123
 31
0.0
  0
ARC
  5
181E5
  8
0
 10
4423.7699183266577
 20
404.82348131435151
 30
0.0
 40
0.0326022749035341
 50
186.82304765830179
 51
270.97135400559142
  0
ARC
  5
181E6
  8
0
 10
4423.7182958054746
 20
404.80006620032913
 30
0.0
 40
0.0274315604094531
 50
45.429361362980657
 51
90.940248408467809
  0
ARC
  5
181E7
  8
0
 10
4423.5153699055918
 20
404.88434278479309
 30
0.0
 40
0.0901654278603361
 50
269.96420231354551
 51
320.91346039835139
  0
ARC
  5
181E8
  8
0
 10
4423.6650961788127
 20
408.48494086731472
 30
0.0
 40
3.6938015633162049
 50
267.67603519311439
 51
270.55235128454188
  0
ARC
  5
181E9
  8
0
 10
4423.7013465901846
 20
405.44021503232688
 30
0.0
 40
0.6489044025150572
 50
269.94336431178709
 51
274.89395283401961
  0
ARC
  5
181EA
  8
0
 10
4422.6182730769688
 20
404.88450486102579
 30
0.0
 40
0.0903274652876467
 50
219.13277284322299
 51
269.98653837700812
  0
ARC
  5
181EB
  8
0
 10
4422.4684704030378
 20
408.48486592450399
 30
0.0
 40
3.6937266115919218
 50
269.44759068100967
 51
272.32399404474972
  0
ARC
  5
181EC
  8
0
 10
4422.432216979676
 20
405.44017367684489
 30
0.0
 40
0.648863005546648
 50
265.10592253145319
 51
270.05663871571318
  0
ARC
  5
181ED
  8
0
 10
4423.3517827908627
 20
404.91355345433118
 30
0.0
 40
0.1249999999999959
 50
287.25218951020781
 51
313.15390982027139
  0
ARC
  5
181EE
  8
0
 10
4422.781782790863
 20
404.9135534705311
 30
0.0
 40
0.1249999999998363
 50
226.84608693331279
 51
252.747809225569
  0
LINE
  5
181EF
  8
0
 10
4422.5667827878642
 20
404.82750267933119
 30
0.0
 11
4422.5667827877642
 21
404.82236359673118
 31
0.0
  0
LINE
  5
181F0
  8
0
 10
4422.5667827877642
 20
404.82236359673118
 30
0.0
 11
4423.5667827877642
 21
404.8223635683313
 31
0.0
  0
LINE
  5
181F1
  8
0
 10
4423.5667827877642
 20
404.8223635683313
 30
0.0
 11
4423.5667827878642
 21
404.82750265083121
 31
0.0
  0
LINE
  5
181F2
  8
0
 10
4423.9243386074641
 20
404.78372326163128
 30
0.0
 11
4424.1147098702641
 21
404.78372969013122
 31
0.0
  0
LINE
  5
181F3
  8
0
 10
4424.4336424424637
 20
404.77443003553122
 30
0.0
 11
4424.5464495071637
 21
404.77443003403118
 31
0.0
  0
LINE
  5
181F4
  8
0
 10
4423.8691788601627
 20
404.70424208613127
 30
0.0
 11
4423.8686311556639
 21
404.68659904713121
 31
0.0
  0
ARC
  5
181F5
  8
0
 10
4449.2505984318959
 20
404.30815720960919
 30
0.0
 40
25.384788378792411
 50
179.14579065878701
 51
179.85839016543019
  0
LINE
  5
181F6
  8
0
 10
4423.8743501516628
 20
404.7775871500312
 30
0.0
 11
4423.8691788601627
 21
404.70424208613127
 31
0.0
  0
ARC
  5
181F7
  8
0
 10
4423.9229415441423
 20
404.58841851011539
 30
0.0
 40
0.1953097482221241
 50
89.590156070546911
 51
104.40600704806791
  0
ARC
  5
181F8
  8
0
 10
4424.1153328474174
 20
404.53334861171282
 30
0.0
 40
0.2503818534370074
 50
25.10584998223273
 51
90.142558248366754
  0
LINE
  5
181F9
  8
0
 10
4423.8686310720641
 20
404.68659526953121
 30
0.0
 11
4424.0983525755646
 21
404.6865952630157
 31
0.0
  0
LINE
  5
181FA
  8
0
 10
4424.4015411958644
 20
404.74443341453122
 30
0.0
 11
4424.394740234864
 21
404.6474491926312
 31
0.0
  0
ARC
  5
181FB
  8
0
 10
4424.4341136840421
 20
404.7417506515946
 30
0.0
 40
0.0326827814468027
 50
90.826156404193895
 51
175.2915838841009
  0
ARC
  5
181FC
  8
0
 10
4424.547152872763
 20
404.49969184746101
 30
0.0
 40
0.2747390869225886
 50
32.762424869516671
 51
90.146684349649263
  0
LINE
  5
181FD
  8
0
 10
4423.8325893847641
 20
404.79088406853123
 30
0.0
 11
4423.8401418966641
 21
404.68462227783118
 31
0.0
  0
ARC
  5
181FE
  8
0
 10
4398.9757671972802
 20
404.32730742226619
 30
0.0
 40
24.867106713275131
 50
0.0258544891811118
 51
0.8041439643392208
  0
ARC
  5
181FF
  8
0
 10
2398.650028669756
 20
335.8002357932578
 30
0.0
 40
2026.361284029424
 50
1.9478601206857691
 51
1.948095434822499
  0
ARC
  5
18200
  8
0
 10
4423.9862123461598
 20
404.549458894596
 30
0.0
 40
0.0899591175278463
 50
90.150681524703458
 51
175.22205718621871
  0
LINE
  5
18201
  8
0
 10
4423.9859757639642
 20
404.63941770103122
 30
0.0
 11
4424.3297385027636
 21
404.63941769133118
 31
0.0
  0
ARC
  5
18202
  8
0
 10
4424.3342033960726
 20
404.87033831583108
 30
0.0
 40
0.2309637852385181
 50
268.89231344783371
 51
285.19502163434362
  0
LINE
  5
18203
  8
0
 10
4423.8965658366642
 20
404.5569519688313
 30
0.0
 11
4423.886135871463
 21
404.43773695973118
 31
0.0
  0
ARC
  5
18204
  8
0
 10
4423.7167827733028
 20
404.45255344073121
 30
0.0
 40
0.1699999998999503
 50
269.99999833544371
 51
354.99999839582722
  0
ARC
  5
18205
  8
0
 10
4426.3554334158343
 20
404.26552532091301
 30
0.0
 40
2.0099275807889252
 50
169.56596660882559
 51
183.9890168070377
  0
LINE
  5
18206
  8
0
 10
4424.3787418570637
 20
404.62952993833119
 30
0.0
 11
4424.4262127467082
 21
404.65623748904142
 31
0.0
  0
LINE
  5
18207
  8
0
 10
4424.4262127467082
 20
404.65623748904142
 30
0.0
 11
4424.546509825449
 21
404.77443018183237
 31
0.0
  0
ARC
  5
18208
  8
0
 10
4424.4193554986059
 20
404.38430255590561
 30
0.0
 40
0.2720213773054376
 50
22.205737710709592
 51
88.555506913683175
  0
ARC
  5
18209
  8
0
 10
4423.8202840357226
 20
404.68314258402359
 30
0.0
 40
0.0199129137717482
 50
4.261477133317479
 51
90.264176567217675
  0
LINE
  5
1820A
  8
0
 10
4423.8424613255329
 20
404.47055343883028
 30
0.0
 11
4423.8663295139013
 21
404.47055343813258
 31
0.0
  0
LINE
  5
1820B
  8
0
 10
4424.1091614829274
 20
404.67984228860541
 30
0.0
 11
4424.1088495586482
 21
404.63946692438208
 31
0.0
  0
ARC
  5
1820C
  8
0
 10
4424.0978380837578
 20
404.67374482706219
 30
0.0
 40
0.0128607311617274
 50
28.301723098564288
 51
92.337649649249443
  0
ARC
  5
1820D
  8
0
 10
4424.1090882898307
 20
404.4072144500168
 30
0.0
 40
0.272627848413866
 50
58.399503471574768
 51
89.984617655392384
  0
ARC
  5
1820E
  8
0
 10
4420.3167828174483
 20
443.54482538026849
 30
0.0
 40
36.471069242337308
 50
260.08393327730232
 51
279.9160667281983
  0
ARC
  5
1820F
  8
0
 10
4420.3104959448447
 20
443.44132214895848
 30
0.0
 40
36.096800271301227
 50
260.07560669230998
 51
279.94456749616319
  0
ARC
  5
18210
  8
0
 10
4417.5030275915806
 20
396.73769995255873
 30
0.0
 40
10.550610001680161
 50
339.80211374405508
 51
20.19788625594494
  0
ARC
  5
18211
  8
0
 10
4420.3167827755105
 20
391.200366828732
 30
0.0
 40
5.5939099192006756
 50
225.61781524538131
 51
314.38218475461861
  0
ARC
  5
18212
  8
0
 10
4412.3230855310421
 20
397.42057392474482
 30
0.0
 40
15.68981009269686
 50
319.3634574151402
 51
343.9965142683746
  0
ARC
  5
18213
  8
0
 10
4414.3044566169719
 20
396.07074706477408
 30
0.0
 40
11.6123788914147
 50
340.00776428557361
 51
19.992235714426389
  0
ARC
  5
18214
  8
0
 10
4420.3167832189711
 20
390.60872749730208
 30
0.0
 40
3.7157347372709011
 50
220.64489611867799
 51
319.35518286795508
  0
ARC
  5
18215
  8
0
 10
4412.1871132795368
 20
396.5218555066885
 30
0.0
 40
13.759630041094249
 50
322.72479658030102
 51
341.25699590703022
  0
ARC
  5
18216
  8
0
 10
4415.4087394016506
 20
397.05064485544551
 30
0.0
 40
11.74275549296237
 50
338.00573035836891
 51
21.994269641631181
  0
ARC
  5
18217
  8
0
 10
4420.3167828174146
 20
390.82529412734272
 30
0.0
 40
4.4718735209114042
 50
219.2225498433923
 51
320.7774501566052
  0
ARC
  5
18218
  8
0
 10
4411.5272956372492
 20
397.627079687856
 30
0.0
 40
15.58472526143203
 50
321.8384475771324
 51
341.38694149824192
  0
ARC
  5
18219
  8
0
 10
4415.4421151988408
 20
397.04374993861768
 30
0.0
 40
11.63273451682349
 50
338.92678615863838
 51
21.073213841361589
  0
ARC
  5
1821A
  8
0
 10
4420.3168296248286
 20
390.7803353273207
 30
0.0
 40
4.4061505037391031
 50
219.16550451477349
 51
320.83449548522651
  0
ARC
  5
1821B
  8
0
 10
4410.5076905089154
 20
398.07697745430949
 30
0.0
 40
16.628406121347869
 50
322.68795342406952
 51
341.71921004124653
  0
ARC
  5
1821C
  8
0
 10
4420.3147828174151
 20
391.23566677375197
 30
0.0
 40
4.9852462310206764
 50
223.74234972512781
 51
316.25765027487222
  0
ARC
  5
1821D
  8
0
 10
4411.7591393526309
 20
397.68633028408499
 30
0.0
 40
15.67675101330123
 50
320.85007105758388
 51
346.22652054670777
  0
LINE
  5
1821E
  8
0
 10
4427.4169240444644
 20
415.13679747363119
 30
0.0
 11
4413.216641590464
 21
415.13679748293117
 31
0.0
  0
ARC
  5
1821F
  8
0
 10
4414.2423772547627
 20
408.77780697832571
 30
0.0
 40
1.1773925814935391
 50
221.573514665635
 51
259.91820644806501
  0
ARC
  5
18220
  8
0
 10
4420.637195397996
 20
413.84649538519
 30
0.0
 40
9.3357974315134502
 50
182.0197788344683
 51
218.8010778752618
  0
ARC
  5
18221
  8
0
 10
4414.2397336918339
 20
408.72416208968338
 30
0.0
 40
0.8528670433248359
 50
221.5733627454677
 51
259.83842895960652
  0
ARC
  5
18222
  8
0
 10
4421.0133775472923
 20
413.98139622915278
 30
0.0
 40
9.4256245136421732
 50
178.61611616247239
 51
218.15586905728961
  0
LINE
  5
18223
  8
0
 10
4411.5905022760644
 20
414.20903430823131
 30
0.0
 11
4411.5898679814627
 21
414.62821706963121
 31
0.0
  0
ARC
  5
18224
  8
0
 10
4412.226126250097
 20
414.48867659951878
 30
0.0
 40
0.6513801710237694
 50
90.409560129536302
 51
167.6300665658294
  0
ARC
  5
18225
  8
0
 10
4412.9854632464167
 20
496.89912698806808
 30
0.0
 40
81.76265632630421
 50
269.46461843129578
 51
270.16200013152798
  0
LINE
  5
18226
  8
0
 10
4428.2577370453628
 20
415.60428984533121
 30
0.0
 11
4428.0222367695642
 21
415.60428984533121
 31
0.0
  0
LINE
  5
18227
  8
0
 10
4412.611328866964
 20
415.60428984533121
 30
0.0
 11
4412.3758285894628
 21
415.60428984533121
 31
0.0
  0
ARC
  5
18228
  8
0
 10
4412.1940740704049
 20
414.67096863553729
 30
0.0
 40
0.8868805373343224
 50
106.4385087487927
 51
179.81590499131369
  0
ARC
  5
18229
  8
0
 10
4412.3761708775264
 20
414.7039583452854
 30
0.0
 40
0.9003315651113503
 50
90.021782710467349
 51
103.16406660423669
  0
ARC
  5
1822A
  8
0
 10
4426.3911875768563
 20
408.7778074781009
 30
0.0
 40
1.1773932141786749
 50
280.08182795050448
 51
318.42648013454487
  0
ARC
  5
1822B
  8
0
 10
4419.9963698360334
 20
413.84649538519
 30
0.0
 40
9.335797431513404
 50
321.1989221247382
 51
357.9802211655317
  0
ARC
  5
1822C
  8
0
 10
4426.4060716923741
 20
408.70897121783099
 30
0.0
 40
0.8336360740035498
 50
279.54062280193148
 51
318.64946671322468
  0
ARC
  5
1822D
  8
0
 10
4419.6201876867353
 20
413.98139622915278
 30
0.0
 40
9.4256245136421732
 50
321.84413094271031
 51
1.383883837527577
  0
LINE
  5
1822E
  8
0
 10
4429.0430629579641
 20
414.20903430823131
 30
0.0
 11
4429.043697252564
 21
414.62821706963121
 31
0.0
  0
ARC
  5
1822F
  8
0
 10
4428.4074389839298
 20
414.48867659951878
 30
0.0
 40
0.6513801710237694
 50
12.3699334341706
 51
89.590439870463683
  0
ARC
  5
18230
  8
0
 10
4427.6481019876101
 20
496.89912698806808
 30
0.0
 40
81.76265632630421
 50
269.83799986847202
 51
270.53538156870422
  0
ARC
  5
18231
  8
0
 10
4428.445260706404
 20
414.67533643702222
 30
0.0
 40
0.8811077245555194
 50
359.90127582342581
 51
74.260812738489435
  0
ARC
  5
18232
  8
0
 10
4428.2573750124047
 20
414.70361953203349
 30
0.0
 40
0.9006703860590151
 50
76.745691194881132
 51
89.976969420254107
  0
ARC
  5
18233
  8
0
 10
4418.983387972251
 20
400.48563263262139
 30
0.0
 40
7.1349889416355543
 50
28.208359479620579
 51
35.691852933889137
  0
ARC
  5
18234
  8
0
 10
4424.743200845227
 20
403.59888299101488
 30
0.0
 40
0.5880476352092005
 50
1.462037294128014
 51
26.165804372549498
  0
ARC
  5
18235
  8
0
 10
4426.2539398808203
 20
403.63750770283963
 30
0.0
 40
0.9296466263912535
 50
191.24914617363771
 51
207.3195083565985
  0
ARC
  5
18236
  8
0
 10
4426.6815255003094
 20
403.62963720328031
 30
0.0
 40
1.35056030378779
 50
180.6682061847703
 51
187.3800971565847
  0
ARC
  5
18237
  8
0
 10
4412.5309322439252
 20
393.62181988367689
 30
0.0
 40
16.33744080495271
 50
24.436790826047059
 51
31.897913389685751
  0
ARC
  5
18238
  8
0
 10
4437.9188056225239
 20
409.23976902341701
 30
0.0
 40
13.470172859680771
 50
188.1746513517426
 51
211.23586490829609
  0
ARC
  5
18239
  8
0
 10
4411.9824207715947
 20
395.4865240983886
 30
0.0
 40
15.50639625080065
 50
22.611646824064369
 51
29.876866579733239
  0
ARC
  5
1823A
  8
0
 10
4440.652258294188
 20
405.78016581573428
 30
0.0
 40
16.385622953868101
 50
185.79504857717311
 51
189.1243522614393
  0
ARC
  5
1823B
  8
0
 10
4450.3987730629096
 20
407.65700179828741
 30
0.0
 40
26.3082317816095
 50
189.79407678904471
 51
196.82764391414591
  0
ARC
  5
1823C
  8
0
 10
4432.6022248187637
 20
407.77164491872821
 30
0.0
 40
8.5842469188633341
 50
202.49631378845331
 51
212.16094896603309
  0
ARC
  5
1823D
  8
0
 10
4415.1218823841473
 20
397.00918963455052
 30
0.0
 40
11.94426488934071
 50
20.675573449605409
 51
31.231488102876309
  0
LINE
  5
1823E
  8
0
 10
4425.32947561945
 20
403.64451094721062
 30
0.0
 11
4425.3859845001643
 21
403.64451094563123
 31
0.0
  0
ARC
  5
1823F
  8
0
 10
4425.3776765228868
 20
403.5339664589535
 30
0.0
 40
0.1108562403351674
 50
34.331864232456503
 51
85.702012314409913
  0
ARC
  5
18240
  8
0
 10
4415.4560964826132
 20
397.10942688404629
 30
0.0
 40
11.930825609078621
 50
14.912359864053411
 51
32.937421490163359
  0
LINE
  5
18241
  8
0
 10
4429.3263671229806
 20
414.67685463944957
 30
0.0
 11
4429.3263671229806
 21
413.51745996494759
 31
0.0
  0
LINE
  5
18242
  8
0
 10
4411.3071981110452
 20
414.6738182345926
 30
0.0
 11
4411.3071981110452
 21
413.51745996494759
 31
0.0
  0
LINE
  5
18243
  8
0
 10
4418.345522714344
 20
404.84598046583119
 30
0.0
 11
4422.2880425187068
 21
404.84598035383118
 31
0.0
  0
ARC
  5
18244
  8
0
 10
4209.5089143974537
 20
397.38882110648149
 30
0.0
 40
214.45536551005179
 50
1.947363083353568
 51
1.949586525857228
  0
LINE
  5
18245
  8
0
 10
4423.716782839163
 20
404.28255348303128
 30
0.0
 11
4416.9167824656652
 21
404.28255344083118
 31
0.0
  0
LINE
  5
18246
  8
0
 10
4423.820192293364
 20
404.70305532833117
 30
0.0
 11
4416.8133734122639
 21
404.70305552743127
 31
0.0
  0
ARC
  5
18247
  8
0
 10
4415.6519510380604
 20
397.06683421163848
 30
0.0
 40
11.75288481995385
 50
344.64127877873619
 51
15.358721221263851
  0
LINE
  5
18248
  8
0
 10
4418.3365697920644
 20
405.87188032073118
 30
0.0
 11
4418.3460035338903
 21
404.79088418703122
 31
0.0
  0
LINE
  5
18249
  8
0
 10
4416.7969950402639
 20
405.87188027703132
 30
0.0
 11
4416.787561361064
 21
404.79088411413119
 31
0.0
  0
ARC
  5
1824A
  8
0
 10
4417.5667748129354
 20
870.96517941499906
 30
0.0
 40
464.60046917489848
 50
269.9655765741594
 51
270.03442535522152
  0
ARC
  5
1824B
  8
0
 10
4417.8365888390244
 20
405.86751600219111
 30
0.0
 40
0.5000000006789265
 50
0.500120415677313
 51
52.086633116588978
  0
ARC
  5
1824C
  8
0
 10
4417.8268615362576
 20
405.82655172681638
 30
0.0
 40
0.5385798064659432
 50
53.948347920919559
 51
87.971717815495964
  0
ARC
  5
1824D
  8
0
 10
4417.3142833602551
 20
405.80458731406179
 30
0.0
 40
0.5608399079052008
 50
92.722735780597546
 51
125.3571517419367
  0
ARC
  5
1824E
  8
0
 10
4417.2969800747942
 20
405.8675139711147
 30
0.0
 40
0.5000040993657935
 50
127.9135972690722
 51
179.49965594069229
  0
LINE
  5
1824F
  8
0
 10
4418.3460035338639
 20
404.79088418703122
 30
0.0
 11
4418.2704706782642
 21
404.7908837645312
 31
0.0
  0
LINE
  5
18250
  8
0
 10
4418.0153133794638
 20
404.79417739823123
 30
0.0
 11
4417.1182516626641
 21
404.79417737453122
 31
0.0
  0
LINE
  5
18251
  8
0
 10
4416.8630942168629
 20
404.79088372453123
 30
0.0
 11
4416.7875613612641
 21
404.79088414273127
 31
0.0
  0
ARC
  5
18252
  8
0
 10
4418.2111551739335
 20
404.77717999514078
 30
0.0
 40
0.13848040555441
 50
13.4416663505286
 51
62.615333622535303
  0
ARC
  5
18253
  8
0
 10
4417.5667838338468
 20
355.84449090662582
 30
0.0
 40
49.060761012205461
 50
89.173052691391504
 51
90.826950553432226
  0
ARC
  5
18254
  8
0
 10
4416.9224097125198
 20
404.7771799694064
 30
0.0
 40
0.1384803913844345
 50
117.38466798184059
 51
166.55834469783929
  0
ARC
  5
18255
  8
0
 10
4418.269917791994
 20
404.82348127758092
 30
0.0
 40
0.0326022014632353
 50
186.82299801871289
 51
270.97170028392981
  0
ARC
  5
18256
  8
0
 10
4418.2182952083813
 20
404.80006599856591
 30
0.0
 40
0.0274317967747772
 50
45.429460708105182
 51
90.939964577079635
  0
LINE
  5
18257
  8
0
 10
4418.217845196863
 20
404.8274941039312
 30
0.0
 11
4416.9157195720627
 21
404.82749406713123
 31
0.0
  0
ARC
  5
18258
  8
0
 10
4416.863646907369
 20
404.82348131435151
 30
0.0
 40
0.0326022749035341
 50
269.02864599440858
 51
353.17695234169821
  0
ARC
  5
18259
  8
0
 10
4416.9152694285522
 20
404.80006620032913
 30
0.0
 40
0.0274315604094531
 50
89.059751591532205
 51
134.5706386370193
  0
ARC
  5
1825A
  8
0
 10
4417.1181953284358
 20
404.88434278479309
 30
0.0
 40
0.0901654278603361
 50
219.08653960164861
 51
270.0357976864546
  0
ARC
  5
1825B
  8
0
 10
4416.9684690552149
 20
408.48494086731472
 30
0.0
 40
3.6938015633162049
 50
269.447648715458
 51
272.3239648068855
  0
ARC
  5
1825C
  8
0
 10
4416.9322186438421
 20
405.44021503232688
 30
0.0
 40
0.6489044025150572
 50
265.10604716598039
 51
270.05663568821291
  0
ARC
  5
1825D
  8
0
 10
4418.015292157058
 20
404.88450486102579
 30
0.0
 40
0.0903274652876467
 50
270.01346162299183
 51
320.86722715677701
  0
ARC
  5
1825E
  8
0
 10
4418.165094830988
 20
408.48486592450399
 30
0.0
 40
3.6937266115919218
 50
267.67600595525028
 51
270.55240931899033
  0
ARC
  5
1825F
  8
0
 10
4418.2013482543516
 20
405.44017367684489
 30
0.0
 40
0.648863005546648
 50
269.9433612842347
 51
274.8940774685467
  0
ARC
  5
18260
  8
0
 10
4417.281782443164
 20
404.91355345433118
 30
0.0
 40
0.1249999999999959
 50
226.84609017972861
 51
252.74781048979219
  0
ARC
  5
18261
  8
0
 10
4417.8517824431638
 20
404.9135534705311
 30
0.0
 40
0.1249999999998363
 50
287.25219077443103
 51
313.15391306668721
  0
LINE
  5
18262
  8
0
 10
4418.0667824461643
 20
404.82750267933119
 30
0.0
 11
4418.0667824462644
 21
404.82236359673118
 31
0.0
  0
LINE
  5
18263
  8
0
 10
4418.0667824462644
 20
404.82236359673118
 30
0.0
 11
4417.0667824462653
 21
404.8223635683313
 31
0.0
  0
LINE
  5
18264
  8
0
 10
4417.0667824462653
 20
404.8223635683313
 30
0.0
 11
4417.0667824461643
 21
404.82750265083121
 31
0.0
  0
LINE
  5
18265
  8
0
 10
4416.7092266265636
 20
404.78372326163128
 30
0.0
 11
4416.5188553637627
 21
404.78372969013122
 31
0.0
  0
LINE
  5
18266
  8
0
 10
4416.1999227915639
 20
404.77443003553122
 30
0.0
 11
4416.087115726863
 21
404.77443003403118
 31
0.0
  0
LINE
  5
18267
  8
0
 10
4416.764386373864
 20
404.70424208613127
 30
0.0
 11
4416.7649340783637
 21
404.68659904713121
 31
0.0
  0
ARC
  5
18268
  8
0
 10
4391.3829668021317
 20
404.30815720960919
 30
0.0
 40
25.384788378792411
 50
0.1416098345697898
 51
0.8542093412129895
  0
LINE
  5
18269
  8
0
 10
4416.7592150823639
 20
404.7775871500312
 30
0.0
 11
4416.764386373864
 21
404.70424208613127
 31
0.0
  0
ARC
  5
1826A
  8
0
 10
4416.7106236898853
 20
404.58841851011539
 30
0.0
 40
0.1953097482221241
 50
75.593992951932094
 51
90.409843929453075
  0
ARC
  5
1826B
  8
0
 10
4416.5182323866102
 20
404.53334861171282
 30
0.0
 40
0.2503818534370074
 50
89.857441751633246
 51
154.8941500177672
  0
LINE
  5
1826C
  8
0
 10
4416.7649341619644
 20
404.68659526953121
 30
0.0
 11
4416.5352126584621
 21
404.6865952630157
 31
0.0
  0
LINE
  5
1826D
  8
0
 10
4416.2320240381641
 20
404.74443341453122
 30
0.0
 11
4416.2388249991627
 21
404.6474491926312
 31
0.0
  0
ARC
  5
1826E
  8
0
 10
4416.1994515499846
 20
404.7417506515946
 30
0.0
 40
0.0326827814468027
 50
4.7084161158958091
 51
89.17384359580609
  0
ARC
  5
1826F
  8
0
 10
4416.0864123612646
 20
404.49969184746101
 30
0.0
 40
0.2747390869225886
 50
89.853315650350737
 51
147.23757513048329
  0
LINE
  5
18270
  8
0
 10
4416.8009758492644
 20
404.79088406853123
 30
0.0
 11
4416.7934233373644
 21
404.68462227783118
 31
0.0
  0
ARC
  5
18271
  8
0
 10
4441.6577980367483
 20
404.32730742226619
 30
0.0
 40
24.867106713275131
 50
179.1958560356608
 51
179.97414551081889
  0
ARC
  5
18272
  8
0
 10
6441.9835365642721
 20
335.8002357932578
 30
0.0
 40
2026.361284029424
 50
178.05190456517749
 51
178.05213987931421
  0
ARC
  5
18273
  8
0
 10
4416.6473528878669
 20
404.549458894596
 30
0.0
 40
0.0899591175278463
 50
4.7779428137812561
 51
89.849318475296542
  0
LINE
  5
18274
  8
0
 10
4416.6475894700643
 20
404.63941770103122
 30
0.0
 11
4416.3038267312641
 21
404.63941769133118
 31
0.0
  0
ARC
  5
18275
  8
0
 10
4416.2993618379551
 20
404.87033831583108
 30
0.0
 40
0.2309637852385181
 50
254.8049783656563
 51
271.10768655216629
  0
LINE
  5
18276
  8
0
 10
4416.7369993973643
 20
404.5569519688313
 30
0.0
 11
4416.7474293625637
 21
404.43773695973118
 31
0.0
  0
ARC
  5
18277
  8
0
 10
4416.9167824607248
 20
404.45255344073121
 30
0.0
 40
0.1699999998999503
 50
185.00000160417281
 51
270.00000166455641
  0
ARC
  5
18278
  8
0
 10
4414.2781318181933
 20
404.26552532091301
 30
0.0
 40
2.0099275807889252
 50
356.01098319296233
 51
10.43403339117436
  0
LINE
  5
18279
  8
0
 10
4416.2548233769639
 20
404.62952993833119
 30
0.0
 11
4416.2073524873213
 21
404.65623748904142
 31
0.0
  0
LINE
  5
1827A
  8
0
 10
4416.2073524873213
 20
404.65623748904142
 30
0.0
 11
4416.0870554085786
 21
404.77443018183237
 31
0.0
  0
ARC
  5
1827B
  8
0
 10
4416.2142097354217
 20
404.38430255590561
 30
0.0
 40
0.2720213773054376
 50
91.444493086316825
 51
157.7942622892904
  0
ARC
  5
1827C
  8
0
 10
4416.8132811983041
 20
404.68314258402359
 30
0.0
 40
0.0199129137717482
 50
89.735823432782311
 51
175.7385228666825
  0
LINE
  5
1827D
  8
0
 10
4416.7911039084947
 20
404.47055343883028
 30
0.0
 11
4416.7672357201263
 21
404.47055343813258
 31
0.0
  0
LINE
  5
1827E
  8
0
 10
4416.5244037511002
 20
404.67984228860541
 30
0.0
 11
4416.5247156753812
 21
404.63946692438208
 31
0.0
  0
ARC
  5
1827F
  8
0
 10
4416.5357271502698
 20
404.67374482706219
 30
0.0
 40
0.0128607311617576
 50
92.292721713481185
 51
151.6982769013479
  0
ARC
  5
18280
  8
0
 10
4416.5244769441961
 20
404.4072144500168
 30
0.0
 40
0.272627848413866
 50
90.015382344607616
 51
121.6004965284252
  0
ARC
  5
18281
  8
0
 10
4423.1305376424471
 20
396.73769995255873
 30
0.0
 40
10.550610001680161
 50
159.80211374405499
 51
200.19788625594489
  0
ARC
  5
18282
  8
0
 10
4428.3104749428048
 20
397.42057200002313
 30
0.0
 40
15.68980498636024
 50
196.0034837678127
 51
220.63654932592971
  0
ARC
  5
18283
  8
0
 10
4426.3291086170557
 20
396.07074706477408
 30
0.0
 40
11.6123788914147
 50
160.00776428557359
 51
199.99223571442641
  0
ARC
  5
18284
  8
0
 10
4428.4464181901831
 20
396.52184197536531
 30
0.0
 40
13.759593719391891
 50
198.74299591279041
 51
217.27526806470709
  0
ARC
  5
18285
  8
0
 10
4425.2248258323752
 20
397.05064485544551
 30
0.0
 40
11.74275549296237
 50
158.00573035836879
 51
201.99426964163121
  0
ARC
  5
18286
  8
0
 10
4429.1062598871868
 20
397.6270754956912
 30
0.0
 40
15.58471472165901
 50
198.61305528918501
 51
218.16156327136389
  0
ARC
  5
18287
  8
0
 10
4425.1914500351877
 20
397.04374993861768
 30
0.0
 40
11.63273451682349
 50
158.92678615863841
 51
201.07321384136159
  0
ARC
  5
18288
  8
0
 10
4430.1234306328488
 20
398.0759446347875
 30
0.0
 40
16.625761413338751
 50
198.2800523145942
 51
217.31451764084321
  0
ARC
  5
18289
  8
0
 10
4428.9336088157379
 20
397.70786181395471
 30
0.0
 40
15.73935990734851
 50
193.7983130396824
 51
219.065500541246
  0
ARC
  5
1828A
  8
0
 10
4421.6501772617767
 20
400.48563263262082
 30
0.0
 40
7.1349889416369416
 50
144.30814706611349
 51
151.79164052037939
  0
ARC
  5
1828B
  8
0
 10
4415.8903643887998
 20
403.59888299101488
 30
0.0
 40
0.5880476352092005
 50
153.8341956274505
 51
178.53796270587191
  0
ARC
  5
1828C
  8
0
 10
4414.3796253532073
 20
403.63750770283963
 30
0.0
 40
0.9296466263912535
 50
332.68049164340152
 51
348.75085382636229
  0
ARC
  5
1828D
  8
0
 10
4413.9520397337201
 20
403.62963720328031
 30
0.0
 40
1.35056030378779
 50
352.61990284341528
 51
359.33179381522962
  0
ARC
  5
1828E
  8
0
 10
4428.1026329901024
 20
393.62181988367689
 30
0.0
 40
16.33744080495271
 50
148.10208661031419
 51
155.56320917395291
  0
ARC
  5
1828F
  8
0
 10
4402.7147596115028
 20
409.23976902341701
 30
0.0
 40
13.470172859680771
 50
328.76413509170391
 51
351.82534884789618
  0
ARC
  5
18290
  8
0
 10
4428.651144462433
 20
395.4865240983886
 30
0.0
 40
15.50639625080065
 50
150.1231334202667
 51
157.38835317593561
  0
ARC
  5
18291
  8
0
 10
4399.9813069398379
 20
405.78016581573428
 30
0.0
 40
16.385622953868101
 50
350.8756477385607
 51
354.20495142282692
  0
ARC
  5
18292
  8
0
 10
4390.234792171118
 20
407.65700179828741
 30
0.0
 40
26.3082317816095
 50
343.17235608585412
 51
350.20592321095199
  0
ARC
  5
18293
  8
0
 10
4408.0312678733144
 20
407.77168637111691
 30
0.0
 40
8.5843303947795473
 50
327.8390745431758
 51
337.50363524052091
  0
ARC
  5
18294
  8
0
 10
4425.5116828498822
 20
397.00918963455052
 30
0.0
 40
11.94426488934071
 50
148.76851189712369
 51
159.32442655039461
  0
LINE
  5
18295
  8
0
 10
4415.3040896145776
 20
403.64451094721062
 30
0.0
 11
4415.2475807338642
 21
403.64451094563123
 31
0.0
  0
ARC
  5
18296
  8
0
 10
4415.2558887111409
 20
403.5339664589535
 30
0.0
 40
0.1108562403351674
 50
94.297987685590087
 51
145.6681357675435
  0
ARC
  5
18297
  8
0
 10
4425.1774687514144
 20
397.10942688404629
 30
0.0
 40
11.930825609078621
 50
147.06257850983661
 51
165.0876401359466
  0
ARC
  5
18298
  8
0
 10
4631.1258453900582
 20
397.38878046773169
 30
0.0
 40
214.45656075460141
 50
178.05041348045799
 51
178.05263691057201
  0
ARC
  5
18299
  8
0
 10
4424.9816141959682
 20
397.06683421163848
 30
0.0
 40
11.75288481995385
 50
164.64127877873611
 51
195.35872122126389
  0
LINE
  5
1829A
  8
0
 10
4428.6842689414643
 20
415.52340830063127
 30
0.0
 11
4428.4638749462629
 21
415.58029787763121
 31
0.0
  0
LINE
  5
1829B
  8
0
 10
4412.171129151413
 20
415.58063092823119
 30
0.0
 11
4411.9430991596628
 21
415.52159703953117
 31
0.0
  0
ARC
  5
1829C
  8
0
 10
4412.6703238978016
 20
414.80609369342642
 30
0.0
 40
0.8003733569898776
 50
90.288422879036276
 51
94.227070453465714
  0
LINE
  5
1829D
  8
0
 10
4412.666294892264
 20
415.60645690953118
 30
0.0
 11
4427.967270741864
 21
415.60645690953118
 31
0.0
  0
ARC
  5
1829E
  8
0
 10
4427.9632417342409
 20
414.80609357520808
 30
0.0
 40
0.8003734752172487
 50
85.772929850120732
 51
89.711577014292814
  0
ENDSEC
  0
EOF
