  0
SECTION
  2
HEADER
  9
$ACADVER
  1
AC1009
  9
$INSBASE
 10
2884.6949774273170988
 20
135.0078598801788985
 30
0.0
  9
$EXTMIN
 10
2854.862711215319905
 20
135.0023740593877903
 30
-0.0015258207003583
  9
$EXTMAX
 10
2884.7943529750177731
 20
164.2341353988803121
 30
0.0000000349246037
  9
$LIMMIN
 10
0.0
 20
0.0
  9
$LIMMAX
 10
11.6929133858000007
 20
8.2677165353999982
  9
$ORTHOMODE
 70
     1
  9
$REGENMODE
 70
     1
  9
$FILLMODE
 70
     1
  9
$QTEXTMODE
 70
     0
  9
$MIRRTEXT
 70
     0
  9
$DRAGMODE
 70
     2
  9
$LTSCALE
 40
0.6431102362
  9
$OSMODE
 70
  2039
  9
$ATTMODE
 70
     1
  9
$TEXTSIZE
 40
0.2
  9
$TRACEWID
 40
0.05
  9
$TEXTSTYLE
  7
STANDARD
  9
$CLAYER
  8
0
  9
$CELTYPE
  6
BYLAYER
  9
$CECOLOR
 62
   256
  9
$DIMSCALE
 40
1.0
  9
$DIMASZ
 40
0.1875
  9
$DIMEXO
 40
0.0625
  9
$DIMDLI
 40
0.4443307087
  9
$DIMRND
 40
0.0
  9
$DIMDLE
 40
0.0
  9
$DIMEXE
 40
0.125
  9
$DIMTP
 40
0.01
  9
$DIMTM
 40
0.01
  9
$DIMTXT
 40
2.0
  9
$DIMCEN
 40
0.1052362205
  9
$DIMTSZ
 40
0.0
  9
$DIMTOL
 70
     1
  9
$DIMLIM
 70
     0
  9
$DIMTIH
 70
     1
  9
$DIMTOH
 70
     1
  9
$DIMSE1
 70
     0
  9
$DIMSE2
 70
     0
  9
$DIMTAD
 70
     0
  9
$DIMZIN
 70
     0
  9
$DIMBLK
  1

  9
$DIMASO
 70
     1
  9
$DIMSHO
 70
     1
  9
$DIMPOST
  1
\X
  9
$DIMAPOST
  1

  9
$DIMALT
 70
     1
  9
$DIMALTD
 70
     2
  9
$DIMALTF
 40
25.3999999999999986
  9
$DIMLFAC
 40
1.0
  9
$DIMTOFL
 70
     0
  9
$DIMTVP
 40
0.0
  9
$DIMTIX
 70
     0
  9
$DIMSOXD
 70
     0
  9
$DIMSAH
 70
     0
  9
$DIMBLK1
  1

  9
$DIMBLK2
  1

  9
$DIMSTYLE
  2
STANDARD
  9
$DIMCLRD
 70
     0
  9
$DIMCLRE
 70
     0
  9
$DIMCLRT
 70
     0
  9
$DIMTFAC
 40
1.0
  9
$DIMGAP
 40
0.09
  9
$LUNITS
 70
     2
  9
$LUPREC
 70
     4
  9
$SKETCHINC
 40
0.1
  9
$FILLETRAD
 40
0.0
  9
$AUNITS
 70
     0
  9
$AUPREC
 70
     0
  9
$MENU
  1
.
  9
$ELEVATION
 40
0.0
  9
$PELEVATION
 40
0.0
  9
$THICKNESS
 40
0.0
  9
$LIMCHECK
 70
     0
  9
$BLIPMODE
 70
     0
  9
$CHAMFERA
 40
0.0
  9
$CHAMFERB
 40
0.0
  9
$SKPOLY
 70
     0
  9
$TDCREATE
 40
2458060.468368056230247
  9
$TDUPDATE
 40
2459333.4172106478363276
  9
$TDINDWG
 40
0.6594399305999999
  9
$TDUSRTIMER
 40
0.6594399305999999
  9
$USRTIMER
 70
     1
  9
$ANGBASE
 50
0.0
  9
$ANGDIR
 70
     0
  9
$PDMODE
 70
     0
  9
$PDSIZE
 40
0.3125
  9
$PLINEWID
 40
0.0
  9
$COORDS
 70
     1
  9
$SPLFRAME
 70
     0
  9
$SPLINETYPE
 70
     6
  9
$SPLINESEGS
 70
     8
  9
$ATTDIA
 70
     1
  9
$ATTREQ
 70
     1
  9
$HANDLING
 70
     1
  9
$HANDSEED
  5
3263F
  9
$SURFTAB1
 70
     6
  9
$SURFTAB2
 70
     6
  9
$SURFTYPE
 70
     6
  9
$SURFU
 70
     6
  9
$SURFV
 70
     6
  9
$UCSNAME
  2

  9
$UCSORG
 10
0.0
 20
0.0
 30
0.0
  9
$UCSXDIR
 10
1.0
 20
0.0
 30
0.0
  9
$UCSYDIR
 10
0.0
 20
1.0
 30
0.0
  9
$PUCSNAME
  2

  9
$PUCSORG
 10
0.0
 20
0.0
 30
0.0
  9
$PUCSXDIR
 10
1.0
 20
0.0
 30
0.0
  9
$PUCSYDIR
 10
0.0
 20
1.0
 30
0.0
  9
$USERI1
 70
     0
  9
$USERI2
 70
     0
  9
$USERI3
 70
     0
  9
$USERI4
 70
     0
  9
$USERI5
 70
     0
  9
$USERR1
 40
0.0
  9
$USERR2
 40
0.0
  9
$USERR3
 40
0.0
  9
$USERR4
 40
0.0
  9
$USERR5
 40
0.0
  9
$WORLDVIEW
 70
     1
  9
$SHADEDGE
 70
     3
  9
$SHADEDIF
 70
    70
  9
$TILEMODE
 70
     1
  9
$MAXACTVP
 70
    64
  9
$PLIMCHECK
 70
     0
  9
$PEXTMIN
 10
1.0000000000000000E+20
 20
1.0000000000000000E+20
 30
1.0000000000000000E+20
  9
$PEXTMAX
 10
-1.0000000000000000E+20
 20
-1.0000000000000000E+20
 30
-1.0000000000000000E+20
  9
$PLIMMIN
 10
0.0
 20
0.0
  9
$PLIMMAX
 10
12.0
 20
9.0
  9
$UNITMODE
 70
     0
  9
$VISRETAIN
 70
     1
  9
$PLINEGEN
 70
     0
  9
$PSLTSCALE
 70
     1
  0
ENDSEC
  0
SECTION
  2
TABLES
  0
TABLE
  2
VPORT
 70
     1
  0
VPORT
  2
*ACTIVE
 70
     0
 10
0.0
 20
0.0
 11
1.0
 21
1.0
 12
-433.8645831392058767
 22
-45.6432568467536726
 13
0.0
 23
0.0
 14
1.0
 24
1.0
 15
0.0
 25
0.0
 16
0.0
 26
0.0
 36
96.5995694866707311
 17
3303.693115234375
 27
195.2615115758877096
 37
0.0
 40
31.7897764125770692
 41
2.6486111111111108
 42
50.0
 43
0.0
 44
0.0
 50
0.0
 51
0.0
 71
     0
 72
   100
 73
     1
 74
     1
 75
     0
 76
     0
 77
     0
 78
     1
  0
ENDTAB
  0
TABLE
  2
LTYPE
 70
     2
  0
LTYPE
  2
CONTINUOUS
 70
     0
  3
Solid line
 72
    65
 73
     0
 40
0.0
  0
LTYPE
  2
PHANTOM2
 70
     0
  3
___ _ _ ___ _ _ ___ _ _ ___ _ _
 72
    65
 73
     6
 40
1.25
 49
0.625
 49
-0.125
 49
0.125
 49
-0.125
 49
0.125
 49
-0.125
  0
ENDTAB
  0
TABLE
  2
LAYER
 70
     2
  0
LAYER
  2
0
 70
     0
 62
   255
  6
CONTINUOUS
  0
LAYER
  2
DEFPOINTS
 70
     0
 62
     7
  6
CONTINUOUS
  0
ENDTAB
  0
TABLE
  2
STYLE
 70
     1
  0
STYLE
  2
STANDARD
 70
     0
 40
0.0
 41
0.8
 50
0.0
 71
     0
 42
0.2
  3
txt
  4

  0
ENDTAB
  0
TABLE
  2
VIEW
 70
     0
  0
ENDTAB
  0
TABLE
  2
UCS
 70
     0
  0
ENDTAB
  0
TABLE
  2
APPID
 70
     9
  0
APPID
  2
ACAD
 70
     0
  0
APPID
  2
ACAD_MLEADERVER
 70
     0
  0
APPID
  2
ACAD_EXEMPT_FROM_CAD_STANDARDS
 70
     0
  0
APPID
  2
ACAD_NAV_VCDISPLAY
 70
     0
  0
APPID
  2
ACAECLAYERSTANDARD
 70
     0
  0
APPID
  2
ACCMTRANSPARENCY
 70
     0
  0
APPID
  2
ACAD_DSTYLE_DIMJAG
 70
     0
  0
APPID
  2
ACAD_DSTYLE_DIMTALN
 70
     0
  0
APPID
  2
ACDBATTR
 70
     0
  0
ENDTAB
  0
TABLE
  2
DIMSTYLE
 70
     1
  0
DIMSTYLE
  2
STANDARD
 70
     0
  3

  4

  5

  6

  7

 40
1.0
 41
0.1875
 42
0.0625
 43
0.38
 44
0.125
 45
0.0
 46
0.0
 47
0.01
 48
0.01
140
0.15625
141
0.09
142
0.0
143
25.3999999999999986
144
1.0
145
0.0
146
1.0
147
0.09
 71
     1
 72
     0
 73
     1
 74
     1
 75
     0
 76
     0
 77
     0
 78
     4
170
     0
171
     2
172
     0
173
     0
174
     0
175
     0
176
     0
177
     0
178
     0
  0
ENDTAB
  0
ENDSEC
  0
SECTION
  2
BLOCKS
  0
BLOCK
  8
0
  2
$MODEL_SPACE
 70
     0
 10
0.0
 20
0.0
 30
0.0
  3
$MODEL_SPACE
  1

  0
ENDBLK
  5
21
  8
0
  0
BLOCK
 67
     1
  8
0
  2
$PAPER_SPACE
 70
     0
 10
0.0
 20
0.0
 30
0.0
  3
$PAPER_SPACE
  1

  0
ENDBLK
  5
1D
 67
     1
  8
0
  0
BLOCK
  8
0
  2
_FILLED
 70
     0
 10
0.0
 20
0.0
 30
0.0
  3
_FILLED
  1

  0
SOLID
  5
2ABDA
  8
0
  6
BYBLOCK
 62
     0
 10
0.0
 20
0.0
 30
0.0
 11
-1.0
 21
0.1666666667
 31
0.0
 12
-1.0
 22
-0.1666666667
 32
0.0
 13
-1.0
 23
-0.1666666667
 33
0.0
  0
ENDBLK
  5
2ABDB
  8
0
  6
BYBLOCK
 62
     0
  0
ENDSEC
  0
SECTION
  2
ENTITIES
  0
ATTDEF
  5
30613
  8
DEFPOINTS
 10
2884.695645341522777
 20
135.0121469984582063
 30
0.0
 40
0.001
  1
K-3862T-W
  3

  2
MODELNUMBER
 70
     0
1001
ACDBATTR
1070
     0
1070
     1
  0
ATTDEF
  5
30614
  8
DEFPOINTS
 10
2884.695645341522777
 20
135.0104803317915128
 30
0.0
 40
0.001
  1
CAVATA
  3

  2
TRADENAME
 70
     0
1001
ACDBATTR
1070
     0
1070
     1
  0
ATTDEF
  5
30615
  8
DEFPOINTS
 10
2884.695645341522777
 20
135.0088136651247908
 30
0.0
 40
0.001
  1
TOILET
  3

  2
PRODUCT
 70
     0
1001
ACDBATTR
1070
     0
1070
     1
  0
LINE
  5
32412
  8
0
 10
2856.7422191037348966
 20
135.0078598801788985
 30
0.0
 11
2881.5323191037350625
 21
135.0078598801788985
 31
0.0
  0
LINE
  5
32413
  8
0
 10
2854.9400096800741267
 20
148.2019083577802974
 30
0.0
 11
2868.033360078932219
 21
148.2019083577802974
 31
0.0
  0
LINE
  5
32414
  8
0
 10
2854.9954083256848207
 20
147.9198598801789046
 30
0.0
 11
2874.401763553676119
 21
147.9198598801789046
 31
0.0
  0
LINE
  5
32415
  8
0
 10
2881.5323191037350625
 20
135.0078598801788985
 30
0.0
 11
2881.4046756585139519
 21
135.7317594748791976
 31
0.0
  0
ARC
  5
32416
  8
0
 10
2880.8589882535688957
 20
135.6355397492557984
 30
0.0
 40
0.5541055671214865
 50
10.0000318832731594
 51
63.3296333751966714
  0
ARC
  5
32417
  8
0
 10
2881.197370820346805
 20
136.3092063629023016
 30
0.0
 40
0.1997707276649975
 50
154.1064965403936924
 51
243.3296333751966927
  0
ARC
  5
32418
  8
0
 10
2879.8402851224432197
 20
136.9679816270663935
 30
0.0
 40
1.3087604918096569
 50
334.1064965403937208
 51
350.6248159737494916
  0
ARC
  5
32419
  8
0
 10
5560.3134805743920879
 20
-304.1213912211417778
 30
0.0
 40
2715.214088185584842
 50
170.6196182816512135
 51
170.6553668121943872
  0
ARC
  5
3241A
  8
0
 10
2881.1678901302138911
 20
138.4630441154093887
 30
0.0
 40
0.2420729498381513
 50
351.2744340621032961
 51
1.927316547717761
  0
ARC
  5
3241B
  8
0
 10
1494.579709931088928
 20
91.8033638328638659
 30
0.0
 40
1387.615096772914967
 50
1.927316547717761
 51
2.0734251011060159
  0
ARC
  5
3241C
  8
0
 10
2876.1634118074521211
 20
141.8220822022333039
 30
0.0
 40
5.126255053854992
 50
2.0734251011060159
 51
12.4620370039153805
  0
ARC
  5
3241D
  8
0
 10
2874.2515098172098078
 20
152.2622127616980947
 30
0.0
 40
4.3449516375858543
 50
271.981753179313273
 51
277.5310274337624037
  0
ARC
  5
3241E
  8
0
 10
2814.1950109191739102
 20
536.1110161103058545
 30
0.0
 40
392.862318741183401
 50
278.8772792270402192
 51
279.0410745606976093
  0
LINE
  5
3241F
  8
0
 10
2875.9303719664599157
 20
148.1296419657981005
 30
0.0
 11
2882.1998269852351768
 21
149.122711760478893
 31
0.0
  0
ARC
  5
32420
  8
0
 10
2867.9711700333018598
 20
150.9711448679859984
 30
0.0
 40
2.7699347377206252
 50
271.2865019968036222
 51
287.3472936423700048
  0
ARC
  5
32421
  8
0
 10
2867.98313224386402
 20
150.9328499927104872
 30
0.0
 40
2.729815017458483
 50
287.3472936423700048
 51
305.2078713709969975
  0
ARC
  5
32422
  8
0
 10
2860.0763087496188746
 20
165.3698175352575106
 30
0.0
 40
19.17513428411538
 50
299.631902365428914
 51
304.6630965278820895
  0
ARC
  5
32423
  8
0
 10
2871.6048969219627907
 20
148.8095185136843952
 30
0.0
 40
1.004791501027237
 50
108.2510346985502991
 51
128.2988577408196988
  0
ARC
  5
32424
  8
0
 10
2871.3430207226319908
 20
149.6036348579413868
 30
0.0
 40
0.16860975523727
 50
90.9108667977122735
 51
108.2510346985502991
  0
LINE
  5
32425
  8
0
 10
2871.3403403409351995
 20
149.7722233068789137
 30
0.0
 11
2874.8868700313350928
 21
149.7722236086788996
 31
0.0
  0
ARC
  5
32426
  8
0
 10
2874.8536348207080664
 20
154.6091504225589119
 30
0.0
 40
4.8370409923482951
 50
270.3936776021214996
 51
277.0220696428456222
  0
ARC
  5
32427
  8
0
 10
2876.5322291964598662
 20
140.9814942649690863
 30
0.0
 40
8.8936068957814332
 50
91.9670869821038366
 51
97.0220696428455653
  0
LINE
  5
32428
  8
0
 10
2876.2269525789351974
 20
149.8698602454788897
 30
0.0
 11
2883.6424688549309394
 21
149.8698598801788933
 31
0.0
  0
ARC
  5
32429
  8
0
 10
2883.624380694087904
 20
150.0131829130662027
 30
0.0
 40
0.1444599367254143
 50
277.1930159626638215
 51
10.0591837532635608
  0
LINE
  5
3242A
  8
0
 10
2883.7666199720861187
 20
150.0384150575148965
 30
0.0
 11
2883.717626758023016
 21
150.1961775777621142
 31
0.0
  0
ARC
  5
3242B
  8
0
 10
2883.4816255252771953
 20
150.122688371766003
 30
0.0
 40
0.2471785695710606
 50
17.2962393375591716
 51
89.5669169091145676
  0
LINE
  5
3242C
  8
0
 10
2883.4834938625349423
 20
150.3698598801788933
 30
0.0
 11
2855.7038939343351558
 21
150.3698598801788933
 31
0.0
  0
ARC
  5
3242D
  8
0
 10
2855.7039702964239041
 20
150.1197552827611901
 30
0.0
 40
0.2501046090750727
 50
90.0174935820033255
 51
162.256977197032711
  0
ARC
  5
3242E
  8
0
 10
2874.5162409313620628
 20
144.1068078891634059
 30
0.0
 40
19.9999669462721812
 50
162.2743917585436861
 51
168.1848214587199948
  0
ARC
  5
3242F
  8
0
 10
2855.0672556050631101
 20
148.1752902194533021
 30
0.0
 40
0.1300001950550478
 50
168.1848658780465939
 51
188.3278496999365075
  0
ARC
  5
32430
  8
0
 10
2857.9614179084201169
 20
148.7380160097054898
 30
0.0
 40
3.0782260385875322
 50
190.8900701524219983
 51
222.3569362374275045
  0
ARC
  5
32431
  8
0
 10
2859.2950072971470945
 20
150.3975116701408865
 30
0.0
 40
5.1921364611969993
 50
225.9766742807858009
 51
244.1678395314386876
  0
ARC
  5
32432
  8
0
 10
2855.6563166118558001
 20
143.0568141289174946
 30
0.0
 40
3.0015215061089129
 50
346.0480781368131034
 51
62.7077027986736368
  0
LINE
  5
32433
  8
0
 10
2858.5692883908200201
 20
142.3331244394859993
 30
0.0
 11
2856.7422191037348966
 21
135.0078598801788985
 31
0.0
  0
LINE
  5
32434
  8
0
 10
2877.775634329434979
 20
150.6798598801788955
 30
0.0
 11
2884.1424421610349782
 21
150.6798598801788955
 31
0.0
  0
ARC
  5
32435
  8
0
 10
2884.1424421610349782
 20
151.0101590662208082
 30
0.0
 40
0.3302991860419171
 50
270.0
 51
358.9526383236270135
  0
LINE
  5
32436
  8
0
 10
2884.4726861630351777
 20
151.0041215631788987
 30
0.0
 11
2884.6751268871348657
 21
162.802721039678886
 31
0.0
  0
ARC
  5
32437
  8
0
 10
2884.3863660573101697
 20
162.787380474073899
 30
0.0
 40
0.2891024962209033
 50
3.0487908137010109
 51
7.6739646602287648
  0
ARC
  5
32438
  8
0
 10
2884.5508406965709582
 20
162.851142185973913
 30
0.0
 40
0.1246044314708994
 50
348.3526046679078831
 51
358.8764848747687211
  0
ARC
  5
32439
  8
0
 10
2884.5636073122459493
 20
162.8485105686760051
 30
0.0
 40
0.1115694061398036
 50
326.0263022324945155
 51
348.3526046679062915
  0
ARC
  5
3243A
  8
0
 10
2884.5559175803700782
 20
162.8536922238162958
 30
0.0
 40
0.1208420285472802
 50
270.7254029529582908
 51
326.0263022324930944
  0
LINE
  5
3243B
  8
0
 10
2884.5574474805348473
 20
162.7328598801788928
 30
0.0
 11
2876.6933012504118778
 21
162.7328598801788928
 31
0.0
  0
ARC
  5
3243C
  8
0
 10
2876.707838752403859
 20
162.8672021693010947
 30
0.0
 40
0.1351265688559407
 50
190.4520565605062927
 51
263.8239183206197822
  0
LINE
  5
3243D
  8
0
 10
2876.5749543315841947
 20
162.8426884932356131
 30
0.0
 11
2876.4907136629349225
 21
163.974108360878887
 31
0.0
  0
ARC
  5
3243E
  8
0
 10
2876.7259600752140614
 20
163.9928667615685924
 30
0.0
 40
0.2359931187279682
 50
89.9981906581518558
 51
184.5590829123258061
  0
LINE
  5
3243F
  8
0
 10
2876.7259675276350208
 20
164.2288598801789021
 30
0.0
 11
2884.4590072819792113
 21
164.2288598801789021
 31
0.0
  0
ARC
  5
32440
  8
0
 10
2884.4562665722169186
 20
163.9901657965480979
 30
0.0
 40
0.2387098176664011
 50
359.674686536618708
 51
89.3421529370531715
  0
ARC
  5
32441
  8
0
 10
-39478.4881505593075417
 20
889.8898609925764731
 30
0.0
 40
42369.401891655237705
 50
359.0167802040406855
 51
359.0183221937310805
  0
ARC
  5
32442
  8
0
 10
2747.8312092709570607
 20
153.9260257386555111
 30
0.0
 40
129.4391690686024958
 50
3.1220921123154022
 51
3.901327221885929
  0
ARC
  5
32443
  8
0
 10
2398.5544222245857782
 20
138.3507539886124107
 30
0.0
 40
479.0584021408731132
 50
1.5127643347336339
 51
2.7069784584518102
  0
ARC
  5
32444
  8
0
 10
2877.76992607009106
 20
151.0039377491191033
 30
0.0
 40
0.3241281372180795
 50
181.0976506808694921
 51
271.0090945950908008
  0
LINE
  5
32445
  8
0
 10
2878.5418191037351789
 20
150.6798598801788955
 30
0.0
 11
2878.5418191037351789
 21
150.3798598801789126
 31
0.0
  0
LINE
  5
32446
  8
0
 10
2878.5418191037351789
 20
150.3798598801789126
 30
0.0
 11
2878.5470409486820245
 21
150.3696772824771131
 31
0.0
  0
LINE
  5
32447
  8
0
 10
2878.6068191037347788
 20
150.6798598801788955
 30
0.0
 11
2878.6068191037347788
 21
150.3696768046357022
 31
0.0
  0
LINE
  5
32448
  8
0
 10
2883.4568191037351426
 20
150.6798598801788955
 30
0.0
 11
2883.4568191037351426
 21
150.3696380357773137
 31
0.0
  0
LINE
  5
32449
  8
0
 10
2883.4568191037351426
 20
150.6298598801789126
 30
0.0
 11
2883.4834938625349423
 21
150.6298598801789126
 31
0.0
  0
LINE
  5
3244A
  8
0
 10
2883.4834938625349423
 20
150.6298598801789126
 30
0.0
 11
2883.4834938625349423
 21
150.3698598801788933
 31
0.0
  0
LINE
  5
3244B
  8
0
 10
2879.4868191037348879
 20
150.6798598801788955
 30
0.0
 11
2879.4868191037348879
 21
150.3696697702860945
 31
0.0
  0
LINE
  5
3244C
  8
0
 10
2882.8127681019350348
 20
150.6798598801788955
 30
0.0
 11
2882.8127681019350348
 21
150.57485988017919
 31
0.0
  0
LINE
  5
3244D
  8
0
 10
2882.8127681019350348
 20
150.57485988017919
 30
0.0
 11
2882.5768191037350334
 21
150.5748598801791047
 31
0.0
  0
LINE
  5
3244E
  8
0
 10
2882.2918191037351789
 20
150.5748598801789058
 30
0.0
 11
2882.2313709658351399
 21
150.5748598801789058
 31
0.0
  0
LINE
  5
3244F
  8
0
 10
2882.2313709658351399
 20
150.5748598801789058
 30
0.0
 11
2882.2313709658351399
 21
150.6798598801788955
 31
0.0
  0
LINE
  5
32450
  8
0
 10
2882.5768282953767994
 20
150.3696450700533944
 30
0.0
 11
2882.5768282953767994
 21
150.5748598801789058
 31
0.0
  0
ARC
  5
32451
  8
0
 10
2882.5468282939691562
 20
150.5748598801789058
 30
0.0
 40
0.0300000014076716
 50
0.0000000000032569
 51
90.017552053723918
  0
LINE
  5
32452
  8
0
 10
2882.5468191037348333
 20
150.6048598801789069
 30
0.0
 11
2882.321819114291884
 21
150.6047909534262033
 31
0.0
  0
ARC
  5
32453
  8
0
 10
2882.3218283073770181
 20
150.5747816492223876
 30
0.0
 40
0.0300093056118545
 50
90.017552053723918
 51
179.8506360404961981
  0
LINE
  5
32454
  8
0
 10
2882.2918191037351789
 20
150.5748598801789058
 30
0.0
 11
2882.2918191037351789
 21
150.3798598801789126
 31
0.0
  0
LINE
  5
32455
  8
0
 10
2882.2918191037351789
 20
150.3798598801789126
 30
0.0
 11
2882.2865819292928791
 21
150.3696473901607078
 31
0.0
  0
LINE
  5
32456
  8
0
 10
2855.5506967597348194
 20
150.7097141065789003
 30
0.0
 11
2872.3498926233351085
 21
150.7097141065789003
 31
0.0
  0
ARC
  5
32457
  8
0
 10
2872.0655265838549894
 20
152.1454260308618984
 30
0.0
 40
1.4636026694216659
 50
281.2033571868569766
 51
289.004691701899219
  0
ARC
  5
32458
  8
0
 10
2872.8546108508508041
 20
149.9670371539008897
 30
0.0
 40
0.8537969024798812
 50
87.7713167775018945
 51
111.4676132390700047
  0
LINE
  5
32459
  8
0
 10
2872.8878133491348308
 20
150.8201882218789081
 30
0.0
 11
2873.5895970485348698
 21
150.8201882218789081
 31
0.0
  0
LINE
  5
3245A
  8
0
 10
2873.5895970485348698
 20
150.8201882218789081
 30
0.0
 11
2873.5359971616348957
 21
151.6930723717788965
 31
0.0
  0
ARC
  5
3245B
  8
0
 10
2880.0804495380311891
 20
152.3522948724364028
 30
0.0
 40
6.5775703122261291
 50
182.0600830113465065
 51
185.752000315817611
  0
ARC
  5
3245C
  8
0
 10
2873.3266529005218217
 20
152.1173761715502053
 30
0.0
 40
0.1804840102429818
 50
359.5147913469577929
 51
46.5328110169077505
  0
ARC
  5
3245D
  8
0
 10
2858.6509302942718023
 20
136.4641670590482079
 30
0.0
 40
21.6374100437576296
 50
46.8433635336450322
 51
49.04659915605815
  0
LINE
  5
3245E
  8
0
 10
2873.3083111518349142
 20
151.8220632814789042
 30
0.0
 11
2856.1129678155348302
 21
151.822243510278895
 31
0.0
  0
ARC
  5
3245F
  8
0
 10
2856.115088184673823
 20
151.860834717443197
 30
0.0
 40
0.0386494144287397
 50
197.9639969329423934
 51
266.855082293487726
  0
LINE
  5
32460
  8
0
 10
2856.0783229096350624
 20
151.8489144914788938
 30
0.0
 11
2856.0154697167349696
 21
152.0076488070789082
 31
0.0
  0
ARC
  5
32461
  8
0
 10
2855.9606652007259981
 20
151.9599054270190095
 30
0.0
 40
0.072684010033653
 50
41.0610044836865171
 51
63.2633982635925989
  0
LINE
  5
32462
  8
0
 10
2855.9933649817348851
 20
152.0248183659180086
 30
0.0
 11
2855.7775720045351591
 21
152.0248183820789052
 31
0.0
  0
LINE
  5
32463
  8
0
 10
2855.7775720045351591
 20
152.0248183820789052
 30
0.0
 11
2855.8363210686347884
 21
152.280717778878909
 31
0.0
  0
ARC
  5
32464
  8
0
 10
2856.0092455624599097
 20
152.2410179894334021
 30
0.0
 40
0.1774230927660377
 50
115.3913095102436017
 51
167.0701607071488013
  0
LINE
  5
32465
  8
0
 10
2855.9331668751351572
 20
152.4013020721789076
 30
0.0
 11
2857.2233102438349306
 21
153.0242651379788867
 31
0.0
  0
ARC
  5
32466
  8
0
 10
2857.3809567247399173
 20
152.6887281775213978
 30
0.0
 40
0.3707255923010018
 50
90.3929807946567507
 51
115.165706917252507
  0
ARC
  5
32467
  8
0
 10
2857.3277971543998319
 20
124.1385937991170039
 30
0.0
 40
28.9208955450780003
 50
86.4479830823045745
 51
89.8997218602249575
  0
ARC
  5
32468
  8
0
 10
2857.3933531550278531
 20
125.6641042056148052
 30
0.0
 40
27.3942696360815106
 50
82.0401102583387853
 51
86.3871564103052663
  0
ARC
  5
32469
  8
0
 10
2867.025192490677
 20
288.4695719834780903
 30
0.0
 40
135.8006915361590075
 50
267.5360047384435802
 51
268.410694084638294
  0
ARC
  5
3246A
  8
0
 10
2865.4477739242802272
 20
234.9431384697734018
 30
0.0
 40
82.2511510836371826
 50
268.4749569026300264
 51
272.9540310569755093
  0
ARC
  5
3246B
  8
0
 10
2868.745521848296903
 20
174.7170196757222129
 30
0.0
 40
21.9359316867561205
 50
272.4587211333201253
 51
278.3344713032510072
  0
ARC
  5
3246C
  8
0
 10
2872.6667721201019958
 20
148.2819445576992905
 30
0.0
 40
4.7885883141723431
 50
96.5176324258141705
 51
98.9091981252502706
  0
ARC
  5
3246D
  8
0
 10
2872.2351895930150931
 20
152.0595595017115045
 30
0.0
 40
0.9863997151006165
 50
89.5246596477108625
 51
96.5176324258141705
  0
ARC
  5
3246E
  8
0
 10
2872.2392461310842009
 20
152.5485084774927884
 30
0.0
 40
0.4974339121872244
 50
82.1490531485535485
 51
89.5246596477108625
  0
ARC
  5
3246F
  8
0
 10
2872.8763488752970261
 20
158.735513310162986
 30
0.0
 40
5.7226071319561358
 50
264.292080062702496
 51
265.1191360925229787
  0
ARC
  5
32470
  8
0
 10
2872.4740429639600734
 20
153.911845220252701
 30
0.0
 40
0.8822528331878192
 50
264.4975812859617008
 51
268.9968966244010744
  0
ARC
  5
32471
  8
0
 10
2872.4141485286081661
 20
188.2605400074797046
 30
0.0
 40
35.2308404535895434
 50
270.0722876156003736
 51
270.225741918395272
  0
ARC
  5
32472
  8
0
 10
2872.5539740486337905
 20
152.7127621520120044
 30
0.0
 40
0.3172124829622424
 50
65.9220310071406885
 51
90.1839629084716137
  0
ARC
  5
32473
  8
0
 10
2872.5963050484701853
 20
152.7765526861167018
 30
0.0
 40
0.2420314901926637
 50
20.9474469772729996
 51
68.9115180827282785
  0
ARC
  5
32474
  8
0
 10
2872.633689488687196
 20
152.7981427149780131
 30
0.0
 40
0.1995149892491704
 50
2.1614638862350768
 51
18.9949232745766317
  0
ARC
  5
32475
  8
0
 10
2872.8709401396999965
 20
152.1788770853034123
 30
0.0
 40
0.6539456420919965
 50
333.9922485600221762
 51
347.8503117774524185
  0
ARC
  5
32476
  8
0
 10
2873.3496303975089177
 20
151.9514432759600027
 30
0.0
 40
0.1241239011625582
 50
298.2072306649095026
 51
331.4528219255327031
  0
ARC
  5
32477
  8
0
 10
2873.2923375471727923
 20
152.1619158891886912
 30
0.0
 40
0.3402277928286918
 50
272.6910108967813926
 51
289.9277476908534936
  0
ARC
  5
32478
  8
0
 10
2873.2513087225261188
 20
151.3441492123577916
 30
0.0
 40
0.5907783314705063
 50
126.0058802669891946
 51
141.603958289891608
  0
ARC
  5
32479
  8
0
 10
2872.540757350343938
 20
151.9072453686877111
 30
0.0
 40
0.3158420597529963
 50
306.4303982838047773
 51
321.6039582898915796
  0
ARC
  5
3247A
  8
0
 10
2872.9943428518959081
 20
132.2240371517094957
 30
0.0
 40
19.4309094985274911
 50
90.7844475384094807
 51
92.6952610572776479
  0
LINE
  5
3247B
  8
0
 10
2872.637332899888861
 20
151.6516666477168087
 30
0.0
 11
2872.6314212795641652
 21
151.8220703761762991
 31
0.0
  0
ARC
  5
3247C
  8
0
 10
2870.5356050235232033
 20
249.6227093637070027
 30
0.0
 40
98.0014374366802485
 50
268.5392013760409782
 51
270.9033225389065933
  0
ARC
  5
3247D
  8
0
 10
2865.1056481957598407
 20
10192.4824501254097413
 30
0.0
 40
10040.8297558060094161
 50
269.9658502640290862
 51
270.0167285732418918
  0
ARC
  5
3247E
  8
0
 10
2859.4071100569990449
 20
111.0099555898817982
 30
0.0
 40
40.6455287913530796
 50
90.4032329242281634
 51
92.7945620648324763
  0
ARC
  5
3247F
  8
0
 10
2857.1058308695669439
 20
170.0407056861110959
 30
0.0
 40
18.4363287466567201
 50
270.0412255768537761
 51
270.993314887132783
  0
ARC
  5
32480
  8
0
 10
2860.9015237820540278
 20
178.5084328996227896
 30
0.0
 40
27.1686350159105316
 50
260.8576966986379944
 51
261.9972647403586734
  0
ARC
  5
32481
  8
0
 10
2856.1627982725599395
 20
148.4507926449163051
 30
0.0
 40
3.2615480712939631
 50
82.566201892253801
 51
87.5928260480865077
  0
ARC
  5
32482
  8
0
 10
2856.3958158134209953
 20
149.4086952239196933
 30
0.0
 40
2.3027706266463599
 50
92.3900398419713866
 51
103.4975726598785002
  0
ARC
  5
32483
  8
0
 10
2855.8873625186752179
 20
151.4997690112338944
 30
0.0
 40
0.1509109964607483
 50
101.0881177363536949
 51
168.7289619886016965
  0
LINE
  5
32484
  8
0
 10
2855.739362054996036
 20
151.5292646313064893
 30
0.0
 11
2855.5506967597348194
 21
150.7097141065789003
 31
0.0
  0
ARC
  5
32485
  8
0
 10
2856.5875354526951924
 20
149.0263469842439861
 30
0.0
 40
1.95108073974014
 50
43.5193359526420167
 51
59.6309635993539473
  0
LINE
  5
32486
  8
0
 10
2857.5930783408089155
 20
151.8222279967710051
 30
0.0
 11
2857.5952752125349434
 21
151.7748587670789107
 31
0.0
  0
ARC
  5
32487
  8
0
 10
2857.6737361531058923
 20
151.7826148432239108
 30
0.0
 40
0.0788433631483187
 50
185.6455014046343877
 51
269.8259920303299282
  0
LINE
  5
32488
  8
0
 10
2857.6734967052348111
 20
151.7037718436789078
 30
0.0
 11
2858.5305255934517845
 21
151.7037718428796893
 31
0.0
  0
ARC
  5
32489
  8
0
 10
2858.5305259592350922
 20
151.7825120003788868
 30
0.0
 40
0.0787401575000036
 50
269.9997338360137178
 51
355.9749503666973851
  0
LINE
  5
3248A
  8
0
 10
2858.609071900789786
 20
151.7769850239486118
 30
0.0
 11
2858.6122547234608646
 21
151.8222173144600049
 31
0.0
  0
ARC
  5
3248B
  8
0
 10
2858.823472237741953
 20
150.582803727398101
 30
0.0
 40
0.1350313457725585
 50
30.3011956812709293
 51
70.0278330996312803
  0
ARC
  5
3248C
  8
0
 10
2858.8113442462158673
 20
150.5758109412498129
 30
0.0
 40
0.1490306741437894
 50
1.887873253484925
 51
30.2698015771226814
  0
ARC
  5
3248D
  8
0
 10
2859.1177510852730848
 20
150.5948881200635014
 30
0.0
 40
0.1580931521505913
 50
185.1414760942188025
 51
269.7649286979483918
  0
LINE
  5
3248E
  8
0
 10
2859.1171024675350054
 20
150.436796298478896
 30
0.0
 11
2859.9769049300912229
 21
150.4368124423222923
 31
0.0
  0
ARC
  5
3248F
  8
0
 10
2859.9784043001181999
 20
150.5949491899665134
 30
0.0
 40
0.1581438556061238
 50
269.456767629254216
 51
354.6307215913416826
  0
ARC
  5
32490
  8
0
 10
2860.2979779432671421
 20
150.5686478836655908
 30
0.0
 40
0.1625312517821631
 50
119.7806879420145947
 51
175.9415239883925892
  0
ARC
  5
32491
  8
0
 10
2679.7629523436539785
 20
141.3986538247052067
 30
0.0
 40
186.8420317565779101
 50
3.1836945136680872
 51
3.1980587272809009
  0
ARC
  5
32492
  8
0
 10
2866.4048796915940329
 20
151.7888137400416042
 30
0.0
 40
0.0892841043187057
 50
188.6618066214836062
 51
264.0376820636328148
  0
LINE
  5
32493
  8
0
 10
2866.3956053617348516
 20
151.7000126246788909
 30
0.0
 11
2867.4344901787349045
 21
151.700018722078795
 31
0.0
  0
ARC
  5
32494
  8
0
 10
2867.4251773171640707
 20
151.7883341200576126
 30
0.0
 40
0.0888050612902863
 50
276.0195955286583853
 51
349.605550625919193
  0
LINE
  5
32495
  8
0
 10
2867.5125249945349424
 20
151.7723115681789068
 30
0.0
 11
2867.5154443186929711
 21
151.8221239983537032
 31
0.0
  0
ARC
  5
32496
  8
0
 10
2867.6015879544388554
 20
150.74008365168919
 30
0.0
 40
0.1693740623943096
 50
190.329256183211811
 51
266.7814929519836937
  0
LINE
  5
32497
  8
0
 10
2867.5920786158349074
 20
150.5709767461788999
 30
0.0
 11
2868.0984924134450011
 21
150.570975919166699
 31
0.0
  0
ARC
  5
32498
  8
0
 10
2868.0987196515698088
 20
150.728013623189014
 30
0.0
 40
0.1570378684323184
 50
269.9170913985668108
 51
344.4983167583488921
  0
ARC
  5
32499
  8
0
 10
2868.3384734344799654
 20
150.6615164293731937
 30
0.0
 40
0.0917667802490639
 50
148.3169974537730127
 51
164.4983167583505974
  0
ARC
  5
3249A
  8
0
 10
2882.7166669442281091
 20
149.7800495731904959
 30
0.0
 40
0.0898102746915327
 50
89.9788771130698848
 51
123.9245179128032959
  0
LINE
  5
3249B
  8
0
 10
2882.6665438087848088
 20
149.8545717627289093
 30
0.0
 11
2881.881358022034874
 21
149.3072496778789002
 31
0.0
  0
ARC
  5
3249C
  8
0
 10
2881.8308261872348339
 20
149.3742467997138021
 30
0.0
 40
0.083917105898377
 50
251.5262750917891879
 51
307.025018766954588
  0
ARC
  5
3249D
  8
0
 10
2882.1586429818171382
 20
149.3868476743971883
 30
0.0
 40
0.398390970992551
 50
166.1190287251523046
 51
173.901332724893507
  0
ARC
  5
3249E
  8
0
 10
2881.9038105362451461
 20
149.3992746367887037
 30
0.0
 40
0.1444322742979256
 50
168.0529966799626891
 51
226.4154343079111129
  0
LINE
  5
3249F
  8
0
 10
2881.7718865366350656
 20
149.4824239155788916
 30
0.0
 11
2881.7847808660349074
 21
149.7375996008788945
 31
0.0
  0
ARC
  5
324A0
  8
0
 10
2881.8391792785778307
 20
149.7348507847079873
 30
0.0
 40
0.0544678187327616
 50
92.8935523849214633
 51
177.1072369002071127
  0
LINE
  5
324A1
  8
0
 10
2881.8364297130351588
 20
149.7892491593788975
 30
0.0
 11
2882.2115505857627795
 21
149.7892492229786967
 31
0.0
  0
ARC
  5
324A2
  8
0
 10
2883.7463675340191003
 20
141.7153796713157874
 30
0.0
 40
8.2182068441842198
 50
98.852773564063412
 51
100.7625410010726057
  0
ARC
  5
324A3
  8
0
 10
2882.9583224201260236
 20
146.7750119344293864
 30
0.0
 40
3.097572729206663
 50
95.786592700854726
 51
98.852773564063412
  0
ARC
  5
324A4
  8
0
 10
2882.6584953677638623
 20
149.7336402250828939
 30
0.0
 40
0.1237910251162013
 50
84.5096409945943634
 51
95.786592700854726
  0
ARC
  5
324A5
  8
0
 10
2879.7556994060541911
 20
149.7798818050200964
 30
0.0
 40
0.0899925720319998
 50
5.978896384869989
 51
88.9715639342411748
  0
LINE
  5
324A6
  8
0
 10
2879.8452024480670843
 20
149.7892556244788977
 30
0.0
 11
2879.8452025790347761
 21
149.2829877586788996
 31
0.0
  0
ARC
  5
324A7
  8
0
 10
2880.0315507632758454
 20
149.2853794842235118
 30
0.0
 40
0.1863635321647127
 50
180.7353345359136938
 51
230.3727542830579011
  0
ARC
  5
324A8
  8
0
 10
2879.9973129187719678
 20
149.2440330872179004
 30
0.0
 40
0.1326815562174325
 50
230.3727542830569064
 51
309.3277436843413284
  0
ARC
  5
324A9
  8
0
 10
2879.8879259211889803
 20
149.3775459292741914
 30
0.0
 40
0.3052828141338296
 50
309.3277436843413284
 51
353.2630674856765154
  0
LINE
  5
324AA
  8
0
 10
2880.1911008301349284
 20
149.3417329261789064
 30
0.0
 11
2880.1911009320670018
 21
149.7892556228788976
 31
0.0
  0
ARC
  5
324AB
  8
0
 10
2880.2902993875200082
 20
149.7761158164742881
 30
0.0
 40
0.1000649193098766
 50
110.4737641187872015
 51
172.4545384501363969
  0
ARC
  5
324AC
  8
0
 10
2880.7054516429648174
 20
138.9919780466186126
 30
0.0
 40
3.335102582243874
 50
268.6252341147213087
 51
282.103190648199984
  0
ARC
  5
324AD
  8
0
 10
2879.1651160079941292
 20
74.8081089930349776
 30
0.0
 40
60.867246911804493
 50
88.6252341147212945
 51
92.4019206816482779
  0
ARC
  5
324AE
  8
0
 10
2870.1400500823438051
 20
3039.4029919195681941
 30
0.0
 40
2903.7883296964828332
 50
269.9687098475890821
 51
270.1277445086375906
  0
ARC
  5
324AF
  8
0
 10
2868.5240559308849697
 20
137.1512965243219924
 30
0.0
 40
1.536497877246964
 50
183.6476689131918931
 51
271.125794593526507
  0
LINE
  5
324B0
  8
0
 10
2866.9906707792351881
 20
137.0535432456788953
 30
0.0
 11
2866.895686308284894
 21
143.8863269530687887
 31
0.0
  0
LINE
  5
324B1
  8
0
 10
2873.6976964404348109
 20
147.9198597095789012
 30
0.0
 11
2873.6611669449348483
 21
147.6073570352789091
 31
0.0
  0
ARC
  5
324B2
  8
0
 10
2870.0443121972512017
 20
150.6786351109672921
 30
0.0
 40
4.7449328007936478
 50
315.187256511597127
 51
319.6635108810443171
  0
ARC
  5
324B3
  8
0
 10
2847.3322622577611583
 20
183.5102579039759121
 30
0.0
 40
44.5955213326848821
 50
303.2860054936073766
 51
305.7868203196690047
  0
ARC
  5
324B4
  8
0
 10
2859.5518289940969225
 20
165.5858950741323952
 30
0.0
 40
22.9085900240898397
 50
288.6975331950600889
 51
302.3415184718031128
  0
LINE
  5
324B5
  8
0
 10
2882.2631661109780907
 20
149.5733930579291098
 30
0.0
 11
2882.1998269852351768
 21
149.122711760478893
 31
0.0
  0
ARC
  5
324B6
  8
0
 10
2930.5870266645169977
 20
144.1908772853560095
 30
0.0
 40
48.6378873317164206
 50
174.1802616087379931
 51
175.2718005093312001
  0
ARC
  5
324B7
  8
0
 10
2881.3819276836729841
 20
148.2611876273061
 30
0.0
 40
0.7352755266170387
 50
309.4528976107678204
 51
355.2304343239774767
  0
ARC
  5
324B8
  8
0
 10
2880.8002772363661279
 20
149.0737256980850987
 30
0.0
 40
1.7335836817068691
 50
302.0645713245472166
 51
307.2312698148277263
  0
ARC
  5
324B9
  8
0
 10
2881.8317741521368589
 20
147.4389208884753089
 30
0.0
 40
0.1995262137702276
 50
123.8641974840983977
 51
172.7511988701307075
  0
ARC
  5
324BA
  8
0
 10
2568.6510179696738305
 20
177.986429302077994
 30
0.0
 40
314.4675838923653259
 50
353.6105984122452242
 51
354.4300829195362894
  0
ARC
  5
324BB
  8
0
 10
2881.3588474491348279
 20
142.9705964836788041
 30
0.0
 40
0.1946132224995897
 50
174.0201828164792062
 51
192.555466647026293
  0
ARC
  5
324BC
  8
0
 10
2870.7627259869741465
 20
142.3447882631853929
 30
0.0
 40
3.3967542445306691
 50
257.563415900076393
 51
289.4419389624291057
  0
ARC
  5
324BD
  8
0
 10
2870.3043547543020395
 20
143.6433692463992884
 30
0.0
 40
4.7738587274608353
 50
289.4419389624291057
 51
316.1960149581461792
  0
ARC
  5
324BE
  8
0
 10
2841.3780307595839076
 20
171.3865789395431989
 30
0.0
 40
44.8540022392437692
 50
316.1960149581461792
 51
318.0869907617147874
  0
ARC
  5
324BF
  8
0
 10
2868.6974211763222229
 20
146.8630928363104999
 30
0.0
 40
8.1422811763788996
 50
318.0869907617147874
 51
325.5994322989118928
  0
ARC
  5
324C0
  8
0
 10
2893.3506117393008026
 20
129.982342160813289
 30
0.0
 40
21.7364662589272193
 50
143.231830244413203
 51
145.5994322989118928
  0
ARC
  5
324C1
  8
0
 10
2877.1263940749859103
 20
142.4957259067448092
 30
0.0
 40
1.2880798238685609
 50
92.1974060595113656
 51
157.2747593229638028
  0
ARC
  5
324C2
  8
0
 10
2877.0083193690970802
 20
142.4382747944326013
 30
0.0
 40
1.346336988644506
 50
24.0056738797647391
 51
87.0756571895615252
  0
ARC
  5
324C3
  8
0
 10
2876.3971277899099732
 20
141.8279107612007977
 30
0.0
 40
2.175026287467333
 50
2.1377522774421278
 51
32.1710688708952617
  0
LINE
  5
324C4
  8
0
 10
2878.5706403292351752
 20
141.9090439391789005
 30
0.0
 11
2878.6184545433779931
 21
140.6704101764597965
 31
0.0
  0
ARC
  5
324C5
  8
0
 10
2876.3977081410471328
 20
140.5928550437550939
 30
0.0
 40
2.2220991459790058
 50
269.9999091375930789
 51
2.0077952230746758
  0
LINE
  5
324C6
  8
0
 10
2876.3977046171348775
 20
138.3707558977789063
 30
0.0
 11
2874.1251306801641476
 21
138.3707595017365009
 31
0.0
  0
ARC
  5
324C7
  8
0
 10
2874.1251268695659746
 20
135.9678803018470887
 30
0.0
 40
2.4028791998924
 50
89.9999091376712244
 51
169.7811535396324132
  0
ARC
  5
324C8
  8
0
 10
2869.9883094236370198
 20
138.7463557937346081
 30
0.0
 40
0.284633969207834
 50
81.3323093435710831
 51
125.3247853750858951
  0
LINE
  5
324C9
  8
0
 10
2869.8237310397348665
 20
138.9785851027789079
 30
0.0
 11
2869.2744552240351368
 21
138.6855454745789018
 31
0.0
  0
ARC
  5
324CA
  8
0
 10
2869.4230569475580523
 20
138.4209073282040094
 30
0.0
 40
0.3035058825636544
 50
119.3154293536643991
 51
177.3917772412185059
  0
LINE
  5
324CB
  8
0
 10
2869.1198654821350829
 20
138.4347187743788936
 30
0.0
 11
2869.2032813297910252
 21
136.7455552938843084
 31
0.0
  0
ARC
  5
324CC
  8
0
 10
2869.736783647987977
 20
136.7628280307260979
 30
0.0
 40
0.5337818570954301
 50
181.854367455993696
 51
269.9595917404378156
  0
LINE
  5
324CD
  8
0
 10
2869.7364071945348769
 20
136.2290463063789048
 30
0.0
 11
2871.5680906453039825
 21
136.2277544982694906
 31
0.0
  0
ARC
  5
324CE
  8
0
 10
2871.5682275524100078
 20
136.4218781290634865
 30
0.0
 40
0.1941236790713201
 50
269.9595917404378156
 51
351.7943152062766785
  0
ARC
  5
324CF
  8
0
 10
2868.7628193539508175
 20
148.8728790874370134
 30
0.0
 40
6.080394459579411
 50
291.1746451009163934
 51
322.2228886401217096
  0
ARC
  5
324D0
  8
0
 10
2873.989772593879934
 20
127.6636247885589057
 30
0.0
 40
15.8321599320673396
 50
101.0358497562217934
 51
110.4553779821804937
  0
ARC
  5
324D1
  8
0
 10
2868.5284441952189809
 20
142.3079942326191087
 30
0.0
 40
0.2025854588173897
 50
110.7154387767022996
 51
182.810551557848413
  0
ARC
  5
324D2
  8
0
 10
2885.0338664931668973
 20
143.6377105676982922
 30
0.0
 40
16.7613854438627001
 50
184.5842414417182056
 51
193.8937085696302915
  0
ARC
  5
324D3
  8
0
 10
2871.3401039202171887
 20
139.7506319283804999
 30
0.0
 40
2.5809080089791592
 50
183.058139509098794
 51
210.6547989637479077
  0
ARC
  5
324D4
  8
0
 10
2871.0702551956278512
 20
142.9885816984690905
 30
0.0
 40
0.2415124076102726
 50
117.3948437460463055
 51
162.8139559571490054
  0
ARC
  5
324D5
  8
0
 10
2873.5115534551359815
 20
141.7351889811951082
 30
0.0
 40
2.98239866749539
 50
153.6284298871759972
 51
165.9258889490581055
  0
ARC
  5
324D6
  8
0
 10
2871.0291594408181481
 20
142.3561039028136008
 30
0.0
 40
0.4235313615000996
 50
165.7386295265814908
 51
224.2075574146280132
  0
ARC
  5
324D7
  8
0
 10
2870.9412184956681813
 20
142.3056366260277912
 30
0.0
 40
0.3262749745709395
 50
228.6269823979407931
 51
275.8614824075215779
  0
ARC
  5
324D8
  8
0
 10
2870.9615573789078553
 20
143.0591262812052094
 30
0.0
 40
1.0781369214560901
 50
270.6899000337144798
 51
300.0348095404718265
  0
ARC
  5
324D9
  8
0
 10
2867.5658953023012145
 20
147.7387079884184971
 30
0.0
 40
6.855053107356138
 50
305.0347068971798876
 51
320.1698877196179183
  0
ARC
  5
324DA
  8
0
 10
2861.4778635643551752
 20
152.6256666876726058
 30
0.0
 40
14.6612336718113205
 50
320.7425745342554819
 51
327.7463851133297226
  0
ARC
  5
324DB
  8
0
 10
2875.0957371679901371
 20
143.997083323998794
 30
0.0
 40
1.460422602962173
 50
108.5215271709510034
 51
146.5802861203034979
  0
ARC
  5
324DC
  8
0
 10
2848.4678718201880656
 20
212.3142738980691888
 30
0.0
 40
71.864454243291874
 50
291.350577789301326
 51
292.3153954465158222
  0
ARC
  5
324DD
  8
0
 10
2877.3977016285889476
 20
141.3565939725436067
 30
0.0
 40
4.767227716575567
 50
82.7161191983234971
 51
110.1544156751536008
  0
ARC
  5
324DE
  8
0
 10
2879.3758379132491427
 20
154.0888270300453939
 30
0.0
 40
8.1205134701521597
 50
260.2606255995456195
 51
267.5276080253701139
  0
ARC
  5
324DF
  8
0
 10
2877.0733560748508353
 20
142.6423191703323141
 30
0.0
 40
3.8631053778932261
 50
43.8826392409606072
 51
59.6461173965128211
  0
ARC
  5
324E0
  8
0
 10
2875.8440967010119493
 20
141.551247453129406
 30
0.0
 40
5.505812701914671
 50
14.9219062883817806
 51
43.1989200421302328
  0
ARC
  5
324E1
  8
0
 10
2876.6317626938998728
 20
152.4915924044670987
 30
0.0
 40
6.9415207074950498
 50
290.1725173374367159
 51
303.350459145033085
  0
ARC
  5
324E2
  8
0
 10
2877.5033797119767769
 20
152.2267613520342024
 30
0.0
 40
6.2682452278161831
 50
298.0184431289036979
 51
311.4420501362865252
  0
ARC
  5
324E3
  8
0
 10
2874.5393947385250613
 20
144.3473235945976114
 30
0.0
 40
1.2583092612618201
 50
123.3412705611946052
 51
140.4778489489013111
  0
ARC
  5
324E4
  8
0
 10
2873.9682987162750578
 20
145.2153709646179891
 30
0.0
 40
0.2192438623439507
 50
335.6646596064762775
 51
123.3412705611946052
  0
LINE
  5
324E5
  8
0
 10
2871.2902386499840759
 20
149.7637701206672034
 30
0.0
 11
2871.2902386499840759
 21
148.5211575278788985
 31
0.0
  0
LINE
  5
324E6
  8
0
 10
2871.2902386499840759
 20
148.5211575278788985
 30
0.0
 11
2879.2861951989521003
 21
149.1029347615888128
 31
0.0
  0
ARC
  5
324E7
  8
0
 10
2876.3669282556988946
 20
149.0041833973374992
 30
0.0
 40
2.9209405407715949
 50
1.9374348774831549
 51
17.2396565611758312
  0
LINE
  5
324E8
  8
0
 10
2874.9102624344350261
 20
150.3698606459788891
 30
0.0
 11
2874.8750824128351269
 21
150.6869239482788885
 31
0.0
  0
ARC
  5
324E9
  8
0
 10
2874.8671916460830289
 20
150.6860484217112059
 30
0.0
 40
0.0079391905576444
 50
6.331403095262206
 51
87.2855006257389761
  0
ARC
  5
324EA
  8
0
 10
-354861.607061225688085
 20
-6834047.1147087626159191
 30
0.0
 40
6843554.2719809329137206
 50
87.003583883885355
 51
87.0035934249164882
  0
ARC
  5
324EB
  8
0
 10
2873.6383739295761188
 20
150.9090942593880129
 30
0.0
 40
0.157647360835252
 50
214.3487822807140901
 51
277.2916676653167087
  0
ARC
  5
324EC
  8
0
 10
2873.6975158258042029
 20
150.4468862201711943
 30
0.0
 40
0.308329071407956
 50
84.0419697280842968
 51
97.2916676653167372
  0
LINE
  5
324ED
  8
0
 10
2872.8245254639878112
 20
150.369723025856814
 30
0.0
 11
2872.8878133491348308
 21
150.8201882218789081
 31
0.0
  0
LINE
  5
324EE
  8
0
 10
2873.6487528431548526
 20
150.7517799768872919
 30
0.0
 11
2872.8674363395871296
 21
150.6751504539255109
 31
0.0
  0
LINE
  5
324EF
  8
0
 10
2873.6758747398589549
 20
150.7544548786434007
 30
0.0
 11
2873.6807055646040681
 21
150.8001427417572131
 31
0.0
  0
ARC
  5
324F0
  8
0
 10
2873.7390919085219139
 20
150.7914127309315973
 30
0.0
 40
0.0590353982378531
 50
86.0452050160297262
 51
171.4960517942512013
  0
LINE
  5
324F1
  8
0
 10
2873.7431635443790583
 20
150.8503075526610928
 30
0.0
 11
2874.8195120829968801
 21
150.7758952499247869
 31
0.0
  0
ARC
  5
324F2
  8
0
 10
2874.8154868080400774
 20
150.7176710227709862
 30
0.0
 40
0.058363203014679
 50
2.7936054481652151
 51
86.0452050160297262
  0
ARC
  5
324F3
  8
0
 10
2874.589998577159804
 20
150.6977326364115015
 30
0.0
 40
0.2846951466573185
 50
358.240960859612926
 51
4.5900391515168577
  0
ARC
  5
324F4
  8
0
 10
2872.1997610234348031
 20
148.2201165897365911
 30
0.0
 40
2.5865352671057158
 50
105.7358671875119001
 51
123.7899524461791998
  0
ENDSEC
  0
EOF
