  0
SECTION
  2
HEADER
  9
$ACADVER
  1
AC1009
  9
$INSBASE
 10
2840.9568923614560845
 20
201.1966671421018873
 30
0.0
  9
$EXTMIN
 10
2831.1601631704061219
 20
171.4301617470705139
 30
-0.0015258207003583
  9
$EXTMAX
 10
2850.7339994296189616
 20
201.2104646111305044
 30
0.0000000349246037
  9
$LIMMIN
 10
0.0
 20
0.0
  9
$LIMMAX
 10
11.6929133858000007
 20
8.2677165353999982
  9
$ORTHOMODE
 70
     1
  9
$REGENMODE
 70
     1
  9
$FILLMODE
 70
     1
  9
$QTEXTMODE
 70
     0
  9
$MIRRTEXT
 70
     0
  9
$DRAGMODE
 70
     2
  9
$LTSCALE
 40
0.6431102362
  9
$OSMODE
 70
  2039
  9
$ATTMODE
 70
     1
  9
$TEXTSIZE
 40
0.2
  9
$TRACEWID
 40
0.05
  9
$TEXTSTYLE
  7
STANDARD
  9
$CLAYER
  8
0
  9
$CELTYPE
  6
BYLAYER
  9
$CECOLOR
 62
   256
  9
$DIMSCALE
 40
1.0
  9
$DIMASZ
 40
0.1875
  9
$DIMEXO
 40
0.0625
  9
$DIMDLI
 40
0.4443307087
  9
$DIMRND
 40
0.0
  9
$DIMDLE
 40
0.0
  9
$DIMEXE
 40
0.125
  9
$DIMTP
 40
0.01
  9
$DIMTM
 40
0.01
  9
$DIMTXT
 40
2.0
  9
$DIMCEN
 40
0.1052362205
  9
$DIMTSZ
 40
0.0
  9
$DIMTOL
 70
     1
  9
$DIMLIM
 70
     0
  9
$DIMTIH
 70
     1
  9
$DIMTOH
 70
     1
  9
$DIMSE1
 70
     0
  9
$DIMSE2
 70
     0
  9
$DIMTAD
 70
     0
  9
$DIMZIN
 70
     0
  9
$DIMBLK
  1

  9
$DIMASO
 70
     1
  9
$DIMSHO
 70
     1
  9
$DIMPOST
  1
\X
  9
$DIMAPOST
  1

  9
$DIMALT
 70
     1
  9
$DIMALTD
 70
     2
  9
$DIMALTF
 40
25.3999999999999986
  9
$DIMLFAC
 40
1.0
  9
$DIMTOFL
 70
     0
  9
$DIMTVP
 40
0.0
  9
$DIMTIX
 70
     0
  9
$DIMSOXD
 70
     0
  9
$DIMSAH
 70
     0
  9
$DIMBLK1
  1

  9
$DIMBLK2
  1

  9
$DIMSTYLE
  2
STANDARD
  9
$DIMCLRD
 70
     0
  9
$DIMCLRE
 70
     0
  9
$DIMCLRT
 70
     0
  9
$DIMTFAC
 40
1.0
  9
$DIMGAP
 40
0.09
  9
$LUNITS
 70
     2
  9
$LUPREC
 70
     4
  9
$SKETCHINC
 40
0.1
  9
$FILLETRAD
 40
0.0
  9
$AUNITS
 70
     0
  9
$AUPREC
 70
     0
  9
$MENU
  1
.
  9
$ELEVATION
 40
0.0
  9
$PELEVATION
 40
0.0
  9
$THICKNESS
 40
0.0
  9
$LIMCHECK
 70
     0
  9
$BLIPMODE
 70
     0
  9
$CHAMFERA
 40
0.0
  9
$CHAMFERB
 40
0.0
  9
$SKPOLY
 70
     0
  9
$TDCREATE
 40
2458060.468368056230247
  9
$TDUPDATE
 40
2459333.4175462969578803
  9
$TDINDWG
 40
0.6600417824
  9
$TDUSRTIMER
 40
0.6600417824
  9
$USRTIMER
 70
     1
  9
$ANGBASE
 50
0.0
  9
$ANGDIR
 70
     0
  9
$PDMODE
 70
     0
  9
$PDSIZE
 40
0.3125
  9
$PLINEWID
 40
0.0
  9
$COORDS
 70
     1
  9
$SPLFRAME
 70
     0
  9
$SPLINETYPE
 70
     6
  9
$SPLINESEGS
 70
     8
  9
$ATTDIA
 70
     1
  9
$ATTREQ
 70
     1
  9
$HANDLING
 70
     1
  9
$HANDSEED
  5
32325
  9
$SURFTAB1
 70
     6
  9
$SURFTAB2
 70
     6
  9
$SURFTYPE
 70
     6
  9
$SURFU
 70
     6
  9
$SURFV
 70
     6
  9
$UCSNAME
  2

  9
$UCSORG
 10
0.0
 20
0.0
 30
0.0
  9
$UCSXDIR
 10
1.0
 20
0.0
 30
0.0
  9
$UCSYDIR
 10
0.0
 20
1.0
 30
0.0
  9
$PUCSNAME
  2

  9
$PUCSORG
 10
0.0
 20
0.0
 30
0.0
  9
$PUCSXDIR
 10
1.0
 20
0.0
 30
0.0
  9
$PUCSYDIR
 10
0.0
 20
1.0
 30
0.0
  9
$USERI1
 70
     0
  9
$USERI2
 70
     0
  9
$USERI3
 70
     0
  9
$USERI4
 70
     0
  9
$USERI5
 70
     0
  9
$USERR1
 40
0.0
  9
$USERR2
 40
0.0
  9
$USERR3
 40
0.0
  9
$USERR4
 40
0.0
  9
$USERR5
 40
0.0
  9
$WORLDVIEW
 70
     1
  9
$SHADEDGE
 70
     3
  9
$SHADEDIF
 70
    70
  9
$TILEMODE
 70
     1
  9
$MAXACTVP
 70
    64
  9
$PLIMCHECK
 70
     0
  9
$PEXTMIN
 10
1.0000000000000000E+20
 20
1.0000000000000000E+20
 30
1.0000000000000000E+20
  9
$PEXTMAX
 10
-1.0000000000000000E+20
 20
-1.0000000000000000E+20
 30
-1.0000000000000000E+20
  9
$PLIMMIN
 10
0.0
 20
0.0
  9
$PLIMMAX
 10
12.0
 20
9.0
  9
$UNITMODE
 70
     0
  9
$VISRETAIN
 70
     1
  9
$PLINEGEN
 70
     0
  9
$PSLTSCALE
 70
     1
  0
ENDSEC
  0
SECTION
  2
TABLES
  0
TABLE
  2
VPORT
 70
     1
  0
VPORT
  2
*ACTIVE
 70
     0
 10
0.0
 20
0.0
 11
1.0
 21
1.0
 12
-462.7460339343624014
 22
-8.9411983967872288
 13
0.0
 23
0.0
 14
1.0
 24
1.0
 15
0.0
 25
0.0
 16
0.0
 26
0.0
 36
96.5995694866707311
 17
3303.693115234375
 27
195.2615115758877096
 37
0.0
 40
30.0281278532199885
 41
2.6486111111111108
 42
50.0
 43
0.0
 44
0.0
 50
0.0
 51
0.0
 71
     0
 72
   100
 73
     1
 74
     1
 75
     0
 76
     0
 77
     0
 78
     0
  0
ENDTAB
  0
TABLE
  2
LTYPE
 70
     2
  0
LTYPE
  2
CONTINUOUS
 70
     0
  3
Solid line
 72
    65
 73
     0
 40
0.0
  0
LTYPE
  2
PHANTOM2
 70
     0
  3
___ _ _ ___ _ _ ___ _ _ ___ _ _
 72
    65
 73
     6
 40
1.25
 49
0.625
 49
-0.125
 49
0.125
 49
-0.125
 49
0.125
 49
-0.125
  0
ENDTAB
  0
TABLE
  2
LAYER
 70
     2
  0
LAYER
  2
0
 70
     0
 62
   255
  6
CONTINUOUS
  0
LAYER
  2
DEFPOINTS
 70
     0
 62
     7
  6
CONTINUOUS
  0
ENDTAB
  0
TABLE
  2
STYLE
 70
     1
  0
STYLE
  2
STANDARD
 70
     0
 40
0.0
 41
0.8
 50
0.0
 71
     0
 42
0.2
  3
txt
  4

  0
ENDTAB
  0
TABLE
  2
VIEW
 70
     0
  0
ENDTAB
  0
TABLE
  2
UCS
 70
     0
  0
ENDTAB
  0
TABLE
  2
APPID
 70
     9
  0
APPID
  2
ACAD
 70
     0
  0
APPID
  2
ACAD_MLEADERVER
 70
     0
  0
APPID
  2
ACAD_EXEMPT_FROM_CAD_STANDARDS
 70
     0
  0
APPID
  2
ACAD_NAV_VCDISPLAY
 70
     0
  0
APPID
  2
ACAECLAYERSTANDARD
 70
     0
  0
APPID
  2
ACCMTRANSPARENCY
 70
     0
  0
APPID
  2
ACAD_DSTYLE_DIMJAG
 70
     0
  0
APPID
  2
ACAD_DSTYLE_DIMTALN
 70
     0
  0
APPID
  2
ACDBATTR
 70
     0
  0
ENDTAB
  0
TABLE
  2
DIMSTYLE
 70
     1
  0
DIMSTYLE
  2
STANDARD
 70
     0
  3

  4

  5

  6

  7

 40
1.0
 41
0.1875
 42
0.0625
 43
0.38
 44
0.125
 45
0.0
 46
0.0
 47
0.01
 48
0.01
140
0.15625
141
0.09
142
0.0
143
25.3999999999999986
144
1.0
145
0.0
146
1.0
147
0.09
 71
     1
 72
     0
 73
     1
 74
     1
 75
     0
 76
     0
 77
     0
 78
     4
170
     0
171
     2
172
     0
173
     0
174
     0
175
     0
176
     0
177
     0
178
     0
  0
ENDTAB
  0
ENDSEC
  0
SECTION
  2
BLOCKS
  0
BLOCK
  8
0
  2
$MODEL_SPACE
 70
     0
 10
0.0
 20
0.0
 30
0.0
  3
$MODEL_SPACE
  1

  0
ENDBLK
  5
21
  8
0
  0
BLOCK
 67
     1
  8
0
  2
$PAPER_SPACE
 70
     0
 10
0.0
 20
0.0
 30
0.0
  3
$PAPER_SPACE
  1

  0
ENDBLK
  5
1D
 67
     1
  8
0
  0
BLOCK
  8
0
  2
_FILLED
 70
     0
 10
0.0
 20
0.0
 30
0.0
  3
_FILLED
  1

  0
SOLID
  5
2ABDA
  8
0
  6
BYBLOCK
 62
     0
 10
0.0
 20
0.0
 30
0.0
 11
-1.0
 21
0.1666666667
 31
0.0
 12
-1.0
 22
-0.1666666667
 32
0.0
 13
-1.0
 23
-0.1666666667
 33
0.0
  0
ENDBLK
  5
2ABDB
  8
0
  6
BYBLOCK
 62
     0
  0
ENDSEC
  0
SECTION
  2
ENTITIES
  0
ATTDEF
  5
31F0D
  8
DEFPOINTS
 10
2840.9572879222691881
 20
201.2006765631035989
 30
0.0
 40
0.001
  1
K-3862T-W
  3

  2
MODELNUMBER
 70
     0
1001
ACDBATTR
1070
     0
1070
     1
  0
ATTDEF
  5
31F0E
  8
DEFPOINTS
 10
2840.9572879222691881
 20
201.1990098964369054
 30
0.0
 40
0.001
  1
CAVATA
  3

  2
TRADENAME
 70
     0
1001
ACDBATTR
1070
     0
1070
     1
  0
ATTDEF
  5
31F0F
  8
DEFPOINTS
 10
2840.9572879222691881
 20
201.1973432297702971
 30
0.0
 40
0.001
  1
TOILET
  3

  2
PRODUCT
 70
     0
1001
ACDBATTR
1070
     0
1070
     1
  0
LINE
  5
32161
  8
0
 10
2832.6045133246029764
 20
201.1966671421018873
 30
0.0
 11
2849.3092713983078283
 21
201.1966671421018873
 31
0.0
  0
ARC
  5
32162
  8
0
 10
2832.6054537369518584
 20
200.5851111216792049
 30
0.0
 40
0.6115567434756674
 50
90.0881057733935364
 51
143.2322919240432952
  0
ARC
  5
32163
  8
0
 10
2834.8695181913108172
 20
198.6243272159184983
 30
0.0
 40
3.6053462601209691
 50
139.8052780346353927
 51
206.4583909079454997
  0
ARC
  5
32164
  8
0
 10
2836.9559448921431795
 20
199.6021980233379907
 30
0.0
 40
5.9091731273290788
 50
205.9332833274469863
 51
251.0080562107131925
  0
ARC
  5
32165
  8
0
 10
2840.8157101999217957
 20
209.8369139318494945
 30
0.0
 40
16.8458781693985387
 50
249.9232900847993903
 51
270.4801909744344925
  0
ARC
  5
32166
  8
0
 10
2822.9034413131539623
 20
194.9524572560752063
 30
0.0
 40
13.9764971567340801
 50
340.8660773385665266
 51
353.9385533587802115
  0
ARC
  5
32167
  8
0
 10
2823.0053566237052109
 20
194.7897333259064965
 30
0.0
 40
13.8273985159872996
 50
332.5246996928232193
 51
341.3646826952742117
  0
ARC
  5
32168
  8
0
 10
2877.8366634618469106
 20
164.6200740204151032
 30
0.0
 40
48.7608836027707895
 50
150.7977155057205891
 51
154.5906365275980079
  0
ARC
  5
32169
  8
0
 10
2842.4283108413192167
 20
182.3465788090572914
 30
0.0
 40
9.2080749424065633
 50
159.6911099892139134
 51
179.6238102789546929
  0
ARC
  5
3216A
  8
0
 10
2847.6188308003102065
 20
182.7443300212441102
 30
0.0
 40
14.4023465697394002
 50
181.3419531606566011
 51
214.3511223649194903
  0
ARC
  5
3216B
  8
0
 10
2842.3905111023941572
 20
178.8530952346318941
 30
0.0
 40
7.8945549635037873
 50
212.4460950453998862
 51
237.1766700995229087
  0
ARC
  5
3216C
  8
0
 10
2840.8891905883260733
 20
176.8080620459529939
 30
0.0
 40
5.3644138331284772
 50
238.8122968249666087
 51
266.31510029409651
  0
ARC
  5
3216D
  8
0
 10
2841.2193671913209982
 20
183.6878087531933943
 30
0.0
 40
12.25167552734864
 50
266.8419816651780252
 51
268.7724249985682263
  0
LINE
  5
3216E
  8
0
 10
2842.7137523536871413
 20
189.3824205391019007
 30
0.0
 11
2839.2000323551460497
 21
189.3824205278019122
 31
0.0
  0
LINE
  5
3216F
  8
0
 10
2839.2000323551460497
 20
189.3824205278019122
 30
0.0
 11
2839.2000322626868183
 21
189.968553235501787
 31
0.0
  0
ARC
  5
32170
  8
0
 10
2839.120519835459163
 20
189.9685532229592866
 30
0.0
 40
0.0795124272279858
 50
0.0000090379977153
 51
89.4435217366954731
  0
LINE
  5
32171
  8
0
 10
2839.1212920780599234
 20
190.0480619000018976
 30
0.0
 11
2838.6430274466638366
 21
190.0482245682912037
 31
0.0
  0
ARC
  5
32172
  8
0
 10
2838.6523745516228701
 20
189.9602120768670943
 30
0.0
 40
0.0885074404656646
 50
96.0622044445158849
 51
145.2875392602211946
  0
ARC
  5
32173
  8
0
 10
2836.5211927134591861
 20
-102.4723734216901931
 30
0.0
 40
292.5644993629820192
 50
89.7441724113651702
 51
89.8603483952032036
  0
ARC
  5
32174
  8
0
 10
2837.231822502003979
 20
189.0817917421179004
 30
0.0
 40
1.0094681612181871
 50
89.8603483952032036
 51
141.8544432264170894
  0
ARC
  5
32175
  8
0
 10
2858.4875864604778144
 20
172.9564818189411994
 30
0.0
 40
27.6895324400666105
 50
142.779857590358688
 51
145.3965146675762128
  0
ARC
  5
32176
  8
0
 10
2845.9833153663357734
 20
182.3196985582200966
 30
0.0
 40
12.0951110108919799
 50
148.2673697936122892
 51
168.042188361114512
  0
ARC
  5
32177
  8
0
 10
2845.948519533050785
 20
182.3378535089925947
 30
0.0
 40
12.0573132996628996
 50
168.0923290628246889
 51
196.8939203056858105
  0
ARC
  5
32178
  8
0
 10
2847.6670005424771261
 20
182.8777240953426997
 30
0.0
 40
13.8585296735615096
 50
196.9649499827202987
 51
221.3865144903990938
  0
ARC
  5
32179
  8
0
 10
2840.9579589502868657
 20
176.9745386173019028
 30
0.0
 40
4.9221593557000238
 50
221.4635820972079046
 51
250.4447729170458956
  0
ARC
  5
3217A
  8
0
 10
2840.958163184165187
 20
176.9753188012516034
 30
0.0
 40
4.922962898777465
 50
250.4455723172002024
 51
269.9852094958225166
  0
LINE
  5
3217B
  8
0
 10
2838.5797196129437907
 20
190.0106634871719109
 30
0.0
 11
2837.7604474160971222
 21
190.0106636522752126
 31
0.0
  0
ARC
  5
3217C
  8
0
 10
2837.7604543326829116
 20
224.3319949200916881
 30
0.0
 40
34.3213312678171292
 50
269.5150925352862146
 51
269.9999884534983039
  0
ARC
  5
3217D
  8
0
 10
2837.4401074902898472
 20
188.7943418714482959
 30
0.0
 40
1.2179175394586059
 50
88.5941389767196767
 51
117.4424638237708933
  0
ARC
  5
3217E
  8
0
 10
2837.3620938302151444
 20
189.0552769357938132
 30
0.0
 40
0.9517596522726826
 50
120.5152614302752028
 51
142.1039699762289956
  0
ARC
  5
3217F
  8
0
 10
2848.5355369535041064
 20
180.4877610080378076
 30
0.0
 40
15.0317986747268897
 50
142.4935784816987905
 51
146.9756130683188076
  0
ARC
  5
32180
  8
0
 10
2845.8536572211191924
 20
182.3886779858611078
 30
0.0
 40
11.7479586478067901
 50
147.6203221419119984
 51
164.0147618256430064
  0
ARC
  5
32181
  8
0
 10
2846.0656159860650405
 20
182.2804577379606883
 30
0.0
 40
11.98161129387519
 50
163.7963952085044923
 51
182.5438060533190878
  0
ARC
  5
32182
  8
0
 10
2846.1197924067328131
 20
182.3447379503051877
 30
0.0
 40
12.0387459772280501
 50
182.8379896932657971
 51
201.9306249529713
  0
ARC
  5
32183
  8
0
 10
2848.0386576946712012
 20
183.0886590837831136
 30
0.0
 40
14.0966233925178202
 50
201.8226056201779102
 51
217.5399415041439113
  0
ARC
  5
32184
  8
0
 10
2841.9749840676768144
 20
178.1916396788062116
 30
0.0
 40
6.3075493993270717
 50
215.8291905707642115
 51
237.9736199767324933
  0
ARC
  5
32185
  8
0
 10
2840.9822493394772209
 20
177.1108556210155029
 30
0.0
 40
4.8722031379187714
 50
241.1326395320662925
 51
264.4843050388454913
  0
ARC
  5
32186
  8
0
 10
2840.9544429633929212
 20
177.0441605279908117
 30
0.0
 40
4.803191226591256
 50
264.7379933579521776
 51
270.0292196162208143
  0
LINE
  5
32187
  8
0
 10
2837.8274987513868837
 20
190.0892051649018129
 30
0.0
 11
2837.8274987513868837
 21
190.0272300642018877
 31
0.0
  0
LINE
  5
32188
  8
0
 10
2837.8274987513868837
 20
190.0272300642018877
 30
0.0
 11
2838.4966813671871932
 21
190.0272300642018877
 31
0.0
  0
ARC
  5
32189
  8
0
 10
2838.4966813671871932
 20
189.9785457501166945
 30
0.0
 40
0.048684314085186
 50
41.27810021183668
 51
90.0
  0
ARC
  5
3218A
  8
0
 10
2838.1709790493841865
 20
189.8668275340803859
 30
0.0
 40
0.3739956684488652
 50
129.542230376954592
 51
154.6025782587834101
  0
LINE
  5
3218B
  8
0
 10
2837.9328759111867839
 20
190.155236368201912
 30
0.0
 11
2838.4690973033070804
 21
190.1552346308569952
 31
0.0
  0
ARC
  5
3218C
  8
0
 10
2838.2117212937027944
 20
189.8546981854129001
 30
0.0
 40
0.3956825100376891
 50
23.2140816931820702
 51
49.4236612064227501
  0
ARC
  5
3218D
  8
0
 10
2840.9348066194788771
 20
177.5786614094799063
 30
0.0
 40
3.8537545968181068
 50
253.9179029530266121
 51
270.3283620422407125
  0
ARC
  5
3218E
  8
0
 10
2841.3370298880590781
 20
178.9738326531455925
 30
0.0
 40
5.3057485213711768
 50
227.7978039304319964
 51
253.9179029530266121
  0
ARC
  5
3218F
  8
0
 10
2845.7465606871551245
 20
182.5868081743670075
 30
0.0
 40
10.9764107335780707
 50
198.1270501507532913
 51
223.411546770974212
  0
ARC
  5
32190
  8
0
 10
2844.485466848067972
 20
182.274339970113914
 30
0.0
 40
9.6811596246172762
 50
155.6969421115236969
 51
198.6916505950950125
  0
ARC
  5
32191
  8
0
 10
2843.4499591476860587
 20
182.8444427715672873
 30
0.0
 40
8.5032970533885397
 50
137.9224208915204031
 51
156.3263197034418113
  0
ARC
  5
32192
  8
0
 10
2838.1480412244582112
 20
187.5975513812732913
 30
0.0
 40
1.383008373777304
 50
109.315354379373403
 51
136.8838060959103871
  0
ARC
  5
32193
  8
0
 10
2840.981992913978047
 20
174.736009059498798
 30
0.0
 40
14.5440319230961705
 50
97.0393926119063082
 51
103.0797035344281056
  0
ARC
  5
32194
  8
0
 10
2840.9974469500461964
 20
175.2450011655081141
 30
0.0
 40
14.0409855280836702
 50
90.1654876712257476
 51
97.35652044967064
  0
LINE
  5
32195
  8
0
 10
2839.2000261132930063
 20
189.968494681092011
 30
0.0
 11
2842.7137523545879958
 21
189.968494681092011
 31
0.0
  0
ARC
  5
32196
  8
0
 10
3715.7265587903898449
 20
547.6103095724940886
 30
0.0
 40
948.1778709301157733
 50
202.1474812899099049
 51
202.1516902086029006
  0
ARC
  5
32197
  8
0
 10
2837.6542207841807794
 20
190.214179034129188
 30
0.0
 40
0.1572884027705402
 50
174.7765723631738126
 51
202.1474812899099049
  0
LINE
  5
32198
  8
0
 10
2837.4975855597767804
 20
190.2284985355854019
 30
0.0
 11
2837.5871484275571675
 21
191.2081904568387927
 31
0.0
  0
ARC
  5
32199
  8
0
 10
2837.7636853273302222
 20
191.1920515557517888
 30
0.0
 40
0.177273069330782
 50
106.0873566357641948
 51
174.7765723631738126
  0
ARC
  5
3219A
  8
0
 10
2838.2010415859999739
 20
189.659775591666687
 30
0.0
 40
1.7707439097743101
 50
98.3123613783990749
 51
105.9460177311999018
  0
LINE
  5
3219B
  8
0
 10
2837.9450456974291228
 20
191.4119171667221053
 30
0.0
 11
2838.4569276498377803
 21
191.4119172157381001
 31
0.0
  0
ARC
  5
3219C
  8
0
 10
2838.2010038907151284
 20
189.6601326374018868
 30
0.0
 40
1.7703802358195839
 50
74.0559069725617007
 51
81.6882781510449689
  0
ARC
  5
3219D
  8
0
 10
2838.6387888281901724
 20
191.1925118325586936
 30
0.0
 40
0.1766921705980464
 50
5.0896988723942451
 51
74.0559069725366328
  0
LINE
  5
3219E
  8
0
 10
2838.814784307123773
 20
191.2081871170998113
 30
0.0
 11
2838.904387869412858
 21
190.2285013060156871
 31
0.0
  0
ARC
  5
3219F
  8
0
 10
2838.7477834110218282
 20
190.2141738039692882
 30
0.0
 40
0.1572584932614812
 50
337.8501307137598246
 51
5.2273509731272494
  0
LINE
  5
321A0
  8
0
 10
2838.8934363565372223
 20
190.1548825468944131
 30
0.0
 11
2838.8499902094617937
 21
190.0481541757168884
 31
0.0
  0
LINE
  5
321A1
  8
0
 10
2838.8301839585869857
 20
190.1777081921017896
 30
0.0
 11
2837.5718397298869604
 21
190.1777081921017896
 31
0.0
  0
ARC
  5
321A2
  8
0
 10
2837.5718397165910574
 20
190.2170391578468127
 30
0.0
 40
0.039330965744997
 50
174.8564841281308873
 51
270.0000193695988173
  0
LINE
  5
321A3
  8
0
 10
2837.532667126286924
 20
190.2205652088019008
 30
0.0
 11
2837.6210478972629971
 21
191.1857469862738128
 31
0.0
  0
ARC
  5
321A4
  8
0
 10
2837.7633779035541011
 20
191.1729085633519105
 30
0.0
 40
0.1429078561456055
 50
105.9198413120791997
 51
174.8453035537274047
  0
ARC
  5
321A5
  8
0
 10
2838.2009424363600374
 20
189.6349374747084084
 30
0.0
 40
1.7419130768167841
 50
98.4464574398477055
 51
105.884606908917803
  0
LINE
  5
321A6
  8
0
 10
2838.466734872887173
 20
191.3564666506019023
 30
0.0
 11
2838.466734872887173
 21
191.4083636477018899
 31
0.0
  0
LINE
  5
321A7
  8
0
 10
2838.466734872887173
 20
191.4083636477018899
 30
0.0
 11
2838.4568588455781537
 21
191.4098363077976046
 31
0.0
  0
LINE
  5
321A8
  8
0
 10
2838.4568588455781537
 20
191.4098363077976046
 30
0.0
 11
2837.945131160487108
 21
191.4098314889018866
 31
0.0
  0
LINE
  5
321A9
  8
0
 10
2837.945131160487108
 20
191.4098314889018866
 30
0.0
 11
2837.9352388098868687
 21
191.4083636477018899
 31
0.0
  0
LINE
  5
321AA
  8
0
 10
2837.9352388098868687
 20
191.4083636477018899
 30
0.0
 11
2837.9352388098868687
 21
191.3564666429211059
 31
0.0
  0
LINE
  5
321AB
  8
0
 10
2837.9450456974291228
 20
191.4119171667221053
 30
0.0
 11
2837.945131160487108
 21
191.4098314889018866
 31
0.0
  0
LINE
  5
321AC
  8
0
 10
2838.4568588455781537
 20
191.4098363077976046
 30
0.0
 11
2838.4569276498377803
 21
191.4119172157381001
 31
0.0
  0
ARC
  5
321AD
  8
0
 10
2838.200986348087099
 20
189.6696016049027946
 30
0.0
 40
1.7277010565990101
 50
98.8481159046942963
 51
105.8512047017917013
  0
ARC
  5
321AE
  8
0
 10
2837.7772554253938324
 20
191.1619430873969918
 30
0.0
 40
0.176369049832093
 50
105.8512047017917013
 51
175.2506145331088874
  0
LINE
  5
321AF
  8
0
 10
2837.6014919579870366
 20
191.1765460071017912
 30
0.0
 11
2837.5176592471980257
 21
190.2314895769511907
 31
0.0
  0
ARC
  5
321B0
  8
0
 10
2837.6732574458810632
 20
190.2176044326211013
 30
0.0
 40
0.1562165057428106
 50
174.9005936249054969
 51
190.3769086324140005
  0
ARC
  5
321B1
  8
0
 10
2837.6890447735268026
 20
190.2204953730008867
 30
0.0
 40
0.1722663422061004
 50
190.3769086324155921
 51
201.3203338795511002
  0
LINE
  5
321B2
  8
0
 10
2837.5285679515718584
 20
190.157862456157801
 30
0.0
 11
2837.5557481994078444
 21
190.090296757638697
 31
0.0
  0
LINE
  5
321B3
  8
0
 10
2837.9450813296239176
 20
191.357956993241288
 30
0.0
 11
2837.9450813296239176
 21
191.407080869801888
 31
0.0
  0
LINE
  5
321B4
  8
0
 10
2837.9450813296239176
 20
191.407080869801888
 30
0.0
 11
2838.4568923531869586
 21
191.407080869801888
 31
0.0
  0
LINE
  5
321B5
  8
0
 10
2838.4568923531869586
 20
191.407080869801888
 30
0.0
 11
2838.4568923531960536
 21
191.35795699323549
 31
0.0
  0
ARC
  5
321B6
  8
0
 10
2838.8301839718837982
 20
190.2170391578468127
 30
0.0
 40
0.039330965744997
 50
269.9999806304011827
 51
5.1435158718690941
  0
LINE
  5
321B7
  8
0
 10
2838.8693565621870221
 20
190.2205652088019008
 30
0.0
 11
2838.7809757912118584
 21
191.1857469862738128
 31
0.0
  0
ARC
  5
321B8
  8
0
 10
2838.638645784919845
 20
191.1729085633519105
 30
0.0
 40
0.1429078561456055
 50
5.1546964462726281
 51
74.0801586879208003
  0
ARC
  5
321B9
  8
0
 10
2838.2010812521139087
 20
189.6349374747084084
 30
0.0
 40
1.7419130768167841
 50
74.1153930910821686
 51
81.5535425601523229
  0
ARC
  5
321BA
  8
0
 10
2838.2010373403868471
 20
189.6696016049027946
 30
0.0
 40
1.7277010565990101
 50
74.1487952982082561
 51
81.1518840953057179
  0
ARC
  5
321BB
  8
0
 10
2838.6247682630810232
 20
191.1619430873969918
 30
0.0
 40
0.176369049832093
 50
4.7493854668910451
 51
74.1487952982082561
  0
LINE
  5
321BC
  8
0
 10
2838.8005317304869095
 20
191.1765460071017912
 30
0.0
 11
2838.884270072696836
 21
190.2325534102457141
 31
0.0
  0
ARC
  5
321BD
  8
0
 10
2838.6602476360808396
 20
190.2205495230124939
 30
0.0
 40
0.2243438107364186
 50
352.0359474003299738
 51
3.0671703180270908
  0
LINE
  5
321BE
  8
0
 10
2838.8734557369020877
 20
190.157862456157801
 30
0.0
 11
2838.8293252494199805
 21
190.0481612043230086
 31
0.0
  0
ARC
  5
321BF
  8
0
 10
2838.7129789149471435
 20
190.2204953730008867
 30
0.0
 40
0.1722663422061004
 50
338.6796661204489283
 51
349.6230913675826741
  0
ARC
  5
321C0
  8
0
 10
2849.3083309859589463
 20
200.5851111216792049
 30
0.0
 40
0.6115567434756674
 50
36.7677080759567119
 51
89.9118942266064352
  0
ARC
  5
321C1
  8
0
 10
2847.0442665315999875
 20
198.6243272159184983
 30
0.0
 40
3.6053462601209691
 50
333.5416090920546139
 51
40.1947219653645575
  0
ARC
  5
321C2
  8
0
 10
2844.9578398307671705
 20
199.6021980233379907
 30
0.0
 40
5.9091731273290788
 50
288.9919437892867791
 51
334.0667166725530137
  0
ARC
  5
321C3
  8
0
 10
2841.0934104027837748
 20
209.8639212083830046
 30
0.0
 40
16.8728461164463006
 50
269.5364154376410966
 51
290.0601037248085845
  0
ARC
  5
321C4
  8
0
 10
2859.0103434097568424
 20
194.9524572560752063
 30
0.0
 40
13.9764971567340801
 50
186.0614466412197885
 51
199.1339226614319102
  0
ARC
  5
321C5
  8
0
 10
2858.908428099205139
 20
194.7897333259064965
 30
0.0
 40
13.8273985159872996
 50
198.6353173047257883
 51
207.4753003071768092
  0
ARC
  5
321C6
  8
0
 10
2804.0771212610638941
 20
164.6200740204151032
 30
0.0
 40
48.7608836027707895
 50
25.4093634724019708
 51
29.2022844942793611
  0
ARC
  5
321C7
  8
0
 10
2839.4239172802799658
 20
182.3355315339634046
 30
0.0
 40
9.2696457166369601
 50
0.3880945012399366
 51
20.2408703518362394
  0
ARC
  5
321C8
  8
0
 10
2834.299651277187877
 20
182.7431987286369974
 30
0.0
 40
14.3978302124019208
 50
325.6420466572586747
 51
358.6274300699046194
  0
ARC
  5
321C9
  8
0
 10
2839.5232736205161928
 20
178.8530952346318941
 30
0.0
 40
7.8945549635037873
 50
302.8233299004771197
 51
327.5539049546001138
  0
ARC
  5
321CA
  8
0
 10
2841.0245941345851861
 20
176.8080620459529939
 30
0.0
 40
5.3644138331284772
 50
273.68489970590349
 51
301.1877031750333913
  0
ARC
  5
321CB
  8
0
 10
2840.6944175315879875
 20
183.6878087532168138
 30
0.0
 40
12.2516755273720008
 50
271.2275750014317737
 51
273.1580183347959974
  0
LINE
  5
321CC
  8
0
 10
2842.7137523677661193
 20
189.3824205278019122
 30
0.0
 11
2842.7137524602239864
 21
189.968553235501787
 31
0.0
  0
ARC
  5
321CD
  8
0
 10
2842.793264887451187
 20
189.9685532229592866
 30
0.0
 40
0.0795124272279858
 50
90.5564782633045269
 51
179.9999909620021867
  0
LINE
  5
321CE
  8
0
 10
2842.7924926448508813
 20
190.0480619000018976
 30
0.0
 11
2843.2707572762469681
 21
190.0482245682912037
 31
0.0
  0
ARC
  5
321CF
  8
0
 10
2843.2614101712879346
 20
189.9602120768670943
 30
0.0
 40
0.0885074404656646
 50
34.7124607397787699
 51
83.9377955554841151
  0
ARC
  5
321D0
  8
0
 10
2845.3925920094511639
 20
-102.4723734216901931
 30
0.0
 40
292.5644993629820192
 50
90.1396516047968106
 51
90.255827588634844
  0
ARC
  5
321D1
  8
0
 10
2844.6819622209059162
 20
189.0817917421179004
 30
0.0
 40
1.0094681612181871
 50
38.145556773582868
 51
90.1396516047968106
  0
ARC
  5
321D2
  8
0
 10
2823.4261982624329903
 20
172.9564818189411994
 30
0.0
 40
27.6895324400666105
 50
34.6034853324238014
 51
37.2201424096412623
  0
ARC
  5
321D3
  8
0
 10
2835.9304693565750313
 20
182.3196985582200966
 30
0.0
 40
12.0951110108919799
 50
11.9578116388854401
 51
31.7326302063877108
  0
ARC
  5
321D4
  8
0
 10
2835.9652651898591103
 20
182.3378535089925947
 30
0.0
 40
12.0573132996628996
 50
343.1060796943140758
 51
11.9076709371753005
  0
ARC
  5
321D5
  8
0
 10
2834.2467841804332238
 20
182.8777240953426997
 30
0.0
 40
13.8585296735615096
 50
318.6134855096008778
 51
343.0350500172796728
  0
ARC
  5
321D6
  8
0
 10
2840.955825772623939
 20
176.9745386173019028
 30
0.0
 40
4.9221593557000238
 50
289.5552270829539907
 51
318.5364179027920954
  0
ARC
  5
321D7
  8
0
 10
2840.9556215387460725
 20
176.9753188012516034
 30
0.0
 40
4.922962898777465
 50
270.0147905041775971
 51
289.5544276827997123
  0
LINE
  5
321D8
  8
0
 10
2843.334065109967014
 20
190.0106634871719109
 30
0.0
 11
2844.153337306812773
 21
190.0106636522752126
 31
0.0
  0
ARC
  5
321D9
  8
0
 10
2844.1533303902269836
 20
224.3319949200916881
 30
0.0
 40
34.3213312678171292
 50
270.0000115465016961
 51
270.4849074647137854
  0
ARC
  5
321DA
  8
0
 10
2844.4736772326209575
 20
188.7943418714482959
 30
0.0
 40
1.2179175394586059
 50
62.5575361762291067
 51
91.4058610232803233
  0
ARC
  5
321DB
  8
0
 10
2844.5516908926952055
 20
189.0552769357938132
 30
0.0
 40
0.9517596522726826
 50
37.8960300237709902
 51
59.4847385697247617
  0
ARC
  5
321DC
  8
0
 10
2833.3782477694057889
 20
180.4877610080378076
 30
0.0
 40
15.0317986747268897
 50
33.0243869316811498
 51
37.5064215183012095
  0
ARC
  5
321DD
  8
0
 10
2836.0601275017920671
 20
182.3886779858611078
 30
0.0
 40
11.7479586478067901
 50
15.98523817435699
 51
32.3796778580880229
  0
ARC
  5
321DE
  8
0
 10
2835.848168736846219
 20
182.2804577379606883
 30
0.0
 40
11.9816112938752202
 50
357.4561939466807985
 51
16.2036047914954793
  0
ARC
  5
321DF
  8
0
 10
2835.7939923161779916
 20
182.3447379503051877
 30
0.0
 40
12.0387459772280501
 50
338.0693750470272221
 51
357.1620103067340892
  0
ARC
  5
321E0
  8
0
 10
2833.8751270282400583
 20
183.0886590837831136
 30
0.0
 40
14.0966233925178202
 50
322.4600584958561171
 51
338.1773943798220898
  0
ARC
  5
321E1
  8
0
 10
2839.9388006552330808
 20
178.1916396788062116
 30
0.0
 40
6.3075493993270717
 50
302.0263800232676203
 51
324.1708094292357032
  0
ARC
  5
321E2
  8
0
 10
2840.9315353834340385
 20
177.1108556210155029
 30
0.0
 40
4.8722031379187714
 50
275.5156949611546224
 51
298.8673604679337927
  0
ARC
  5
321E3
  8
0
 10
2840.9593417595178835
 20
177.0441605279908117
 30
0.0
 40
4.803191226591256
 50
269.9707803837791857
 51
275.2620066420478224
  0
LINE
  5
321E4
  8
0
 10
2844.086285971523921
 20
190.0892051649018129
 30
0.0
 11
2844.086285971523921
 21
190.0272300642018877
 31
0.0
  0
LINE
  5
321E5
  8
0
 10
2844.086285971523921
 20
190.0272300642018877
 30
0.0
 11
2843.4171033557240662
 21
190.0272300642018877
 31
0.0
  0
ARC
  5
321E6
  8
0
 10
2843.4171033557240662
 20
189.9785457501166945
 30
0.0
 40
0.048684314085186
 50
90.0
 51
138.7218997881633129
  0
ARC
  5
321E7
  8
0
 10
2843.7428056735270729
 20
189.8668275340803859
 30
0.0
 40
0.3739956684488652
 50
25.3974217412165615
 51
50.4577696230454009
  0
LINE
  5
321E8
  8
0
 10
2843.9809088117240208
 20
190.155236368201912
 30
0.0
 11
2843.444687419604179
 21
190.1552346308569952
 31
0.0
  0
ARC
  5
321E9
  8
0
 10
2843.7020634292071009
 20
189.8546981854129001
 30
0.0
 40
0.3956825100376891
 50
130.5763387935772073
 51
156.785918306817905
  0
ARC
  5
321EA
  8
0
 10
2840.9789781034319276
 20
177.5786614094799063
 30
0.0
 40
3.8537545968181068
 50
269.6716379577592875
 51
286.0820970469732742
  0
ARC
  5
321EB
  8
0
 10
2840.5767548348521814
 20
178.9738326531455925
 30
0.0
 40
5.3057485213711768
 50
286.0820970469732742
 51
312.2021960695680036
  0
ARC
  5
321EC
  8
0
 10
2836.1672240357570445
 20
182.5868081743670075
 30
0.0
 40
10.9764107335780707
 50
316.5884532290256743
 51
341.8729498492451171
  0
ARC
  5
321ED
  8
0
 10
2837.4283178748419232
 20
182.274339970113914
 30
0.0
 40
9.6811596246172797
 50
341.3083494049050159
 51
24.3030578884762996
  0
ARC
  5
321EE
  8
0
 10
2838.4638255752252007
 20
182.8444427715672873
 30
0.0
 40
8.5032970533885397
 50
23.673680296558171
 51
42.0775791084796467
  0
ARC
  5
321EF
  8
0
 10
2843.7657434984521387
 20
187.5975513812732913
 30
0.0
 40
1.383008373777304
 50
43.1161939040896272
 51
70.6846456206265117
  0
ARC
  5
321F0
  8
0
 10
2840.9317918089318482
 20
174.736009059498798
 30
0.0
 40
14.5440319230961705
 50
76.9202964655719086
 51
82.9606073880936776
  0
ARC
  5
321F1
  8
0
 10
2840.9008316571189425
 20
175.0091177256909134
 30
0.0
 40
14.2769204671221495
 50
82.7029738713018077
 51
89.7750180077788116
  0
LINE
  5
321F2
  8
0
 10
2842.7137586096177984
 20
189.968494681092011
 30
0.0
 11
2839.2000323683228089
 21
189.968494681092011
 31
0.0
  0
ARC
  5
321F3
  8
0
 10
1966.1872259325200503
 20
547.6103095724940886
 30
0.0
 40
948.1778709301157733
 50
337.8483097913971278
 51
337.8525187100901235
  0
ARC
  5
321F4
  8
0
 10
2844.2595639387300253
 20
190.214179034129188
 30
0.0
 40
0.1572884027705402
 50
337.852518710088475
 51
5.2234276368261341
  0
LINE
  5
321F5
  8
0
 10
2844.4161991631340243
 20
190.2284985355854019
 30
0.0
 11
2844.326636295354092
 21
191.2081904568387927
 31
0.0
  0
ARC
  5
321F6
  8
0
 10
2844.1500993955801277
 20
191.1920515557517888
 30
0.0
 40
0.177273069330782
 50
5.2234276368261341
 51
73.9126433642358052
  0
ARC
  5
321F7
  8
0
 10
2843.7127431369108308
 20
189.6597755916664028
 30
0.0
 40
1.770743909774583
 50
74.0539822688001266
 51
81.6871828476550661
  0
LINE
  5
321F8
  8
0
 10
2843.9687529633329177
 20
191.4119151302816988
 30
0.0
 11
2843.4568446998241598
 21
191.4119222907017956
 31
0.0
  0
ARC
  5
321F9
  8
0
 10
2843.7131538806897879
 20
189.6586404165030046
 30
0.0
 40
1.771917528157162
 50
98.3170548180821271
 51
105.9424369797834942
  0
ARC
  5
321FA
  8
0
 10
2843.2749958947201776
 20
191.1925118325586936
 30
0.0
 40
0.1766921705980464
 50
105.9440930274632962
 51
174.9103011276056918
  0
LINE
  5
321FB
  8
0
 10
2843.0990004157870317
 20
191.2081871170998113
 30
0.0
 11
2843.0093968534979467
 21
190.2285013060156871
 31
0.0
  0
ARC
  5
321FC
  8
0
 10
2843.1660013118889765
 20
190.2141738039692882
 30
0.0
 40
0.1572584932614812
 50
174.7726490268726991
 51
202.1498692862402038
  0
LINE
  5
321FD
  8
0
 10
2843.0203483663731276
 20
190.1548825468944131
 30
0.0
 11
2843.0637945134481015
 21
190.0481541757168884
 31
0.0
  0
LINE
  5
321FE
  8
0
 10
2843.083600764323819
 20
190.1777086175017928
 30
0.0
 11
2844.3419449930238443
 21
190.1777081921017896
 31
0.0
  0
ARC
  5
321FF
  8
0
 10
2844.3419450063202021
 20
190.2170391578468127
 30
0.0
 40
0.039330965744997
 50
269.9999806304011827
 51
5.1435158718690941
  0
LINE
  5
32200
  8
0
 10
2844.3811175966238807
 20
190.2205652088019008
 30
0.0
 11
2844.2927368256478076
 21
191.1857469862738128
 31
0.0
  0
ARC
  5
32201
  8
0
 10
2844.1504068193571584
 20
191.1729085633519105
 30
0.0
 40
0.1429078561456055
 50
5.1546964462726281
 51
74.0801586879208003
  0
ARC
  5
32202
  8
0
 10
2843.7128422865498578
 20
189.6349374747084084
 30
0.0
 40
1.7419130768167841
 50
74.1153930910821686
 51
81.5535425601523229
  0
LINE
  5
32203
  8
0
 10
2843.447049850023177
 20
191.3564666506019023
 30
0.0
 11
2843.447049850023177
 21
191.4083636477018899
 31
0.0
  0
LINE
  5
32204
  8
0
 10
2843.447049850023177
 20
191.4083636477018899
 30
0.0
 11
2843.4569258773321963
 21
191.4098363077976046
 31
0.0
  0
LINE
  5
32205
  8
0
 10
2843.4569258773321963
 20
191.4098363077976046
 30
0.0
 11
2843.9686535624241515
 21
191.4098314889018866
 31
0.0
  0
LINE
  5
32206
  8
0
 10
2843.9686535624241515
 20
191.4098314889018866
 30
0.0
 11
2843.978545913023936
 21
191.4083636477018899
 31
0.0
  0
LINE
  5
32207
  8
0
 10
2843.978545913023936
 20
191.4083636477018899
 30
0.0
 11
2843.978545913023936
 21
191.3564666429211059
 31
0.0
  0
LINE
  5
32208
  8
0
 10
2843.9687529633329177
 20
191.4119151302816988
 30
0.0
 11
2843.9686535624241515
 21
191.4098314889018866
 31
0.0
  0
LINE
  5
32209
  8
0
 10
2843.4569258773321963
 20
191.4098363077976046
 30
0.0
 11
2843.4568446998241598
 21
191.4119222907017956
 31
0.0
  0
ARC
  5
3220A
  8
0
 10
2843.7127983748241604
 20
189.6696016049027946
 30
0.0
 40
1.7277010565990101
 50
74.1487952982082561
 51
81.1518840953057179
  0
ARC
  5
3220B
  8
0
 10
2844.1365292975169723
 20
191.1619430873969918
 30
0.0
 40
0.176369049832093
 50
4.7493854668910451
 51
74.1487952982082561
  0
LINE
  5
3220C
  8
0
 10
2844.3122927649242229
 20
191.1765460071017912
 30
0.0
 11
2844.3961327636088754
 21
190.2314076645963041
 31
0.0
  0
ARC
  5
3220D
  8
0
 10
2844.2405272770301963
 20
190.2176044326211013
 30
0.0
 40
0.1562165057428106
 50
349.6230913675843794
 51
5.0994063750944596
  0
ARC
  5
3220E
  8
0
 10
2844.2247399493830926
 20
190.2204953730008867
 30
0.0
 40
0.1722663422061004
 50
338.6796661204489283
 51
349.6230913675826741
  0
LINE
  5
3220F
  8
0
 10
2844.3852167713389463
 20
190.157862456157801
 30
0.0
 11
2844.3580365235029603
 21
190.090296757638697
 31
0.0
  0
LINE
  5
32210
  8
0
 10
2843.9687033932868871
 20
191.357956993241288
 30
0.0
 11
2843.9687033932868871
 21
191.407080869801888
 31
0.0
  0
LINE
  5
32211
  8
0
 10
2843.9687033932868871
 20
191.407080869801888
 30
0.0
 11
2843.4568923697238461
 21
191.407080869801888
 31
0.0
  0
LINE
  5
32212
  8
0
 10
2843.4568923697238461
 20
191.407080869801888
 30
0.0
 11
2843.4568423640598667
 21
191.357956993241288
 31
0.0
  0
ARC
  5
32213
  8
0
 10
2843.0831931907828221
 20
190.2166670222177061
 30
0.0
 40
0.0389605366261114
 50
174.2576770148118896
 51
270.5993929154785178
  0
LINE
  5
32214
  8
0
 10
2843.0444281607237826
 20
190.2205652088019008
 30
0.0
 11
2843.1328089316989463
 21
191.1857469862738128
 31
0.0
  0
ARC
  5
32215
  8
0
 10
2843.2751389379900502
 20
191.1729085633519105
 30
0.0
 40
0.1429078561456055
 50
105.9198413120791997
 51
174.8453035537274047
  0
ARC
  5
32216
  8
0
 10
2843.712703470796896
 20
189.6349374747084084
 30
0.0
 40
1.7419130768167841
 50
98.4464574398477055
 51
105.884606908917803
  0
ARC
  5
32217
  8
0
 10
2843.7127473825230481
 20
189.6696016049027946
 30
0.0
 40
1.7277010565990101
 50
98.8481159046942963
 51
105.8512047017917013
  0
ARC
  5
32218
  8
0
 10
2843.2890164598297815
 20
191.1619430873969918
 30
0.0
 40
0.176369049832093
 50
105.8512047017917013
 51
175.2506145331088874
  0
LINE
  5
32219
  8
0
 10
2843.1132529924238952
 20
191.1765460071017912
 30
0.0
 11
2843.0294202816339748
 21
190.2314895769511907
 31
0.0
  0
ARC
  5
3221A
  8
0
 10
2843.1850184803170123
 20
190.2176044326211013
 30
0.0
 40
0.1562165057428106
 50
174.9005936249054969
 51
190.3769086324140005
  0
LINE
  5
3221B
  8
0
 10
2843.0403289860078075
 20
190.157862456157801
 30
0.0
 11
2843.0844594734908242
 21
190.0481612043230086
 31
0.0
  0
ARC
  5
3221C
  8
0
 10
2843.200805807964116
 20
190.2204953730008867
 30
0.0
 40
0.1722663422061004
 50
190.3769086324155921
 51
201.3203338795511002
  0
ENDSEC
  0
EOF
