  0
SECTION
  2
HEADER
  9
$ACADVER
  1
AC1009
  9
$INSBASE
 10
2840.956872817385829
 20
135.0079601071429067
 30
0.0
  9
$EXTMIN
 10
2831.1627407269070318
 20
135.0022400392350903
 30
-0.0015258207003583
  9
$EXTMAX
 10
2850.7365948066121746
 20
164.2339723596446106
 30
0.0000000349246037
  9
$LIMMIN
 10
0.0
 20
0.0
  9
$LIMMAX
 10
11.6929133858000007
 20
8.2677165353999982
  9
$ORTHOMODE
 70
     1
  9
$REGENMODE
 70
     1
  9
$FILLMODE
 70
     1
  9
$QTEXTMODE
 70
     0
  9
$MIRRTEXT
 70
     0
  9
$DRAGMODE
 70
     2
  9
$LTSCALE
 40
0.6431102362
  9
$OSMODE
 70
  2039
  9
$ATTMODE
 70
     1
  9
$TEXTSIZE
 40
0.2
  9
$TRACEWID
 40
0.05
  9
$TEXTSTYLE
  7
STANDARD
  9
$CLAYER
  8
0
  9
$CELTYPE
  6
BYLAYER
  9
$CECOLOR
 62
   256
  9
$DIMSCALE
 40
1.0
  9
$DIMASZ
 40
0.1875
  9
$DIMEXO
 40
0.0625
  9
$DIMDLI
 40
0.4443307087
  9
$DIMRND
 40
0.0
  9
$DIMDLE
 40
0.0
  9
$DIMEXE
 40
0.125
  9
$DIMTP
 40
0.01
  9
$DIMTM
 40
0.01
  9
$DIMTXT
 40
2.0
  9
$DIMCEN
 40
0.1052362205
  9
$DIMTSZ
 40
0.0
  9
$DIMTOL
 70
     1
  9
$DIMLIM
 70
     0
  9
$DIMTIH
 70
     1
  9
$DIMTOH
 70
     1
  9
$DIMSE1
 70
     0
  9
$DIMSE2
 70
     0
  9
$DIMTAD
 70
     0
  9
$DIMZIN
 70
     0
  9
$DIMBLK
  1

  9
$DIMASO
 70
     1
  9
$DIMSHO
 70
     1
  9
$DIMPOST
  1
\X
  9
$DIMAPOST
  1

  9
$DIMALT
 70
     1
  9
$DIMALTD
 70
     2
  9
$DIMALTF
 40
25.3999999999999986
  9
$DIMLFAC
 40
1.0
  9
$DIMTOFL
 70
     0
  9
$DIMTVP
 40
0.0
  9
$DIMTIX
 70
     0
  9
$DIMSOXD
 70
     0
  9
$DIMSAH
 70
     0
  9
$DIMBLK1
  1

  9
$DIMBLK2
  1

  9
$DIMSTYLE
  2
STANDARD
  9
$DIMCLRD
 70
     0
  9
$DIMCLRE
 70
     0
  9
$DIMCLRT
 70
     0
  9
$DIMTFAC
 40
1.0
  9
$DIMGAP
 40
0.09
  9
$LUNITS
 70
     2
  9
$LUPREC
 70
     4
  9
$SKETCHINC
 40
0.1
  9
$FILLETRAD
 40
0.0
  9
$AUNITS
 70
     0
  9
$AUPREC
 70
     0
  9
$MENU
  1
.
  9
$ELEVATION
 40
0.0
  9
$PELEVATION
 40
0.0
  9
$THICKNESS
 40
0.0
  9
$LIMCHECK
 70
     0
  9
$BLIPMODE
 70
     0
  9
$CHAMFERA
 40
0.0
  9
$CHAMFERB
 40
0.0
  9
$SKPOLY
 70
     0
  9
$TDCREATE
 40
2458060.468368056230247
  9
$TDUPDATE
 40
2459333.4178587961941957
  9
$TDINDWG
 40
0.660608912
  9
$TDUSRTIMER
 40
0.660608912
  9
$USRTIMER
 70
     1
  9
$ANGBASE
 50
0.0
  9
$ANGDIR
 70
     0
  9
$PDMODE
 70
     0
  9
$PDSIZE
 40
0.3125
  9
$PLINEWID
 40
0.0
  9
$COORDS
 70
     1
  9
$SPLFRAME
 70
     0
  9
$SPLINETYPE
 70
     6
  9
$SPLINESEGS
 70
     8
  9
$ATTDIA
 70
     1
  9
$ATTREQ
 70
     1
  9
$HANDLING
 70
     1
  9
$HANDSEED
  5
324E7
  9
$SURFTAB1
 70
     6
  9
$SURFTAB2
 70
     6
  9
$SURFTYPE
 70
     6
  9
$SURFU
 70
     6
  9
$SURFV
 70
     6
  9
$UCSNAME
  2

  9
$UCSORG
 10
0.0
 20
0.0
 30
0.0
  9
$UCSXDIR
 10
1.0
 20
0.0
 30
0.0
  9
$UCSYDIR
 10
0.0
 20
1.0
 30
0.0
  9
$PUCSNAME
  2

  9
$PUCSORG
 10
0.0
 20
0.0
 30
0.0
  9
$PUCSXDIR
 10
1.0
 20
0.0
 30
0.0
  9
$PUCSYDIR
 10
0.0
 20
1.0
 30
0.0
  9
$USERI1
 70
     0
  9
$USERI2
 70
     0
  9
$USERI3
 70
     0
  9
$USERI4
 70
     0
  9
$USERI5
 70
     0
  9
$USERR1
 40
0.0
  9
$USERR2
 40
0.0
  9
$USERR3
 40
0.0
  9
$USERR4
 40
0.0
  9
$USERR5
 40
0.0
  9
$WORLDVIEW
 70
     1
  9
$SHADEDGE
 70
     3
  9
$SHADEDIF
 70
    70
  9
$TILEMODE
 70
     1
  9
$MAXACTVP
 70
    64
  9
$PLIMCHECK
 70
     0
  9
$PEXTMIN
 10
1.0000000000000000E+20
 20
1.0000000000000000E+20
 30
1.0000000000000000E+20
  9
$PEXTMAX
 10
-1.0000000000000000E+20
 20
-1.0000000000000000E+20
 30
-1.0000000000000000E+20
  9
$PLIMMIN
 10
0.0
 20
0.0
  9
$PLIMMAX
 10
12.0
 20
9.0
  9
$UNITMODE
 70
     0
  9
$VISRETAIN
 70
     1
  9
$PLINEGEN
 70
     0
  9
$PSLTSCALE
 70
     1
  0
ENDSEC
  0
SECTION
  2
TABLES
  0
TABLE
  2
VPORT
 70
     1
  0
VPORT
  2
*ACTIVE
 70
     0
 10
0.0
 20
0.0
 11
1.0
 21
1.0
 12
-462.7434474676156242
 22
-45.6434053764478733
 13
0.0
 23
0.0
 14
1.0
 24
1.0
 15
0.0
 25
0.0
 16
0.0
 26
0.0
 36
96.5995694866707311
 17
3303.693115234375
 27
195.2615115758877096
 37
0.0
 40
29.4749922287623605
 41
2.6486111111111108
 42
50.0
 43
0.0
 44
0.0
 50
0.0
 51
0.0
 71
     0
 72
   100
 73
     1
 74
     1
 75
     0
 76
     0
 77
     0
 78
     0
  0
ENDTAB
  0
TABLE
  2
LTYPE
 70
     2
  0
LTYPE
  2
CONTINUOUS
 70
     0
  3
Solid line
 72
    65
 73
     0
 40
0.0
  0
LTYPE
  2
PHANTOM2
 70
     0
  3
___ _ _ ___ _ _ ___ _ _ ___ _ _
 72
    65
 73
     6
 40
1.25
 49
0.625
 49
-0.125
 49
0.125
 49
-0.125
 49
0.125
 49
-0.125
  0
ENDTAB
  0
TABLE
  2
LAYER
 70
     2
  0
LAYER
  2
0
 70
     0
 62
   255
  6
CONTINUOUS
  0
LAYER
  2
DEFPOINTS
 70
     0
 62
     7
  6
CONTINUOUS
  0
ENDTAB
  0
TABLE
  2
STYLE
 70
     1
  0
STYLE
  2
STANDARD
 70
     0
 40
0.0
 41
0.8
 50
0.0
 71
     0
 42
0.2
  3
txt
  4

  0
ENDTAB
  0
TABLE
  2
VIEW
 70
     0
  0
ENDTAB
  0
TABLE
  2
UCS
 70
     0
  0
ENDTAB
  0
TABLE
  2
APPID
 70
     9
  0
APPID
  2
ACAD
 70
     0
  0
APPID
  2
ACAD_MLEADERVER
 70
     0
  0
APPID
  2
ACAD_EXEMPT_FROM_CAD_STANDARDS
 70
     0
  0
APPID
  2
ACAD_NAV_VCDISPLAY
 70
     0
  0
APPID
  2
ACAECLAYERSTANDARD
 70
     0
  0
APPID
  2
ACCMTRANSPARENCY
 70
     0
  0
APPID
  2
ACAD_DSTYLE_DIMJAG
 70
     0
  0
APPID
  2
ACAD_DSTYLE_DIMTALN
 70
     0
  0
APPID
  2
ACDBATTR
 70
     0
  0
ENDTAB
  0
TABLE
  2
DIMSTYLE
 70
     1
  0
DIMSTYLE
  2
STANDARD
 70
     0
  3

  4

  5

  6

  7

 40
1.0
 41
0.1875
 42
0.0625
 43
0.38
 44
0.125
 45
0.0
 46
0.0
 47
0.01
 48
0.01
140
0.15625
141
0.09
142
0.0
143
25.3999999999999986
144
1.0
145
0.0
146
1.0
147
0.09
 71
     1
 72
     0
 73
     1
 74
     1
 75
     0
 76
     0
 77
     0
 78
     4
170
     0
171
     2
172
     0
173
     0
174
     0
175
     0
176
     0
177
     0
178
     0
  0
ENDTAB
  0
ENDSEC
  0
SECTION
  2
BLOCKS
  0
BLOCK
  8
0
  2
$MODEL_SPACE
 70
     0
 10
0.0
 20
0.0
 30
0.0
  3
$MODEL_SPACE
  1

  0
ENDBLK
  5
21
  8
0
  0
BLOCK
 67
     1
  8
0
  2
$PAPER_SPACE
 70
     0
 10
0.0
 20
0.0
 30
0.0
  3
$PAPER_SPACE
  1

  0
ENDBLK
  5
1D
 67
     1
  8
0
  0
BLOCK
  8
0
  2
_FILLED
 70
     0
 10
0.0
 20
0.0
 30
0.0
  3
_FILLED
  1

  0
SOLID
  5
2ABDA
  8
0
  6
BYBLOCK
 62
     0
 10
0.0
 20
0.0
 30
0.0
 11
-1.0
 21
0.1666666667
 31
0.0
 12
-1.0
 22
-0.1666666667
 32
0.0
 13
-1.0
 23
-0.1666666667
 33
0.0
  0
ENDBLK
  5
2ABDB
  8
0
  6
BYBLOCK
 62
     0
  0
ENDSEC
  0
SECTION
  2
ENTITIES
  0
ATTDEF
  5
31F0A
  8
DEFPOINTS
 10
2840.9572879222691881
 20
135.0121469984582063
 30
0.0
 40
0.001
  1
K-3862T-W
  3

  2
MODELNUMBER
 70
     0
1001
ACDBATTR
1070
     0
1070
     1
  0
ATTDEF
  5
31F0B
  8
DEFPOINTS
 10
2840.9572879222691881
 20
135.0104803317915128
 30
0.0
 40
0.001
  1
CAVATA
  3

  2
TRADENAME
 70
     0
1001
ACDBATTR
1070
     0
1070
     1
  0
ATTDEF
  5
31F0C
  8
DEFPOINTS
 10
2840.9572879222691881
 20
135.0088136651247908
 30
0.0
 40
0.001
  1
TOILET
  3

  2
PRODUCT
 70
     0
1001
ACDBATTR
1070
     0
1070
     1
  0
LINE
  5
321DF
  8
0
 10
2835.9522982680177847
 20
135.0079601071429067
 30
0.0
 11
2845.9614473667538732
 21
135.0079601071429067
 31
0.0
  0
LINE
  5
321E1
  8
0
 10
2850.407247427618131
 20
164.2289601071429104
 30
0.0
 11
2831.5064901913178801
 21
164.2289601071429104
 31
0.0
  0
ARC
  5
321E2
  8
0
 10
2831.511027410063889
 20
163.981883850365989
 30
0.0
 40
0.2471179131848516
 50
91.0520406624342229
 51
177.459459465915586
  0
ARC
  5
321E3
  8
0
 10
2624.9069542455140436
 20
106.7838616768122932
 30
0.0
 40
214.1405149861112989
 50
15.1692870699315794
 51
15.4951167160623307
  0
ARC
  5
321E4
  8
0
 10
2831.7001205499250318
 20
162.8516898331241975
 30
0.0
 40
0.1187310917554105
 50
196.2794757548421956
 51
269.7251819473120236
  0
LINE
  5
321E5
  8
0
 10
2831.6995510608180666
 20
162.7329601071429011
 30
0.0
 11
2850.214019815517986
 21
162.7329601071429011
 31
0.0
  0
ARC
  5
321E6
  8
0
 10
2850.2135883938922234
 20
162.8517513849849081
 30
0.0
 40
0.1187920612496166
 50
270.2080837089624765
 51
344.7108064808650738
  0
ARC
  5
321E7
  8
0
 10
2770.7553777404509674
 20
146.4450429130183977
 30
0.0
 40
63.3822350755607218
 50
11.2791659101886399
 51
14.8908948161542405
  0
ARC
  5
321E8
  8
0
 10
2780.2623646703618761
 20
148.3411316256751888
 30
0.0
 40
53.6880124201973672
 50
2.8345033808554589
 51
11.2791659101886399
  0
ARC
  5
321E9
  8
0
 10
2834.2239900005788513
 20
151.0128696541171109
 30
0.0
 40
0.3397137245460014
 50
182.8345033808554092
 51
208.0265187044414006
  0
ARC
  5
321EA
  8
0
 10
2841.0372751384797994
 20
110.9183884056504041
 30
0.0
 40
42.1412335721013989
 50
90.1093162159317416
 51
91.536247068164613
  0
ARC
  5
321EB
  8
0
 10
2838.9215985377031757
 20
188.4455179209840878
 30
0.0
 40
35.4147686488845821
 50
268.5536775831951104
 51
271.59523981527758
  0
ARC
  5
321EC
  8
0
 10
2837.7988783084711031
 20
149.1058914856309059
 30
0.0
 40
3.9427869573311272
 50
86.6727167872752631
 51
101.1602647702702029
  0
ARC
  5
321ED
  8
0
 10
2828.6199459101658249
 20
208.4961412555647087
 30
0.0
 40
56.1562151163062921
 50
276.4814992110443086
 51
278.6190402731901941
  0
ARC
  5
321EE
  8
0
 10
2834.9998096004228501
 20
152.249247364704587
 30
0.0
 40
0.451458126670773
 50
95.1871857886464596
 51
115.6395788496478048
  0
ARC
  5
321EF
  8
0
 10
2912.9995227769040866
 20
1.131122772014634
 30
0.0
 40
170.5119723284290103
 50
117.2961516772870993
 51
117.4975750191293002
  0
ARC
  5
321F0
  8
0
 10
2834.3654862181310818
 20
152.2192703476227962
 30
0.0
 40
0.1861755518078609
 50
120.0501320823699984
 51
165.2739903943621869
  0
LINE
  5
321F1
  8
0
 10
2834.1854260754180359
 20
152.2665956167429044
 30
0.0
 11
2834.0839851617511158
 21
151.8223437366428925
 31
0.0
  0
LINE
  5
321F2
  8
0
 10
2834.0839851617511158
 20
151.8223437366428925
 30
0.0
 11
2839.1064794155008713
 21
151.8223437571662942
 31
0.0
  0
ARC
  5
321F3
  8
0
 10
2839.1064794146950589
 20
152.0195060189332992
 30
0.0
 40
0.1971622617670805
 50
270.0000002343135748
 51
300.1486298224075995
  0
ARC
  5
321F4
  8
0
 10
2782.6220598419749876
 20
249.2699105074999864
 30
0.0
 40
112.6610712621964012
 50
300.1486298224075995
 51
300.1975302734085176
  0
ARC
  5
321F5
  8
0
 10
2861.5414459874450586
 20
113.6593834083176944
 30
0.0
 40
44.2417157420369165
 50
119.9207922804440045
 51
120.1975302734084039
  0
ARC
  5
321F6
  8
0
 10
2839.5611277622178932
 20
151.828068215942892
 30
0.0
 40
0.1968503937000239
 50
95.4469346622111061
 51
116.4080133276963949
  0
ARC
  5
321F7
  8
0
 10
2839.5611277622178932
 20
151.828068215942892
 30
0.0
 40
0.1968503937000356
 50
90.0
 51
95.4469346622111061
  0
LINE
  5
321F8
  8
0
 10
2839.5611277622178932
 20
152.0249186096428957
 30
0.0
 11
2842.3525055708769287
 21
152.0249185761211947
 31
0.0
  0
LINE
  5
321F9
  8
0
 10
2834.2593768574488422
 20
151.8223437373447098
 30
0.0
 11
2834.2620824656191871
 21
151.7754638372429099
 31
0.0
  0
ARC
  5
321FA
  8
0
 10
2834.3498395515789525
 20
151.7883643359716075
 30
0.0
 40
0.0887002198633671
 50
188.3627194498841959
 51
264.234230692268909
  0
LINE
  5
321FB
  8
0
 10
2834.3409285590191757
 20
151.700112858842914
 30
0.0
 11
2834.5284143499179663
 21
151.7001128581428873
 31
0.0
  0
ARC
  5
321FC
  8
0
 10
2834.5202923190590809
 20
151.7872815496313024
 30
0.0
 40
0.0875462629760668
 50
275.3232226254306738
 51
352.2521450976694837
  0
LINE
  5
321FD
  8
0
 10
2834.6070393674181105
 20
151.7754791023428993
 30
0.0
 11
2834.6095151919957971
 21
151.822344145461102
 31
0.0
  0
LINE
  5
321FE
  8
0
 10
2837.5988888757169661
 20
151.8223437394202904
 30
0.0
 11
2837.5957659735181551
 21
151.7771508033428915
 31
0.0
  0
ARC
  5
321FF
  8
0
 10
2837.517248817996915
 20
151.7825764609538908
 30
0.0
 40
0.0787043929621307
 50
269.9769820826708724
 51
356.0470562994909756
  0
LINE
  5
32200
  8
0
 10
2837.5172171994190649
 20
151.703872074342911
 30
0.0
 11
2836.8248931907178303
 21
151.7038720760428987
 31
0.0
  0
ARC
  5
32201
  8
0
 10
2836.8248630518987738
 20
151.7830715972573046
 30
0.0
 40
0.0791995269489001
 50
181.7966135801065946
 51
270.021803503640399
  0
LINE
  5
32202
  8
0
 10
2836.7457024582399754
 20
151.7805885587146122
 30
0.0
 11
2836.7443927191789044
 21
151.8223437388386969
 31
0.0
  0
ARC
  5
32203
  8
0
 10
2836.9560456194981271
 20
151.9650227274721885
 30
0.0
 40
0.3105259537257403
 50
269.0663415802296186
 51
302.7547029182152869
  0
ARC
  5
32204
  8
0
 10
2836.6076979944177765
 20
130.589879913733597
 30
0.0
 40
21.0674551571187187
 50
89.0663415802296186
 51
90.9269536929062241
  0
ARC
  5
32205
  8
0
 10
2835.8800976188231289
 20
-423.4020905586494905
 30
0.0
 40
575.0567986587165024
 50
89.9614634085708644
 51
90.1638601927009944
  0
ARC
  5
32206
  8
0
 10
2834.2423087326469613
 20
151.483472124539702
 30
0.0
 40
0.1690216708329199
 50
92.3103800435859085
 51
163.6288878895491905
  0
LINE
  5
32207
  8
0
 10
2834.0801398416178927
 20
151.5311121916429045
 30
0.0
 11
2833.891186695118904
 21
150.7098143335429086
 31
0.0
  0
LINE
  5
32208
  8
0
 10
2833.891186695118904
 20
150.7098143335429086
 30
0.0
 11
2848.0225589396541181
 21
150.7098143335429086
 31
0.0
  0
ARC
  5
32209
  8
0
 10
2834.2111099063617985
 20
150.9919749226444878
 30
0.0
 40
0.3120315528765271
 50
244.7250643035565929
 51
270.5934498012406948
  0
LINE
  5
3220A
  8
0
 10
2834.2143417631177726
 20
150.6799601071429038
 30
0.0
 11
2834.3070115918571901
 21
150.6799601071429038
 31
0.0
  0
ARC
  5
3220B
  8
0
 10
2834.194318379321885
 20
150.5137381465980866
 30
0.0
 40
0.2008220613349767
 50
55.8639753971962918
 51
77.519009611869123
  0
ARC
  5
3220C
  8
0
 10
2834.1922375425651808
 20
150.514171033832298
 30
0.0
 40
0.2016410157187358
 50
36.7875401674801807
 51
55.3055476816332074
  0
ARC
  5
3220D
  8
0
 10
2834.4907659713690009
 20
150.749912455169806
 30
0.0
 40
0.1788935514409638
 50
219.9992687606832078
 51
268.5400893728245251
  0
LINE
  5
3220E
  8
0
 10
2834.4862082126701353
 20
150.5710769732799008
 30
0.0
 11
2835.8256018008191859
 21
150.5715328044929038
 31
0.0
  0
LINE
  5
3220F
  8
0
 10
2834.645198189689836
 20
150.57113108179189
 30
0.0
 11
2834.6451980503179584
 21
150.5599601071428992
 31
0.0
  0
LINE
  5
32210
  8
0
 10
2834.6451980503179584
 20
150.5599601071428992
 30
0.0
 11
2836.1492429384238676
 21
150.5599601071428992
 31
0.0
  0
LINE
  5
32211
  8
0
 10
2833.9866585158179078
 20
150.3699601071429015
 30
0.0
 11
2847.927087102418227
 21
150.3699601071429015
 31
0.0
  0
LINE
  5
32212
  8
0
 10
2834.70324693181783
 20
150.5599601071428992
 30
0.0
 11
2834.70324693181783
 21
150.3699601071429015
 31
0.0
  0
ARC
  5
32213
  8
0
 10
2835.9710435259721635
 20
150.5368073172728884
 30
0.0
 40
0.1742797337362092
 50
48.0072133138853232
 51
83.0714104006762994
  0
ARC
  5
32214
  8
0
 10
2835.9540952200600259
 20
150.5179795503649132
 30
0.0
 40
0.1996121217016525
 50
12.1405582473248792
 51
48.0072133138853232
  0
ARC
  5
32215
  8
0
 10
2836.3016011566060115
 20
150.5927357034069871
 30
0.0
 40
0.1558437241534626
 50
192.1405582473248046
 51
270.4378717608273064
  0
LINE
  5
32216
  8
0
 10
2836.3027921501179662
 20
150.4368965302429046
 30
0.0
 11
2837.4389893520137775
 21
150.4368965219429128
 31
0.0
  0
ARC
  5
32217
  8
0
 10
2837.4656640206540033
 20
150.582281308516599
 30
0.0
 40
0.1478116169795661
 50
259.6032151094411233
 51
340.922906721112895
  0
ARC
  5
32218
  8
0
 10
2837.8030436326939707
 20
150.4779864615331064
 30
0.0
 40
0.2054602563936122
 50
119.8296969984708937
 51
164.188025566115698
  0
ARC
  5
32219
  8
0
 10
2837.9194209007468999
 20
150.2474248847312026
 30
0.0
 40
0.4635663506032741
 50
94.0836048910351934
 51
118.132623804119504
  0
ARC
  5
3221A
  8
0
 10
2833.5413997877922156
 20
146.5651101576200119
 30
0.0
 40
4.8428340664785994
 50
51.7823148421888106
 51
53.0812109888621393
  0
LINE
  5
3221B
  8
0
 10
2836.1604986865181672
 20
150.3699601071429015
 30
0.0
 11
2836.1604986865181672
 21
150.5265740884549928
 31
0.0
  0
ARC
  5
3221C
  8
0
 10
2835.8184602899041238
 20
150.7260621442547972
 30
0.0
 40
0.1546942727619933
 50
272.646018560852724
 51
323.3485330290438924
  0
ARC
  5
3221D
  8
0
 10
2836.1588925539749653
 20
150.5141798137912019
 30
0.0
 40
0.247154646143406
 50
128.4597924862607101
 51
151.0754368374929868
  0
LINE
  5
3221E
  8
0
 10
2835.9396480275668182
 20
150.6299172002092917
 30
0.0
 11
2836.1193676063730891
 21
150.6299172002092917
 31
0.0
  0
ARC
  5
3221F
  8
0
 10
2833.988115466202089
 20
150.11796395649489
 30
0.0
 40
0.2520003623923302
 50
90.3312597338298104
 51
161.9430653562581881
  0
ARC
  5
32220
  8
0
 10
2853.0645609715547835
 20
144.0368966263650918
 30
0.0
 40
20.2742364605938512
 50
162.3144174204275885
 51
168.1448210492729913
  0
ARC
  5
32221
  8
0
 10
2833.383625151006072
 20
148.1743581440273942
 30
0.0
 40
0.1632103211334521
 50
170.2461338525434087
 51
186.2599848436539105
  0
ARC
  5
32222
  8
0
 10
2834.5912959088600473
 20
148.3602239195554944
 30
0.0
 40
1.3849642598346561
 50
188.4561442329195984
 51
198.5352608779028003
  0
ARC
  5
32223
  8
0
 10
2833.4948812384450321
 20
147.9080070623236054
 30
0.0
 40
0.2170383984606237
 50
176.8429286976175092
 51
205.0496291886441043
  0
ARC
  5
32224
  8
0
 10
2838.6462981627541922
 20
150.4503662443912901
 30
0.0
 40
5.9616135530044199
 50
206.2232098596088008
 51
213.2727170065668076
  0
ARC
  5
32225
  8
0
 10
2841.9011574302821828
 20
152.0580589508896878
 30
0.0
 40
9.5751060787063924
 50
210.6295917883288951
 51
234.2390606794452879
  0
ARC
  5
32226
  8
0
 10
2839.5106843743092213
 20
148.8861731439303071
 30
0.0
 40
5.6048980615259367
 50
235.1193949877037994
 51
240.6045546201845013
  0
ARC
  5
32227
  8
0
 10
2836.5837331837260535
 20
143.9007615450229878
 30
0.0
 40
0.2033760229191994
 50
357.6510440233562917
 51
30.1433291708317803
  0
ARC
  5
32228
  8
0
 10
2851.1802275967329479
 20
142.3957521141057043
 30
0.0
 40
14.4708952451194506
 50
174.0634823031734868
 51
174.8962460373840031
  0
ARC
  5
32229
  8
0
 10
1439.4277992667100534
 20
263.9400519113214045
 30
0.0
 40
1402.5041035151289179
 50
354.8092980436196058
 51
355.0811636634982165
  0
ARC
  5
3222A
  8
0
 10
2811.3897921682860215
 20
139.3062141834402041
 30
0.0
 40
24.8926548572558595
 50
352.0137861951434957
 51
354.8092980436196058
  0
ARC
  5
3222B
  8
0
 10
2848.2976299002871201
 20
134.1282115226717906
 30
0.0
 40
12.3766381009772601
 50
172.0137861951434957
 51
175.923899220801502
  0
ARC
  5
3222C
  8
0
 10
2838.7212900376898688
 20
144.491791594104086
 30
0.0
 40
2.3301251423496869
 50
186.7251086780075013
 51
211.3733645285479099
  0
LINE
  5
3222D
  8
0
 10
2833.2227740955140689
 20
148.2020085847443909
 30
0.0
 11
2848.690971520128187
 21
148.2020085847443909
 31
0.0
  0
LINE
  5
3222E
  8
0
 10
2833.2781722374179481
 20
147.9199601071429129
 30
0.0
 11
2848.6355733812179096
 21
147.9199601071429129
 31
0.0
  0
ARC
  5
3222F
  8
0
 10
2841.0684349400107749
 20
122.8415973151905973
 30
0.0
 40
28.8681811344667203
 50
90.2214201429846554
 51
92.4570594133250836
  0
ARC
  5
32230
  8
0
 10
2855.5451079105127974
 20
-198.7653126264804939
 30
0.0
 40
350.8006911287199046
 50
92.5674486134472261
 51
92.7823859273466098
  0
LINE
  5
32231
  8
0
 10
2838.5162913595900136
 20
151.8223437392514938
 30
0.0
 11
2838.5162913595900136
 21
151.6218222732792071
 31
0.0
  0
ARC
  5
32232
  8
0
 10
2833.7654692076198444
 20
162.1401980630286062
 30
0.0
 40
0.6334387994407508
 50
185.1817196688201932
 51
187.3498873146374137
  0
ARC
  5
32233
  8
0
 10
2833.1954400924628317
 20
162.0686767969395987
 30
0.0
 40
0.0589773359044172
 50
189.2827305677031973
 51
232.6410208274901947
  0
ARC
  5
32234
  8
0
 10
2833.2434767246140837
 20
162.1620639951973999
 30
0.0
 40
0.1634040895623746
 50
239.1368736943205136
 51
268.6157290628315195
  0
ARC
  5
32235
  8
0
 10
2832.8614761459011788
 20
149.895043346075596
 30
0.0
 40
12.1095669768824106
 50
85.5770403775206034
 51
88.2109709115525931
  0
ARC
  5
32236
  8
0
 10
2833.7492541241172148
 20
161.0638669510348109
 30
0.0
 40
0.9058537430870838
 50
58.0440209933307401
 51
87.0832417650325254
  0
ARC
  5
32237
  8
0
 10
2834.0199645042589509
 20
161.5586106241784137
 30
0.0
 40
0.3443135830218019
 50
350.7536183805145242
 51
52.6835626203344276
  0
ARC
  5
32238
  8
0
 10
2822.305844238419013
 20
163.5285219571192954
 30
0.0
 40
12.2229101192781897
 50
349.7822317017418072
 51
350.4625763456289178
  0
ARC
  5
32239
  8
0
 10
2834.9297079111352105
 20
161.2901765249980883
 30
0.0
 40
0.5989204106526851
 50
173.2761516652591069
 51
185.0953285996558861
  0
ARC
  5
3223A
  8
0
 10
2834.9638209202471444
 20
161.3052464983722984
 30
0.0
 40
0.6343501746084486
 50
186.1775173832307928
 51
251.1173084205146893
  0
ARC
  5
3223B
  8
0
 10
2835.0047779125079614
 20
161.202989167222114
 30
0.0
 40
0.5555166346892388
 50
243.6862694623960124
 51
347.6559755402495284
  0
ARC
  5
3223C
  8
0
 10
2834.8226773620399399
 20
161.2733878446640006
 30
0.0
 40
0.7490518806332677
 50
345.3727611848457855
 51
9.3536517598975362
  0
ARC
  5
3223D
  8
0
 10
2833.1950159757020629
 20
162.088896616739305
 30
0.0
 40
0.0606850908428068
 50
143.2164306943116969
 51
185.5863850573936986
  0
ARC
  5
3223E
  8
0
 10
2833.231317862142987
 20
162.0617555688687048
 30
0.0
 40
0.1060112801670831
 50
117.5696598542934055
 51
143.2164306943116969
  0
ARC
  5
3223F
  8
0
 10
2833.45227226977795
 20
161.6625552129104051
 30
0.0
 40
0.5622552103618924
 50
109.8852446553419071
 51
118.701288911307401
  0
ARC
  5
32240
  8
0
 10
2834.0904604394718262
 20
157.0158777001688861
 30
0.0
 40
5.2414513980350383
 50
93.7385265934477161
 51
99.105030138291724
  0
ARC
  5
32241
  8
0
 10
2834.0083579120519062
 20
159.6637185141345867
 30
0.0
 40
2.5954777956955022
 50
64.2832928101807397
 51
95.7416035058384267
  0
ARC
  5
32242
  8
0
 10
2834.7142020325509293
 20
161.2524482861448121
 30
0.0
 40
0.8594935228455401
 50
9.5556977579235198
 51
60.7176357529224973
  0
ARC
  5
32243
  8
0
 10
2834.8031975813642021
 20
161.1685290455440054
 30
0.0
 40
0.4280164893155182
 50
235.0311641310593984
 51
289.8053710190890229
  0
ARC
  5
32244
  8
0
 10
2834.767774761066903
 20
161.1870725342334936
 30
0.0
 40
0.4582640025445841
 50
293.1886543931158258
 51
355.8906040673626876
  0
ARC
  5
32245
  8
0
 10
2834.4625637253579953
 20
161.2180423896753894
 30
0.0
 40
0.7649628490334626
 50
355.2151019514404879
 51
56.2108330545569501
  0
ARC
  5
32246
  8
0
 10
2834.0842538409851841
 20
160.4462657256862883
 30
0.0
 40
1.620842100624271
 50
60.272530907278032
 51
85.1415542719219474
  0
ARC
  5
32247
  8
0
 10
2833.0565585617819124
 20
149.0955110300151887
 30
0.0
 40
13.0180040682072597
 50
84.8657755859138661
 51
88.9589112638726647
  0
ARC
  5
32248
  8
0
 10
2833.199912818474786
 20
157.9194732124944096
 30
0.0
 40
4.1929283057376274
 50
88.7266662249907796
 51
90.8331391435673083
  0
ARC
  5
32249
  8
0
 10
2840.9379740470458273
 20
403.4720269685593053
 30
0.0
 40
251.070625380753512
 50
269.7554479923173858
 51
270.0043129796827088
  0
ARC
  5
3224A
  8
0
 10
2840.1580950357652
 20
220.7562727454968865
 30
0.0
 40
68.3532068006553715
 50
267.8854849222631742
 51
269.7554479923173858
  0
ARC
  5
3224B
  8
0
 10
2837.2011606119781391
 20
95.5664648142596462
 30
0.0
 40
56.8848068983178834
 50
89.5619388124857636
 51
92.2809387620395114
  0
ARC
  5
3224C
  8
0
 10
2834.2091428758708389
 20
162.9300858019358884
 30
0.0
 40
10.5490370556863393
 50
270.3508047495949995
 51
273.9573926522638772
  0
ARC
  5
3224D
  8
0
 10
2850.4027184908918571
 20
163.9818839696717134
 30
0.0
 40
0.2471176419756523
 50
2.5405156351590619
 51
88.949878744181035
  0
ARC
  5
3224E
  8
0
 10
3053.6382831813020857
 20
107.7130880949674037
 30
0.0
 40
210.6461925900624976
 50
164.5036685397957115
 51
164.8343315817110124
  0
ARC
  5
3224F
  8
0
 10
2911.1583678943211453
 20
146.4450429130183977
 30
0.0
 40
63.3822350755607218
 50
165.1091051838457986
 51
168.7208340898112908
  0
ARC
  5
32250
  8
0
 10
2901.6513809644111461
 20
148.3411316256751888
 30
0.0
 40
53.6880124201973672
 50
168.7208340898112908
 51
177.1654966191445055
  0
ARC
  5
32251
  8
0
 10
2847.6897556341928066
 20
151.0128696541171109
 30
0.0
 40
0.3397137245460014
 50
331.9734812955585994
 51
357.1654966191429139
  0
ARC
  5
32252
  8
0
 10
2840.8671932131069298
 20
110.2723928658094934
 30
0.0
 40
42.7872463925509905
 50
88.4745255750155764
 51
89.8799113451618013
  0
ARC
  5
32253
  8
0
 10
2842.992147097068937
 20
188.4455179209840878
 30
0.0
 40
35.4147686488845821
 50
268.40476018472242
 51
271.4463224168048896
  0
ARC
  5
32254
  8
0
 10
2844.1148673263019191
 20
149.1058914856309059
 30
0.0
 40
3.9427869573311272
 50
78.8397352297298113
 51
93.3272832127247369
  0
ARC
  5
32255
  8
0
 10
2853.2937997246071973
 20
208.4961412555647087
 30
0.0
 40
56.1562151163062921
 50
261.3809597268096923
 51
263.5185007889556914
  0
ARC
  5
32256
  8
0
 10
2846.9139360343501721
 20
152.249247364704587
 30
0.0
 40
0.451458126670773
 50
64.3604211503521526
 51
84.8128142113535546
  0
ARC
  5
32257
  8
0
 10
2768.9142228578689355
 20
1.131122772014634
 30
0.0
 40
170.5119723284290103
 50
62.50242498087065
 51
62.7038483227121333
  0
ARC
  5
32258
  8
0
 10
2847.5482594166419403
 20
152.2192703476227962
 30
0.0
 40
0.1861755518078609
 50
14.7260096056378096
 51
59.9498679176299518
  0
LINE
  5
32259
  8
0
 10
2847.7283195593549863
 20
152.2665956167429044
 30
0.0
 11
2847.8297604730219064
 21
151.8223437366428925
 31
0.0
  0
LINE
  5
3225A
  8
0
 10
2847.8297604730219064
 20
151.8223437366428925
 30
0.0
 11
2842.8072662192721509
 21
151.8223437571662942
 31
0.0
  0
ARC
  5
3225B
  8
0
 10
2842.8072662200779632
 20
152.0195060189332992
 30
0.0
 40
0.1971622617670805
 50
239.8513701775924005
 51
269.9999997656864252
  0
ARC
  5
3225C
  8
0
 10
2899.2916857927980345
 20
249.2699105074999864
 30
0.0
 40
112.6610712621964012
 50
239.8024697265915108
 51
239.8513701775924005
  0
ARC
  5
3225D
  8
0
 10
2820.3722996473279636
 20
113.6593834083176944
 30
0.0
 40
44.2417157420369165
 50
59.8024697265915322
 51
60.079207719556031
  0
ARC
  5
3225E
  8
0
 10
2842.352617872555129
 20
151.828068215942892
 30
0.0
 40
0.1968503937000239
 50
63.591986672303598
 51
84.5530653377889081
  0
ARC
  5
3225F
  8
0
 10
2842.352617872555129
 20
151.828068215942892
 30
0.0
 40
0.1968503937000356
 50
84.5530653377889081
 51
90.0
  0
LINE
  5
32260
  8
0
 10
2847.65436877732418
 20
151.8223437373447098
 30
0.0
 11
2847.651663169153835
 21
151.7754638372429099
 31
0.0
  0
ARC
  5
32261
  8
0
 10
2847.5639060831940697
 20
151.7883643359716075
 30
0.0
 40
0.0887002198633671
 50
275.765769307731091
 51
351.6372805501156904
  0
LINE
  5
32262
  8
0
 10
2847.5728170757552107
 20
151.700112858842914
 30
0.0
 11
2847.3853312848550559
 21
151.7001128581428873
 31
0.0
  0
ARC
  5
32263
  8
0
 10
2847.3934533157139413
 20
151.7872815496313024
 30
0.0
 40
0.0875462629760668
 50
187.7478549023304879
 51
264.6767773745693262
  0
LINE
  5
32264
  8
0
 10
2847.3067062673549117
 20
151.7754791023428993
 30
0.0
 11
2847.3042304427772251
 21
151.822344145461102
 31
0.0
  0
LINE
  5
32265
  8
0
 10
2844.314856759056056
 20
151.8223437394202904
 30
0.0
 11
2844.3179796612548671
 21
151.7771508033428915
 31
0.0
  0
ARC
  5
32266
  8
0
 10
2844.3964968167751977
 20
151.7825764609538908
 30
0.0
 40
0.0787043929621307
 50
183.9529437005089108
 51
270.0230179173291276
  0
LINE
  5
32267
  8
0
 10
2844.3965284353548668
 20
151.703872074342911
 30
0.0
 11
2845.0888524440551919
 21
151.7038720760428987
 31
0.0
  0
ARC
  5
32268
  8
0
 10
2845.0888825828728841
 20
151.7830715972573046
 30
0.0
 40
0.0791995269489001
 50
269.9781964963597147
 51
358.203386419893377
  0
LINE
  5
32269
  8
0
 10
2845.1680431765330468
 20
151.7805885587146122
 30
0.0
 11
2845.1693529155941178
 21
151.8223437388386969
 31
0.0
  0
ARC
  5
3226A
  8
0
 10
2844.9577000152748951
 20
151.9650227274721885
 30
0.0
 40
0.3105259537257403
 50
237.2452970817845994
 51
270.9336584197703814
  0
ARC
  5
3226B
  8
0
 10
2845.3060476403538814
 20
130.589879913733597
 30
0.0
 40
21.0674551571187187
 50
89.0730463070937901
 51
90.9336584197703672
  0
ARC
  5
3226C
  8
0
 10
2846.0336480159498933
 20
-423.4020905586494905
 30
0.0
 40
575.0567986587165024
 50
89.8361398072989914
 51
90.0385365914291498
  0
ARC
  5
3226D
  8
0
 10
2847.6714369021260609
 20
151.483472124539702
 30
0.0
 40
0.1690216708329199
 50
16.3711121104507917
 51
87.6896199564141057
  0
LINE
  5
3226E
  8
0
 10
2847.8336057931551295
 20
151.5311121916429045
 30
0.0
 11
2848.0225589396541181
 21
150.7098143335429086
 31
0.0
  0
ARC
  5
3226F
  8
0
 10
2847.7026357284098594
 20
150.9919749226444878
 30
0.0
 40
0.3120315528765271
 50
269.4065501987591915
 51
295.2749356964433218
  0
LINE
  5
32270
  8
0
 10
2847.6994038716547948
 20
150.6799601071429038
 30
0.0
 11
2847.6067340429158321
 21
150.6799601071429038
 31
0.0
  0
ARC
  5
32271
  8
0
 10
2847.7194272554511372
 20
150.5137381465980866
 30
0.0
 40
0.2008220613349767
 50
102.4809903881309054
 51
124.1360246028037011
  0
ARC
  5
32272
  8
0
 10
2847.7215080922078414
 20
150.514171033832298
 30
0.0
 40
0.2016410157187358
 50
124.6944523183667997
 51
143.2124598325198122
  0
ARC
  5
32273
  8
0
 10
2847.4229796634040213
 20
150.749912455169806
 30
0.0
 40
0.1788935514409638
 50
271.4599106271754749
 51
320.0007312393167922
  0
LINE
  5
32274
  8
0
 10
2847.4275374221028869
 20
150.5710769732799008
 30
0.0
 11
2846.0881438339538363
 21
150.5715328044929038
 31
0.0
  0
LINE
  5
32275
  8
0
 10
2847.2685474450831862
 20
150.57113108179189
 30
0.0
 11
2847.2685475844550638
 21
150.5599601071428992
 31
0.0
  0
LINE
  5
32276
  8
0
 10
2847.2685475844550638
 20
150.5599601071428992
 30
0.0
 11
2845.7645026963491546
 21
150.5599601071428992
 31
0.0
  0
LINE
  5
32277
  8
0
 10
2847.2104987029538279
 20
150.5599601071428992
 30
0.0
 11
2847.2104987029538279
 21
150.3699601071429015
 31
0.0
  0
ARC
  5
32278
  8
0
 10
2845.9427021087999492
 20
150.5368073172728884
 30
0.0
 40
0.1742797337362092
 50
96.9285895993237148
 51
131.9927866861146128
  0
ARC
  5
32279
  8
0
 10
2845.9596504147129963
 20
150.5179795503649132
 30
0.0
 40
0.1996121217016525
 50
131.9927866861146128
 51
167.8594417526751101
  0
ARC
  5
3227A
  8
0
 10
2845.6121444781670107
 20
150.5927357034069871
 30
0.0
 40
0.1558437241534626
 50
269.5621282391726936
 51
347.8594417526750817
  0
LINE
  5
3227B
  8
0
 10
2845.6109534846550559
 20
150.4368965302429046
 30
0.0
 11
2844.4747562827587899
 21
150.4368965219429128
 31
0.0
  0
ARC
  5
3227C
  8
0
 10
2844.4591259369472027
 20
150.6012094053596968
 30
0.0
 40
0.1650546314616359
 50
204.0399392353423877
 51
275.4339389340861999
  0
ARC
  5
3227D
  8
0
 10
2844.1107020020790515
 20
150.4779864615331064
 30
0.0
 40
0.2054602563936122
 50
15.8119744338843091
 51
60.1703030015291205
  0
ARC
  5
3227E
  8
0
 10
2843.9943247340252128
 20
150.2474248847312026
 30
0.0
 40
0.4635663506032741
 50
61.8673761958804675
 51
85.9163951089647639
  0
ARC
  5
3227F
  8
0
 10
2848.3723458469808065
 20
146.5651101576200119
 30
0.0
 40
4.8428340664785994
 50
126.9187890111378039
 51
128.2176851578111894
  0
LINE
  5
32280
  8
0
 10
2845.7532469482539454
 20
150.3699601071429015
 30
0.0
 11
2845.7532469482539454
 21
150.5265740884551064
 31
0.0
  0
ARC
  5
32281
  8
0
 10
2846.0952853448688984
 20
150.7260621442547972
 30
0.0
 40
0.1546942727619933
 50
216.6514669709559939
 51
267.353981439147276
  0
ARC
  5
32282
  8
0
 10
2845.7548530807980569
 20
150.5141798137912019
 30
0.0
 40
0.247154646143406
 50
28.9245631625069883
 51
51.5402075137393183
  0
LINE
  5
32283
  8
0
 10
2845.974097607206204
 20
150.6299172002092917
 30
0.0
 11
2845.7943780283999331
 21
150.6299172002092917
 31
0.0
  0
ARC
  5
32284
  8
0
 10
2847.9256301687878477
 20
150.1179639566524031
 30
0.0
 40
0.2520003621379327
 50
18.0569346249302889
 51
89.6687440748647049
  0
ARC
  5
32285
  8
0
 10
2828.8491916112798208
 20
144.0368986486440974
 30
0.0
 40
20.2742292265564501
 50
11.8551774025847791
 51
17.6855830997753891
  0
ARC
  5
32286
  8
0
 10
2848.5301214524070019
 20
148.1743581058591133
 30
0.0
 40
0.1632093541070066
 50
353.7399913968259284
 51
9.7539381003770931
  0
ARC
  5
32287
  8
0
 10
2847.3224516929221863
 20
148.3602235370304925
 30
0.0
 40
1.3849622579585801
 50
341.4647280458829073
 51
351.5438594536834103
  0
ARC
  5
32288
  8
0
 10
2848.4188646524530668
 20
147.908006979113793
 30
0.0
 40
0.2170381311955933
 50
334.9503620836770779
 51
3.1570971938928549
  0
ARC
  5
32289
  8
0
 10
2843.26744747201883
 20
150.4503662443912901
 30
0.0
 40
5.9616135530044199
 50
326.7272829934332208
 51
333.7767901403897781
  0
ARC
  5
3228A
  8
0
 10
2840.0125882044908394
 20
152.0580589508896878
 30
0.0
 40
9.5751060787063924
 50
305.7609393205547121
 51
329.3704082116711902
  0
ARC
  5
3228B
  8
0
 10
2842.4030612604638009
 20
148.8861731439303071
 30
0.0
 40
5.6048980615259367
 50
299.3954453798154987
 51
304.8806050122962006
  0
ARC
  5
3228C
  8
0
 10
2845.3300124510469686
 20
143.9007615450229878
 30
0.0
 40
0.2033760229191994
 50
149.8566708291681948
 51
182.3489559766435946
  0
ARC
  5
3228D
  8
0
 10
2830.7335180380391648
 20
142.3957521141057043
 30
0.0
 40
14.4708952451194506
 50
5.1037539626159809
 51
5.9365176968264803
  0
ARC
  5
3228E
  8
0
 10
4242.4859463680622866
 20
263.9400519113214045
 30
0.0
 40
1402.5041035151289179
 50
184.918836336501812
 51
185.1907019563803942
  0
ARC
  5
3228F
  8
0
 10
2870.5239534664860912
 20
139.3062141834402041
 30
0.0
 40
24.8926548572558595
 50
185.1907019563803942
 51
187.9862138048563907
  0
ARC
  5
32290
  8
0
 10
2833.6161157344868116
 20
134.1282115226717906
 30
0.0
 40
12.3766381009772601
 50
4.076100779198474
 51
7.9862138048564688
  0
ARC
  5
32291
  8
0
 10
2843.1924555970831534
 20
144.491791594104086
 30
0.0
 40
2.3301251423496869
 50
328.6266354714563249
 51
353.2748913219925271
  0
ARC
  5
32292
  8
0
 10
2840.9059566131609245
 20
125.4357015419433026
 30
0.0
 40
26.2739106801531612
 50
87.4325513865527739
 51
89.8889642517140715
  0
ARC
  5
32293
  8
0
 10
2826.3686377242588605
 20
-198.7653126264804939
 30
0.0
 40
350.8006911287199046
 50
87.2176140726534044
 51
87.4325513865527739
  0
LINE
  5
32294
  8
0
 10
2843.3974542751830086
 20
151.8223437392514938
 30
0.0
 11
2843.3974542751830086
 21
151.6218222732792071
 31
0.0
  0
ARC
  5
32295
  8
0
 10
2845.7757811133828909
 20
-1886.076921043809989
 30
0.0
 40
2038.4840192184669831
 50
90.1047939377652654
 51
90.1354454187822682
  0
ARC
  5
32296
  8
0
 10
2841.7556505990078222
 20
220.7562727454968865
 30
0.0
 40
68.3532068006553715
 50
270.2445520076826142
 51
272.1145150777368258
  0
ARC
  5
32297
  8
0
 10
2844.7125850227948831
 20
95.5664648142596462
 30
0.0
 40
56.8848068983178834
 50
87.7190612379604744
 51
90.4380611875142364
  0
ARC
  5
32298
  8
0
 10
2847.7046027589021833
 20
162.9300858019358884
 30
0.0
 40
10.5490370556863393
 50
266.0426073477361228
 51
269.6491952504051142
  0
ENDSEC
  0
EOF
