  0
SECTION
  2
HEADER
  9
$ACADVER
  1
AC1009
  9
$INSBASE
 10
4196.9661411590041098
 20
214.7116959312131996
 30
0.0
  9
$EXTMIN
 10
4188.6583337716620008
 20
185.0165625302402077
 30
0.0
  9
$EXTMAX
 10
4204.6182527309047146
 20
214.7162998138688863
 30
0.0
  9
$LIMMIN
 10
0.0
 20
0.0
  9
$LIMMAX
 10
11.6929133858000007
 20
8.2677165353999982
  9
$ORTHOMODE
 70
     0
  9
$REGENMODE
 70
     1
  9
$FILLMODE
 70
     1
  9
$QTEXTMODE
 70
     0
  9
$MIRRTEXT
 70
     0
  9
$DRAGMODE
 70
     2
  9
$LTSCALE
 40
0.6431102362
  9
$OSMODE
 70
  3839
  9
$ATTMODE
 70
     1
  9
$TEXTSIZE
 40
0.2
  9
$TRACEWID
 40
0.05
  9
$TEXTSTYLE
  7
STANDARD
  9
$CLAYER
  8
0
  9
$CELTYPE
  6
BYLAYER
  9
$CECOLOR
 62
     1
  9
$DIMSCALE
 40
1.0
  9
$DIMASZ
 40
0.1875
  9
$DIMEXO
 40
0.0625
  9
$DIMDLI
 40
0.4443307087
  9
$DIMRND
 40
0.0
  9
$DIMDLE
 40
0.0
  9
$DIMEXE
 40
0.125
  9
$DIMTP
 40
0.01
  9
$DIMTM
 40
0.01
  9
$DIMTXT
 40
2.0
  9
$DIMCEN
 40
0.1052362205
  9
$DIMTSZ
 40
0.0
  9
$DIMTOL
 70
     1
  9
$DIMLIM
 70
     0
  9
$DIMTIH
 70
     1
  9
$DIMTOH
 70
     1
  9
$DIMSE1
 70
     0
  9
$DIMSE2
 70
     0
  9
$DIMTAD
 70
     0
  9
$DIMZIN
 70
     0
  9
$DIMBLK
  1

  9
$DIMASO
 70
     1
  9
$DIMSHO
 70
     1
  9
$DIMPOST
  1
\X
  9
$DIMAPOST
  1

  9
$DIMALT
 70
     1
  9
$DIMALTD
 70
     2
  9
$DIMALTF
 40
25.3999999999999986
  9
$DIMLFAC
 40
1.0
  9
$DIMTOFL
 70
     0
  9
$DIMTVP
 40
0.0
  9
$DIMTIX
 70
     0
  9
$DIMSOXD
 70
     0
  9
$DIMSAH
 70
     0
  9
$DIMBLK1
  1

  9
$DIMBLK2
  1

  9
$DIMSTYLE
  2
STANDARD
  9
$DIMCLRD
 70
     0
  9
$DIMCLRE
 70
     0
  9
$DIMCLRT
 70
     0
  9
$DIMTFAC
 40
1.0
  9
$DIMGAP
 40
0.09
  9
$LUNITS
 70
     2
  9
$LUPREC
 70
     4
  9
$SKETCHINC
 40
0.1
  9
$FILLETRAD
 40
0.0
  9
$AUNITS
 70
     0
  9
$AUPREC
 70
     0
  9
$MENU
  1
.
  9
$ELEVATION
 40
0.0
  9
$PELEVATION
 40
0.0
  9
$THICKNESS
 40
0.0
  9
$LIMCHECK
 70
     0
  9
$BLIPMODE
 70
     0
  9
$CHAMFERA
 40
0.0
  9
$CHAMFERB
 40
0.0
  9
$SKPOLY
 70
     0
  9
$TDCREATE
 40
2458060.468368056230247
  9
$TDUPDATE
 40
2459158.5092245368286967
  9
$TDINDWG
 40
0.5640116898
  9
$TDUSRTIMER
 40
0.5640116898
  9
$USRTIMER
 70
     1
  9
$ANGBASE
 50
0.0
  9
$ANGDIR
 70
     0
  9
$PDMODE
 70
     0
  9
$PDSIZE
 40
0.3125
  9
$PLINEWID
 40
0.0
  9
$COORDS
 70
     1
  9
$SPLFRAME
 70
     0
  9
$SPLINETYPE
 70
     6
  9
$SPLINESEGS
 70
     8
  9
$ATTDIA
 70
     1
  9
$ATTREQ
 70
     1
  9
$HANDLING
 70
     1
  9
$HANDSEED
  5
9BCA
  9
$SURFTAB1
 70
     6
  9
$SURFTAB2
 70
     6
  9
$SURFTYPE
 70
     6
  9
$SURFU
 70
     6
  9
$SURFV
 70
     6
  9
$UCSNAME
  2

  9
$UCSORG
 10
0.0
 20
0.0
 30
0.0
  9
$UCSXDIR
 10
1.0
 20
0.0
 30
0.0
  9
$UCSYDIR
 10
0.0
 20
1.0
 30
0.0
  9
$PUCSNAME
  2

  9
$PUCSORG
 10
0.0
 20
0.0
 30
0.0
  9
$PUCSXDIR
 10
1.0
 20
0.0
 30
0.0
  9
$PUCSYDIR
 10
0.0
 20
1.0
 30
0.0
  9
$USERI1
 70
     0
  9
$USERI2
 70
     0
  9
$USERI3
 70
     0
  9
$USERI4
 70
     0
  9
$USERI5
 70
     0
  9
$USERR1
 40
0.0
  9
$USERR2
 40
0.0
  9
$USERR3
 40
0.0
  9
$USERR4
 40
0.0
  9
$USERR5
 40
0.0
  9
$WORLDVIEW
 70
     1
  9
$SHADEDGE
 70
     3
  9
$SHADEDIF
 70
    70
  9
$TILEMODE
 70
     1
  9
$MAXACTVP
 70
    64
  9
$PLIMCHECK
 70
     0
  9
$PEXTMIN
 10
1.0000000000000000E+20
 20
1.0000000000000000E+20
 30
1.0000000000000000E+20
  9
$PEXTMAX
 10
-1.0000000000000000E+20
 20
-1.0000000000000000E+20
 30
-1.0000000000000000E+20
  9
$PLIMMIN
 10
0.0
 20
0.0
  9
$PLIMMAX
 10
12.0
 20
9.0
  9
$UNITMODE
 70
     0
  9
$VISRETAIN
 70
     1
  9
$PLINEGEN
 70
     0
  9
$PSLTSCALE
 70
     1
  0
ENDSEC
  0
SECTION
  2
TABLES
  0
TABLE
  2
VPORT
 70
     1
  0
VPORT
  2
*ACTIVE
 70
     0
 10
0.0
 20
0.0
 11
1.0
 21
1.0
 12
0.0
 22
0.0
 13
0.0
 23
0.0
 14
1.0
 24
1.0
 15
0.0
 25
0.0
 16
0.0
 26
0.0
 36
132.5192234404445912
 17
4196.63818359375
 27
199.8664278000007926
 37
0.0
 40
33.7163928740837306
 41
3.1182994454713491
 42
50.0
 43
0.0
 44
0.0
 50
0.0
 51
0.0
 71
     0
 72
   100
 73
     1
 74
     1
 75
     0
 76
     0
 77
     0
 78
     0
  0
ENDTAB
  0
TABLE
  2
LTYPE
 70
     2
  0
LTYPE
  2
CONTINUOUS
 70
     0
  3
Solid line
 72
    65
 73
     0
 40
0.0
  0
LTYPE
  2
PHANTOM2
 70
     0
  3
___ _ _ ___ _ _ ___ _ _ ___ _ _
 72
    65
 73
     6
 40
1.25
 49
0.625
 49
-0.125
 49
0.125
 49
-0.125
 49
0.125
 49
-0.125
  0
ENDTAB
  0
TABLE
  2
LAYER
 70
     2
  0
LAYER
  2
0
 70
     0
 62
   255
  6
CONTINUOUS
  0
LAYER
  2
DEFPOINTS
 70
     0
 62
     7
  6
CONTINUOUS
  0
ENDTAB
  0
TABLE
  2
STYLE
 70
     1
  0
STYLE
  2
STANDARD
 70
     0
 40
0.0
 41
0.8
 50
0.0
 71
     0
 42
0.2
  3
txt
  4

  0
ENDTAB
  0
TABLE
  2
VIEW
 70
     0
  0
ENDTAB
  0
TABLE
  2
UCS
 70
     0
  0
ENDTAB
  0
TABLE
  2
APPID
 70
     9
  0
APPID
  2
ACAD
 70
     0
  0
APPID
  2
ACAD_MLEADERVER
 70
     0
  0
APPID
  2
ACAD_EXEMPT_FROM_CAD_STANDARDS
 70
     0
  0
APPID
  2
ACAD_NAV_VCDISPLAY
 70
     0
  0
APPID
  2
ACAECLAYERSTANDARD
 70
     0
  0
APPID
  2
ACCMTRANSPARENCY
 70
     0
  0
APPID
  2
ACAD_DSTYLE_DIMJAG
 70
     0
  0
APPID
  2
ACAD_DSTYLE_DIMTALN
 70
     0
  0
APPID
  2
ACDBATTR
 70
     0
  0
ENDTAB
  0
TABLE
  2
DIMSTYLE
 70
     1
  0
DIMSTYLE
  2
STANDARD
 70
     0
  3

  4

  5

  6

  7

 40
1.0
 41
0.1875
 42
0.0625
 43
0.38
 44
0.125
 45
0.0
 46
0.0
 47
0.01
 48
0.01
140
0.15625
141
0.09
142
0.0
143
25.3999999999999986
144
1.0
145
0.0
146
1.0
147
0.09
 71
     1
 72
     0
 73
     1
 74
     1
 75
     0
 76
     0
 77
     0
 78
     4
170
     0
171
     2
172
     0
173
     0
174
     0
175
     0
176
     0
177
     0
178
     0
  0
ENDTAB
  0
ENDSEC
  0
SECTION
  2
BLOCKS
  0
BLOCK
  8
0
  2
$MODEL_SPACE
 70
     0
 10
0.0
 20
0.0
 30
0.0
  3
$MODEL_SPACE
  1

  0
ENDBLK
  5
21
  8
0
  0
BLOCK
 67
     1
  8
0
  2
$PAPER_SPACE
 70
     0
 10
0.0
 20
0.0
 30
0.0
  3
$PAPER_SPACE
  1

  0
ENDBLK
  5
1D
 67
     1
  8
0
  0
BLOCK
  8
0
  2
_FILLED
 70
     0
 10
0.0
 20
0.0
 30
0.0
  3
_FILLED
  1

  0
SOLID
  5
6F59
  8
0
  6
BYBLOCK
 62
     0
 10
0.0
 20
0.0
 30
0.0
 11
-1.0
 21
0.1666666667
 31
0.0
 12
-1.0
 22
-0.1666666667
 32
0.0
 13
-1.0
 23
-0.1666666667
 33
0.0
  0
ENDBLK
  5
6F5A
  8
0
  6
BYBLOCK
 62
     0
  0
ENDSEC
  0
SECTION
  2
ENTITIES
  0
ATTDEF
  5
3930
  8
DEFPOINTS
 10
4196.9667234277931129
 20
214.7152998138687963
 30
0.0
 40
0.001
  1
K-3834T-S2
  3

  2
MODELNUMBER
 70
     0
1001
ACDBATTR
1070
     0
1070
     1
  0
ATTDEF
  5
3931
  8
DEFPOINTS
 10
4196.9667234277931129
 20
214.7136331472021027
 30
0.0
 40
0.001
  1
REACH
  3

  2
TRADENAME
 70
     0
1001
ACDBATTR
1070
     0
1070
     1
  0
ATTDEF
  5
3932
  8
DEFPOINTS
 10
4196.9667234277931129
 20
214.7119664805354091
 30
0.0
 40
0.001
  1
TOILET
  3

  2
PRODUCT
 70
     0
1001
ACDBATTR
1070
     0
1070
     1
  0
ARC
  5
988B
  8
0
 10
4202.7903315019893853
 20
211.9828962954827034
 30
0.0
 40
1.8279320966523049
 50
0.1975729039840395
 51
84.6067923054693978
  0
LINE
  5
988C
  8
0
 10
4204.6182527309047146
 20
209.3554640386113874
 30
0.0
 11
4204.6182527309047146
 21
211.9891995370122117
 31
0.0
  0
ARC
  5
988D
  8
0
 10
4202.7983928225194177
 20
209.5008734366905117
 30
0.0
 40
1.8256598750035229
 50
275.6902097791146957
 51
355.4316908581030816
  0
LINE
  5
988E
  8
0
 10
4204.1365605551072804
 20
195.6459799671160056
 30
0.0
 11
4204.1365605551072804
 21
208.258963174771992
 31
0.0
  0
LINE
  5
988F
  8
0
 10
4200.2222097209896674
 20
204.745810789620009
 30
0.0
 11
4193.7100725970167332
 21
204.745810789620009
 31
0.0
  0
LINE
  5
9890
  8
0
 10
4200.5603555065335968
 20
204.745810789620009
 30
0.0
 11
4200.6775295507577539
 21
204.745810789620009
 31
0.0
  0
ARC
  5
9891
  8
0
 10
4200.2217787021199911
 20
204.7064430436759039
 30
0.0
 40
0.0393701053844635
 50
51.4524910374825382
 51
90.0244694912237691
  0
LINE
  5
9892
  8
0
 10
4200.2463127089476984
 20
204.7372340765737988
 30
0.0
 11
4200.5445358011647841
 21
204.7376324783973871
 31
0.0
  0
ARC
  5
9893
  8
0
 10
4200.5605299923927305
 20
204.7260837045654966
 30
0.0
 40
0.0197278567020948
 50
90.5067673493384746
 51
144.1684368619044108
  0
LINE
  5
9894
  8
0
 10
4200.4737320025242298
 20
204.7375378902744956
 30
0.0
 11
4200.4737188625040289
 21
204.805256781870014
 31
0.0
  0
ARC
  5
9895
  8
0
 10
4200.4934000822640883
 20
204.8052606007692873
 30
0.0
 40
0.019681220130117
 50
90.0000004646667264
 51
180.0111175430592141
  0
LINE
  5
9896
  8
0
 10
4200.4934000821040172
 20
204.8249418208993973
 30
0.0
 11
4200.6311953534968779
 21
204.8249418220169105
 31
0.0
  0
ARC
  5
9897
  8
0
 10
4200.6311953536578585
 20
204.8052529318051995
 30
0.0
 40
0.0196888902117323
 50
0.1001294576227856
 51
90.0000004646667264
  0
LINE
  5
9898
  8
0
 10
4200.6508842138027831
 20
204.8052873398700058
 30
0.0
 11
4200.6508979810259916
 21
204.7974095091115032
 31
0.0
  0
ARC
  5
9899
  8
0
 10
4200.6312472623221765
 20
204.7973751677023131
 30
0.0
 40
0.0196507487113406
 50
269.8753832150375729
 51
0.1001294576358131
  0
LINE
  5
989A
  8
0
 10
4200.6312045225040492
 20
204.7777244654699871
 30
0.0
 11
4200.557188983625565
 21
204.7777101033103122
 31
0.0
  0
ARC
  5
989B
  8
0
 10
4200.5571925955564438
 20
204.7580250642899955
 30
0.0
 40
0.0196850393516647
 50
90.0105129742125456
 51
180.0000000582379869
  0
LINE
  5
989C
  8
0
 10
4200.5375075562042184
 20
204.7580250642699866
 30
0.0
 11
4200.5375115146007374
 21
204.7376230945212114
 31
0.0
  0
ARC
  5
98A6
  8
0
 10
4200.6716635727943867
 20
204.7068826091577876
 30
0.0
 40
0.0393676635268569
 50
0.0072682957507624
 51
81.4307318243167657
  0
LINE
  5
98A7
  8
0
 10
4200.7110312360036914
 20
204.7068876031700029
 30
0.0
 11
4200.7110499646978496
 21
204.5592498144563081
 31
0.0
  0
LINE
  5
98A8
  8
0
 10
4200.7237835494988758
 20
204.3298427564010922
 30
0.0
 11
4200.7237368828027684
 21
204.6350049841699956
 31
0.0
  0
LINE
  5
98A9
  8
0
 10
4200.7237368828027684
 20
204.6350049841699956
 30
0.0
 11
4200.7592449837038657
 21
204.6449850663699976
 31
0.0
  0
ARC
  5
98AA
  8
0
 10
4200.8006354022691085
 20
204.5190564213075959
 30
0.0
 40
0.1325563668641875
 50
90.0623558611288217
 51
108.1947386992913067
  0
LINE
  5
98AB
  8
0
 10
4200.8004911392035865
 20
204.6516127096699904
 30
0.0
 11
4201.1174542124035725
 21
204.6516745085700109
 31
0.0
  0
ARC
  5
98AC
  8
0
 10
4201.1173914477003564
 20
204.5727878735708885
 30
0.0
 40
0.0788866599678866
 50
346.0262181241955091
 51
89.9544136740121587
  0
ARC
  5
98AD
  8
0
 10
4203.3723189687952981
 20
203.9473157064815894
 30
0.0
 40
0.7670459435775488
 50
4.900901987400883
 51
91.9239827824933968
  0
ARC
  5
98AE
  8
0
 10
4214.0852264624036252
 20
-114.9607661382512021
 30
0.0
 40
319.8550135212558985
 50
91.9239827824933968
 51
92.3035471090525164
  0
ARC
  5
98AF
  8
0
 10
4202.5533059894396501
 20
204.4812561298340086
 30
0.0
 40
1.333205115580665
 50
173.3444303019795996
 51
176.6275248109323002
  0
ARC
  5
98B0
  8
0
 10
4201.1421021140522498
 20
204.8730477014696021
 30
0.0
 40
0.3234901970904627
 50
265.9446561517241889
 51
284.3741921424652901
  0
ARC
  5
98B1
  8
0
 10
4201.1194643061517127
 20
204.3148632307695891
 30
0.0
 40
0.2355043484993942
 50
90.058249754720336
 51
136.4210106182061111
  0
ARC
  5
98B2
  8
0
 10
4200.5223676277637423
 20
204.883033825175886
 30
0.0
 40
0.5887178713952566
 50
270.0564895209366227
 51
316.4223863748396752
  0
LINE
  5
98B3
  8
0
 10
4200.7237484672259598
 20
204.5592522785156859
 30
0.0
 11
4200.7110499646978496
 21
204.5592498144563081
 31
0.0
  0
ARC
  5
98B4
  8
0
 10
4190.4529896857329732
 20
195.7313395749031883
 30
0.0
 40
13.6838371080567995
 50
333.7482922921399791
 51
359.6425873132257038
  0
ARC
  5
98B5
  8
0
 10
4191.7299616068066825
 20
194.8810109786911084
 30
0.0
 40
12.1640675186815592
 50
316.2942935608094217
 51
334.6800249932226166
  0
ARC
  5
98B6
  8
0
 10
4196.9582810849660746
 20
190.1478225820119974
 30
0.0
 40
5.1176690168268646
 50
291.5652161267744873
 51
314.1563586263970933
  0
LINE
  5
98B7
  8
0
 10
4189.158735545239324
 20
209.5540590904857083
 30
0.0
 11
4189.158735545239324
 21
210.8152966196747116
 31
0.0
  0
LINE
  5
98B8
  8
0
 10
4189.158735545239324
 20
209.5540590904857083
 30
0.0
 11
4188.7076949792035521
 21
209.5658972733700125
 31
0.0
  0
ARC
  5
98B9
  8
0
 10
4188.7082198502903339
 20
209.5858951187929051
 30
0.0
 40
0.0200047322204689
 50
185.7768239211798118
 51
268.4965382655997814
  0
ARC
  5
98BA
  8
0
 10
4194.5622360030711206
 20
210.1781321185846139
 30
0.0
 40
5.9039022314082379
 50
174.0335830655562859
 51
185.7768239211798118
  0
ARC
  5
98BB
  8
0
 10
4188.4968293629881373
 20
210.8120378451891099
 30
0.0
 40
0.1945397154969954
 50
354.0335830655546943
 51
359.9823966986330106
  0
LINE
  5
98BC
  8
0
 10
4189.1287537864000114
 20
210.8148975984476863
 30
0.0
 11
4189.1287287947043296
 21
212.1782761583700108
 31
0.0
  0
LINE
  5
98BD
  8
0
 10
4189.1287287947043296
 20
212.1782761583700108
 30
0.0
 11
4188.7108452368156577
 21
212.1673335155703057
 31
0.0
  0
ARC
  5
98BE
  8
0
 10
4188.7113689965199228
 20
212.1473318968353112
 30
0.0
 40
0.0200084751104795
 50
91.499996811315583
 51
179.9757391155619075
  0
LINE
  5
98BF
  8
0
 10
4188.6913605232030022
 20
212.1473403690700934
 30
0.0
 11
4188.6913605232030022
 21
209.575126999112797
 31
0.0
  0
LINE
  5
98C0
  8
0
 10
4188.6913605232030022
 20
210.8090764190594086
 30
0.0
 11
4189.158735545239324
 21
210.8152966196747116
 31
0.0
  0
ARC
  5
98C1
  8
0
 10
4191.1419508160179248
 20
211.9828962954827034
 30
0.0
 40
1.8279320966523049
 50
95.3932076945306164
 51
179.8024270960158901
  0
LINE
  5
98C2
  8
0
 10
4189.3140295871025955
 20
209.3554640386113874
 30
0.0
 11
4189.3140295871025955
 21
211.9891995370122117
 31
0.0
  0
ARC
  5
98C3
  8
0
 10
4191.1338894954878924
 20
209.5008734366905117
 30
0.0
 40
1.8256598750035229
 50
184.5683091418968047
 51
264.3097902208853043
  0
LINE
  5
98C4
  8
0
 10
4189.7957217629009392
 20
195.6459799671160056
 30
0.0
 11
4189.7957217629009392
 21
208.258963174771992
 31
0.0
  0
LINE
  5
98C5
  8
0
 10
4193.3719268114728038
 20
204.745810789620009
 30
0.0
 11
4193.2547527672495562
 21
204.745810789620009
 31
0.0
  0
ARC
  5
98C6
  8
0
 10
4193.7105036158882285
 20
204.7064430436759039
 30
0.0
 40
0.0393701053844635
 50
89.9755305087762309
 51
128.5475089625174121
  0
LINE
  5
98C7
  8
0
 10
4193.6859696090596117
 20
204.7372340765737988
 30
0.0
 11
4193.3877465168434355
 21
204.7376324783973871
 31
0.0
  0
ARC
  5
98C8
  8
0
 10
4193.3717523256145796
 20
204.7260837045654966
 30
0.0
 40
0.0197278567020948
 50
35.8315631380956319
 51
89.4932326506615254
  0
LINE
  5
98C9
  8
0
 10
4193.4585503154839898
 20
204.7375378902744956
 30
0.0
 11
4193.4585634555041906
 21
204.805256781870014
 31
0.0
  0
ARC
  5
98CA
  8
0
 10
4193.4388822357441313
 20
204.8052606007692873
 30
0.0
 40
0.019681220130117
 50
359.9888824569408143
 51
89.9999995353332736
  0
LINE
  5
98CB
  8
0
 10
4193.4388822359042024
 20
204.8249418208993973
 30
0.0
 11
4193.3010869645086132
 21
204.8249418220169105
 31
0.0
  0
ARC
  5
98CC
  8
0
 10
4193.3010869643503611
 20
204.8052529318051995
 30
0.0
 40
0.0196888902117323
 50
89.9999995353332736
 51
179.8998705423771867
  0
LINE
  5
98CD
  8
0
 10
4193.2813981042027081
 20
204.8052873398700058
 30
0.0
 11
4193.281384336982228
 21
204.7974095091115032
 31
0.0
  0
ARC
  5
98CE
  8
0
 10
4193.3010350556860431
 20
204.7973751677023131
 30
0.0
 40
0.0196507487113406
 50
179.8998705423641979
 51
270.1246167849624271
  0
LINE
  5
98CF
  8
0
 10
4193.3010777955041704
 20
204.7777244654699871
 30
0.0
 11
4193.3750933343808356
 21
204.7777101033103122
 31
0.0
  0
ARC
  5
98D0
  8
0
 10
4193.3750897224526852
 20
204.7580250642899955
 30
0.0
 40
0.0196850393516647
 50
359.9999999417619279
 51
89.9894870257874544
  0
LINE
  5
98D1
  8
0
 10
4193.3947747618040012
 20
204.7580250642699866
 30
0.0
 11
4193.3947708034065727
 21
204.7376230945212114
 31
0.0
  0
ARC
  5
98DB
  8
0
 10
4193.2606187452129234
 20
204.7068826091577876
 30
0.0
 40
0.0393676635268569
 50
98.5692681756832343
 51
179.992731704249195
  0
LINE
  5
98DC
  8
0
 10
4193.2212510820027092
 20
204.7068876031700029
 30
0.0
 11
4193.2212323533112794
 21
204.5592498144563081
 31
0.0
  0
LINE
  5
98DD
  8
0
 10
4193.2084987685093438
 20
204.3298427564010922
 30
0.0
 11
4193.2085454352027227
 21
204.6350049841699956
 31
0.0
  0
LINE
  5
98DE
  8
0
 10
4193.2085454352027227
 20
204.6350049841699956
 30
0.0
 11
4193.1730373343043539
 21
204.6449850663699976
 31
0.0
  0
ARC
  5
98DF
  8
0
 10
4193.1316469157391111
 20
204.5190564213075959
 30
0.0
 40
0.1325563668641875
 50
71.8052613007086791
 51
89.937644138871164
  0
LINE
  5
98E0
  8
0
 10
4193.1317911788028141
 20
204.6516127096699904
 30
0.0
 11
4192.8148281056028281
 21
204.6516745085700109
 31
0.0
  0
ARC
  5
98E1
  8
0
 10
4192.8148908703078632
 20
204.5727878735708885
 30
0.0
 40
0.0788866599678866
 50
90.0455863259878555
 51
193.9737818758044909
  0
ARC
  5
98E2
  8
0
 10
4190.559963349213831
 20
203.9473157064815894
 30
0.0
 40
0.7670459435775488
 50
88.076017217506589
 51
175.0990980125990859
  0
ARC
  5
98E3
  8
0
 10
4179.8470558556036849
 20
-114.9607661382512021
 30
0.0
 40
319.8550135212558985
 50
87.6964528909475263
 51
88.076017217506589
  0
ARC
  5
98E4
  8
0
 10
4191.3789763285667505
 20
204.4812561298340086
 30
0.0
 40
1.333205115580665
 50
3.3724751890676532
 51
6.65556969802034
  0
ARC
  5
98E5
  8
0
 10
4192.7901802039559698
 20
204.8730477014696021
 30
0.0
 40
0.3234901970904627
 50
255.6258078575345962
 51
274.0553438482758111
  0
ARC
  5
98E6
  8
0
 10
4192.8128180118555974
 20
204.3148632307695891
 30
0.0
 40
0.2355043484993942
 50
43.5789893817938818
 51
89.9417502452796498
  0
ARC
  5
98E7
  8
0
 10
4193.4099146902426583
 20
204.883033825175886
 30
0.0
 40
0.5887178713952566
 50
223.57761362516041
 51
269.9435104790633773
  0
LINE
  5
98E8
  8
0
 10
4193.2085338507804408
 20
204.5592522785156859
 30
0.0
 11
4193.2212323533112794
 21
204.5592498144563081
 31
0.0
  0
ARC
  5
98E9
  8
0
 10
4203.4792926322752464
 20
195.7313395749031883
 30
0.0
 40
13.6838371080567995
 50
180.3574126867742962
 51
206.2517077078599925
  0
ARC
  5
98EA
  8
0
 10
4202.2023207111997181
 20
194.8810109786911084
 30
0.0
 40
12.1640675186815592
 50
205.3199750067774971
 51
223.7057064391906067
  0
ARC
  5
98EB
  8
0
 10
4196.974001233042145
 20
190.1478225820119974
 30
0.0
 40
5.1176690168268646
 50
225.8436413736029067
 51
248.4347838732255127
  0
LINE
  5
98EC
  8
0
 10
4200.5229480611824329
 20
204.2943162399133996
 30
0.0
 11
4193.4093342568257867
 21
204.2943162399133996
 31
0.0
  0
ARC
  5
98ED
  8
0
 10
4196.9661411590041098
 20
153.8236967230184007
 30
0.0
 40
60.2779992081948706
 50
84.2912093367337008
 51
95.7087906632662992
  0
ARC
  5
98EE
  8
0
 10
4196.9661411590041098
 20
267.5324581802460102
 30
0.0
 40
60.1495821740834202
 50
264.2624502107065041
 51
275.7375497892934959
  0
ARC
  5
98EF
  8
0
 10
4196.9661411590041098
 20
189.920833540618105
 30
0.0
 40
4.9042710103778822
 50
247.5454248519980922
 51
292.4545751480018794
  0
ENDSEC
  0
EOF
