  0
SECTION
  2
HEADER
  9
$ACADVER
  1
AC1009
  9
$INSBASE
 10
3415.1798212618600701
 20
176.0483068169475871
 30
0.0
  9
$EXTMIN
 10
3408.3081176459832022
 20
169.9986894005745057
 30
-0.0000000349181948
  9
$EXTMAX
 10
3422.1454070157310525
 20
177.0360427543249102
 30
0.0000000814935746
  9
$LIMMIN
 10
0.0
 20
0.0
  9
$LIMMAX
 10
11.6929133858000007
 20
8.2677165353999982
  9
$ORTHOMODE
 70
     0
  9
$REGENMODE
 70
     1
  9
$FILLMODE
 70
     1
  9
$QTEXTMODE
 70
     0
  9
$MIRRTEXT
 70
     0
  9
$DRAGMODE
 70
     2
  9
$LTSCALE
 40
0.6431102362
  9
$OSMODE
 70
  4095
  9
$ATTMODE
 70
     1
  9
$TEXTSIZE
 40
0.2
  9
$TRACEWID
 40
0.05
  9
$TEXTSTYLE
  7
STANDARD
  9
$CLAYER
  8
0
  9
$CELTYPE
  6
BYLAYER
  9
$CECOLOR
 62
   256
  9
$DIMSCALE
 40
1.0
  9
$DIMASZ
 40
0.1875
  9
$DIMEXO
 40
0.0625
  9
$DIMDLI
 40
0.4443307087
  9
$DIMRND
 40
0.0
  9
$DIMDLE
 40
0.0
  9
$DIMEXE
 40
0.125
  9
$DIMTP
 40
0.01
  9
$DIMTM
 40
0.01
  9
$DIMTXT
 40
2.0
  9
$DIMCEN
 40
0.1052362205
  9
$DIMTSZ
 40
0.0
  9
$DIMTOL
 70
     1
  9
$DIMLIM
 70
     0
  9
$DIMTIH
 70
     1
  9
$DIMTOH
 70
     1
  9
$DIMSE1
 70
     0
  9
$DIMSE2
 70
     0
  9
$DIMTAD
 70
     0
  9
$DIMZIN
 70
     0
  9
$DIMBLK
  1

  9
$DIMASO
 70
     1
  9
$DIMSHO
 70
     1
  9
$DIMPOST
  1
\X
  9
$DIMAPOST
  1

  9
$DIMALT
 70
     1
  9
$DIMALTD
 70
     2
  9
$DIMALTF
 40
25.3999999999999986
  9
$DIMLFAC
 40
1.0
  9
$DIMTOFL
 70
     0
  9
$DIMTVP
 40
0.0
  9
$DIMTIX
 70
     0
  9
$DIMSOXD
 70
     0
  9
$DIMSAH
 70
     0
  9
$DIMBLK1
  1

  9
$DIMBLK2
  1

  9
$DIMSTYLE
  2
STANDARD
  9
$DIMCLRD
 70
     0
  9
$DIMCLRE
 70
     0
  9
$DIMCLRT
 70
     0
  9
$DIMTFAC
 40
1.0
  9
$DIMGAP
 40
0.09
  9
$LUNITS
 70
     2
  9
$LUPREC
 70
     4
  9
$SKETCHINC
 40
0.1
  9
$FILLETRAD
 40
0.0
  9
$AUNITS
 70
     0
  9
$AUPREC
 70
     0
  9
$MENU
  1
.
  9
$ELEVATION
 40
0.0
  9
$PELEVATION
 40
0.0
  9
$THICKNESS
 40
0.0
  9
$LIMCHECK
 70
     0
  9
$BLIPMODE
 70
     0
  9
$CHAMFERA
 40
0.0
  9
$CHAMFERB
 40
0.0
  9
$SKPOLY
 70
     0
  9
$TDCREATE
 40
2458060.468368056230247
  9
$TDUPDATE
 40
2459104.7167708328925073
  9
$TDINDWG
 40
0.5757709491
  9
$TDUSRTIMER
 40
0.5757709491
  9
$USRTIMER
 70
     1
  9
$ANGBASE
 50
0.0
  9
$ANGDIR
 70
     0
  9
$PDMODE
 70
     0
  9
$PDSIZE
 40
0.3125
  9
$PLINEWID
 40
0.0
  9
$COORDS
 70
     1
  9
$SPLFRAME
 70
     0
  9
$SPLINETYPE
 70
     6
  9
$SPLINESEGS
 70
     8
  9
$ATTDIA
 70
     1
  9
$ATTREQ
 70
     1
  9
$HANDLING
 70
     1
  9
$HANDSEED
  5
154F7
  9
$SURFTAB1
 70
     6
  9
$SURFTAB2
 70
     6
  9
$SURFTYPE
 70
     6
  9
$SURFU
 70
     6
  9
$SURFV
 70
     6
  9
$UCSNAME
  2

  9
$UCSORG
 10
0.0
 20
0.0
 30
0.0
  9
$UCSXDIR
 10
1.0
 20
0.0
 30
0.0
  9
$UCSYDIR
 10
0.0
 20
1.0
 30
0.0
  9
$PUCSNAME
  2

  9
$PUCSORG
 10
0.0
 20
0.0
 30
0.0
  9
$PUCSXDIR
 10
1.0
 20
0.0
 30
0.0
  9
$PUCSYDIR
 10
0.0
 20
1.0
 30
0.0
  9
$USERI1
 70
     0
  9
$USERI2
 70
     0
  9
$USERI3
 70
     0
  9
$USERI4
 70
     0
  9
$USERI5
 70
     0
  9
$USERR1
 40
0.0
  9
$USERR2
 40
0.0
  9
$USERR3
 40
0.0
  9
$USERR4
 40
0.0
  9
$USERR5
 40
0.0
  9
$WORLDVIEW
 70
     1
  9
$SHADEDGE
 70
     3
  9
$SHADEDIF
 70
    70
  9
$TILEMODE
 70
     1
  9
$MAXACTVP
 70
    64
  9
$PLIMCHECK
 70
     0
  9
$PEXTMIN
 10
1.0000000000000000E+20
 20
1.0000000000000000E+20
 30
1.0000000000000000E+20
  9
$PEXTMAX
 10
-1.0000000000000000E+20
 20
-1.0000000000000000E+20
 30
-1.0000000000000000E+20
  9
$PLIMMIN
 10
0.0
 20
0.0
  9
$PLIMMAX
 10
12.0
 20
9.0
  9
$UNITMODE
 70
     0
  9
$VISRETAIN
 70
     1
  9
$PLINEGEN
 70
     0
  9
$PSLTSCALE
 70
     1
  0
ENDSEC
  0
SECTION
  2
TABLES
  0
TABLE
  2
VPORT
 70
     1
  0
VPORT
  2
*ACTIVE
 70
     0
 10
0.0
 20
0.0
 11
1.0
 21
1.0
 12
111.533647096482099
 22
-21.7441454984380016
 13
0.0
 23
0.0
 14
1.0
 24
1.0
 15
0.0
 25
0.0
 16
0.0
 26
0.0
 36
96.5995694866707311
 17
3303.693115234375
 27
195.2615115758877096
 37
0.0
 40
7.0959166271519356
 41
2.6486111111111108
 42
50.0
 43
0.0
 44
0.0
 50
0.0
 51
0.0
 71
     0
 72
   100
 73
     1
 74
     1
 75
     0
 76
     0
 77
     0
 78
     0
  0
ENDTAB
  0
TABLE
  2
LTYPE
 70
     2
  0
LTYPE
  2
CONTINUOUS
 70
     0
  3
Solid line
 72
    65
 73
     0
 40
0.0
  0
LTYPE
  2
PHANTOM2
 70
     0
  3
___ _ _ ___ _ _ ___ _ _ ___ _ _
 72
    65
 73
     6
 40
1.25
 49
0.625
 49
-0.125
 49
0.125
 49
-0.125
 49
0.125
 49
-0.125
  0
ENDTAB
  0
TABLE
  2
LAYER
 70
     2
  0
LAYER
  2
0
 70
     0
 62
   255
  6
CONTINUOUS
  0
LAYER
  2
DEFPOINTS
 70
     0
 62
     7
  6
CONTINUOUS
  0
ENDTAB
  0
TABLE
  2
STYLE
 70
     1
  0
STYLE
  2
STANDARD
 70
     0
 40
0.0
 41
0.8
 50
0.0
 71
     0
 42
0.2
  3
txt
  4

  0
ENDTAB
  0
TABLE
  2
VIEW
 70
     0
  0
ENDTAB
  0
TABLE
  2
UCS
 70
     0
  0
ENDTAB
  0
TABLE
  2
APPID
 70
     9
  0
APPID
  2
ACAD
 70
     0
  0
APPID
  2
ACAD_MLEADERVER
 70
     0
  0
APPID
  2
ACAD_EXEMPT_FROM_CAD_STANDARDS
 70
     0
  0
APPID
  2
ACAD_NAV_VCDISPLAY
 70
     0
  0
APPID
  2
ACAECLAYERSTANDARD
 70
     0
  0
APPID
  2
ACCMTRANSPARENCY
 70
     0
  0
APPID
  2
ACAD_DSTYLE_DIMJAG
 70
     0
  0
APPID
  2
ACAD_DSTYLE_DIMTALN
 70
     0
  0
APPID
  2
ACDBATTR
 70
     0
  0
ENDTAB
  0
TABLE
  2
DIMSTYLE
 70
     1
  0
DIMSTYLE
  2
STANDARD
 70
     0
  3

  4

  5

  6

  7

 40
1.0
 41
0.1875
 42
0.0625
 43
0.38
 44
0.125
 45
0.0
 46
0.0
 47
0.01
 48
0.01
140
0.15625
141
0.09
142
0.0
143
25.3999999999999986
144
1.0
145
0.0
146
1.0
147
0.09
 71
     1
 72
     0
 73
     1
 74
     1
 75
     0
 76
     0
 77
     0
 78
     4
170
     0
171
     2
172
     0
173
     0
174
     0
175
     0
176
     0
177
     0
178
     0
  0
ENDTAB
  0
ENDSEC
  0
SECTION
  2
BLOCKS
  0
BLOCK
  8
0
  2
$MODEL_SPACE
 70
     0
 10
0.0
 20
0.0
 30
0.0
  3
$MODEL_SPACE
  1

  0
ENDBLK
  5
21
  8
0
  0
BLOCK
 67
     1
  8
0
  2
$PAPER_SPACE
 70
     0
 10
0.0
 20
0.0
 30
0.0
  3
$PAPER_SPACE
  1

  0
ENDBLK
  5
1D
 67
     1
  8
0
  0
BLOCK
  8
0
  2
_FILLED
 70
     0
 10
0.0
 20
0.0
 30
0.0
  3
_FILLED
  1

  0
SOLID
  5
1223D
  8
0
  6
BYBLOCK
 62
     0
 10
0.0
 20
0.0
 30
0.0
 11
-1.0
 21
0.1666666667
 31
0.0
 12
-1.0
 22
-0.1666666667
 32
0.0
 13
-1.0
 23
-0.1666666667
 33
0.0
  0
ENDBLK
  5
1223E
  8
0
  6
BYBLOCK
 62
     0
  0
ENDSEC
  0
SECTION
  2
ENTITIES
  0
ATTDEF
  5
14C97
  8
DEFPOINTS
 10
3415.1803264792979462
 20
176.0522012431887902
 30
0.0
 40
0.001
  1
K-37331IN-4ND
  3

  2
MODELNUMBER
 70
     0
1001
ACDBATTR
1070
     0
1070
     1
  0
ATTDEF
  5
14C98
  8
DEFPOINTS
 10
3415.1803264792979462
 20
176.0505345765220966
 30
0.0
 40
0.001
  1
STRAYT
  3

  2
TRADENAME
 70
     0
1001
ACDBATTR
1070
     0
1070
     1
  0
ATTDEF
  5
14C99
  8
DEFPOINTS
 10
3415.1803264792979462
 20
176.048867909855403
 30
0.0
 40
0.001
  1
BATHROOM SINK FAUCET
  3

  2
PRODUCT
 70
     0
1001
ACDBATTR
1070
     0
1070
     1
  0
LINE
  5
1516F
  8
0
 10
3414.4200196870601758
 20
170.0049997302475902
 30
0.0
 11
3415.9396228366599644
 21
170.0049997302475902
 31
0.0
  0
ARC
  5
15170
  8
0
 10
3414.4200196870601758
 20
170.0325997302475969
 30
0.0
 40
0.0276
 50
180.0
 51
270.0
  0
LINE
  5
15171
  8
0
 10
3414.1955692933602222
 20
175.2609052421476008
 30
0.0
 11
3414.1955692933602222
 21
177.0049587854475988
 31
0.0
  0
LINE
  5
15172
  8
0
 10
3414.392419687059828
 20
170.0325997302475969
 30
0.0
 11
3414.392419687059828
 21
176.8081083917475951
 31
0.0
  0
LINE
  5
15173
  8
0
 10
3415.9672228366598574
 20
176.8081083917475951
 30
0.0
 11
3415.9672228366598574
 21
170.0325997302475969
 31
0.0
  0
ARC
  5
15174
  8
0
 10
3415.9396228366599644
 20
170.0325997302475969
 30
0.0
 40
0.0276
 50
270.0
 51
0.0
  0
LINE
  5
15175
  8
0
 10
3416.1640732303599179
 20
177.0049587854475988
 30
0.0
 11
3416.1640732303599179
 21
175.2609052421476008
 31
0.0
  0
ARC
  5
15176
  8
0
 10
3416.1364732303600249
 20
177.0049587854475988
 30
0.0
 40
0.0276
 50
0.0
 51
90.0
  0
LINE
  5
15177
  8
0
 10
3419.8884826791600062
 20
175.1427950058476029
 30
0.0
 11
3418.301909450859057
 21
175.1427950058476029
 31
0.0
  0
ARC
  5
15178
  8
0
 10
3418.301909450859057
 20
175.1703950058476096
 30
0.0
 40
0.0276
 50
180.0
 51
270.0
  0
LINE
  5
15179
  8
0
 10
3418.4838680424641097
 20
175.3252154521468924
 30
0.0
 11
3419.730875224302963
 21
175.3252154296476135
 31
0.0
  0
LINE
  5
1517A
  8
0
 10
3419.7971363499527797
 20
175.338073085147613
 30
0.0
 11
3421.910483814440795
 21
175.338073085147613
 31
0.0
  0
LINE
  5
1517B
  8
0
 10
3418.2743094508600734
 20
175.1703950058476096
 30
0.0
 11
3418.2743094508600734
 21
176.9262186279476055
 31
0.0
  0
ARC
  5
1517C
  8
0
 10
3418.301909450859057
 20
176.9262186279476055
 30
0.0
 40
0.0276
 50
90.0
 51
180.0
  0
LINE
  5
1517D
  8
0
 10
3418.4838680455059148
 20
176.7713982536475896
 30
0.0
 11
3419.7308728653729304
 21
176.7713982536475896
 31
0.0
  0
LINE
  5
1517E
  8
0
 10
3414.4200196870601758
 20
176.8357083917476018
 30
0.0
 11
3415.9396228366599644
 21
176.8357083917476018
 31
0.0
  0
ARC
  5
1517F
  8
0
 10
3414.4200196870601758
 20
176.8081083917475951
 30
0.0
 40
0.0276
 50
90.0
 51
180.0
  0
ARC
  5
15180
  8
0
 10
3415.9396228366599644
 20
176.8081083917475951
 30
0.0
 40
0.0276
 50
0.0
 51
90.0
  0
LINE
  5
15181
  8
0
 10
3418.301909450859057
 20
176.9538186279476122
 30
0.0
 11
3419.8884826791600062
 21
176.9538186279476122
 31
0.0
  0
LINE
  5
15182
  8
0
 10
3414.2231692933601153
 20
177.0325587854476055
 30
0.0
 11
3416.1364732303600249
 21
177.0325587854476055
 31
0.0
  0
ARC
  5
15183
  8
0
 10
3414.2231692933601153
 20
177.0049587854475988
 30
0.0
 40
0.0276
 50
90.0
 51
180.0
  0
LINE
  5
15184
  8
0
 10
3421.9104852283189757
 20
176.7585380769685059
 30
0.0
 11
3419.7968740138098838
 21
176.7586463519218114
 31
0.0
  0
ARC
  5
15185
  8
0
 10
3414.392419687059828
 20
175.2609052421476008
 30
0.0
 40
0.1968503937
 50
180.0
 51
270.0
  0
ARC
  5
15186
  8
0
 10
3419.8884782210711819
 20
175.3396562234090084
 30
0.0
 40
0.1968612176118592
 50
270.0012975114515825
 51
359.5392280937998066
  0
ARC
  5
15187
  8
0
 10
3415.9672228366598574
 20
175.2609052421476008
 30
0.0
 40
0.1968503937
 50
270.0
 51
0.0
  0
ARC
  5
15188
  8
0
 10
3419.8884776887648513
 20
176.7569561140126098
 30
0.0
 40
0.1968625139982859
 50
0.4876399009539849
 51
89.9985475721695991
  0
ARC
  5
15189
  8
0
 10
3438.1434391735601821
 20
176.0483068169475871
 30
0.0
 40
19.699469389499999
 50
177.9739073408235015
 51
182.0260924496344046
  0
ARC
  5
1518A
  8
0
 10
3418.4838680429620581
 20
175.3528154521468991
 30
0.0
 40
0.0276
 50
182.0260924496311077
 51
269.9999989662376834
  0
ARC
  5
1518B
  8
0
 10
3418.4838680455059148
 20
176.7437982536476113
 30
0.0
 40
0.0276
 50
90.0
 51
177.973907340818613
  0
LINE
  5
1518C
  8
0
 10
3421.9380838144411427
 20
175.3656730851475913
 30
0.0
 11
3421.9380838144411427
 21
176.7309380770047085
 31
0.0
  0
ARC
  5
1518D
  8
0
 10
3421.910483814440795
 20
175.3656730851475913
 30
0.0
 40
0.0276
 50
270.0
 51
359.9999999999919282
  0
ARC
  5
1518E
  8
0
 10
3421.910483814440795
 20
176.7309380770047085
 30
0.0
 40
0.0276
 50
0.0
 51
89.9970648822208545
  0
ARC
  5
1518F
  8
0
 10
3419.7308752274989274
 20
175.5023805299898925
 30
0.0
 40
0.1771651003426351
 50
269.9999989662376834
 51
291.9629996641475032
  0
ARC
  5
15190
  8
0
 10
3419.7308728653729304
 20
176.5942183049006076
 30
0.0
 40
0.1771799487591638
 50
68.1295547537165618
 51
90.0
  0
LINE
  5
15191
  8
0
 10
3410.4711598445601339
 20
175.1427950058476029
 30
0.0
 11
3412.0577330728601737
 21
175.1427950058476029
 31
0.0
  0
ARC
  5
15192
  8
0
 10
3412.0577330728601737
 20
175.1703950058476096
 30
0.0
 40
0.0276
 50
270.0
 51
0.0
  0
LINE
  5
15193
  8
0
 10
3411.8757744812560304
 20
175.3252154521468924
 30
0.0
 11
3410.6287672994171771
 21
175.3252154296476135
 31
0.0
  0
LINE
  5
15194
  8
0
 10
3410.5625061737659962
 20
175.338073085147613
 30
0.0
 11
3408.4491587092788905
 21
175.338073085147613
 31
0.0
  0
LINE
  5
15195
  8
0
 10
3412.0853330728591573
 20
175.1703950058476096
 30
0.0
 11
3412.0853330728591573
 21
176.9262186279476055
 31
0.0
  0
ARC
  5
15196
  8
0
 10
3412.0577330728601737
 20
176.9262186279476055
 30
0.0
 40
0.0276
 50
0.0
 51
90.0
  0
LINE
  5
15197
  8
0
 10
3411.8757744782142254
 20
176.7713982536475896
 30
0.0
 11
3410.6287696583472098
 21
176.7713982536475896
 31
0.0
  0
LINE
  5
15198
  8
0
 10
3412.0577330728601737
 20
176.9538186279476122
 30
0.0
 11
3410.4711598445601339
 21
176.9538186279476122
 31
0.0
  0
LINE
  5
15199
  8
0
 10
3408.4491572953998002
 20
176.7585380769685059
 30
0.0
 11
3410.5627685099088922
 21
176.7586463519218114
 31
0.0
  0
ARC
  5
1519A
  8
0
 10
3410.4711643026489583
 20
175.3396562234090084
 30
0.0
 40
0.1968612176118641
 50
180.4607719062003071
 51
269.9987024885484175
  0
ARC
  5
1519B
  8
0
 10
3410.4711648349530151
 20
176.7569561140178109
 30
0.0
 40
0.1968625139930038
 50
90.0014524272050807
 51
179.5123602053498075
  0
ARC
  5
1519C
  8
0
 10
3392.2162033501590486
 20
176.0483068169475871
 30
0.0
 40
19.699469389499999
 50
357.9739075503655954
 51
2.0260926591781101
  0
ARC
  5
1519D
  8
0
 10
3411.8757744807571726
 20
175.3528154521468991
 30
0.0
 40
0.0276
 50
270.0000010337623166
 51
357.9739075503688923
  0
ARC
  5
1519E
  8
0
 10
3411.8757744782142254
 20
176.7437982536476113
 30
0.0
 40
0.0276
 50
2.0260926591813648
 51
90.0
  0
LINE
  5
1519F
  8
0
 10
3408.4215587092780879
 20
175.3656730851475913
 30
0.0
 11
3408.4215587092780879
 21
176.7309380770047085
 31
0.0
  0
ARC
  5
151A0
  8
0
 10
3408.4491587092788905
 20
175.3656730851475913
 30
0.0
 40
0.0276
 50
180.0000000000065086
 51
269.9999999999739089
  0
ARC
  5
151A1
  8
0
 10
3408.4491587092788905
 20
176.7309380770047085
 30
0.0
 40
0.0276
 50
90.0029351177791455
 51
180.0
  0
ARC
  5
151A2
  8
0
 10
3410.6287672962198485
 20
175.5023805299898925
 30
0.0
 40
0.1771651003426351
 50
248.0370003358524968
 51
270.0000010337623166
  0
ARC
  5
151A3
  8
0
 10
3410.6287696583472098
 20
176.5942183049006076
 30
0.0
 40
0.1771799487591638
 50
90.0
 51
111.8704452462833956
  0
ENDSEC
  0
EOF
