  0
SECTION
  2
HEADER
  9
$ACADVER
  1
AC1009
  9
$INSBASE
 10
3415.1794974229110267
 20
159.8288601324092895
 30
0.0
  9
$EXTMIN
 10
3408.2040993557179718
 20
159.8265005615469931
 30
-0.0015258207003583
  9
$EXTMAX
 10
3422.0409664246831198
 20
165.273583590168812
 30
0.0000000349246037
  9
$LIMMIN
 10
0.0
 20
0.0
  9
$LIMMAX
 10
11.6929133858000007
 20
8.2677165353999982
  9
$ORTHOMODE
 70
     0
  9
$REGENMODE
 70
     1
  9
$FILLMODE
 70
     1
  9
$QTEXTMODE
 70
     0
  9
$MIRRTEXT
 70
     0
  9
$DRAGMODE
 70
     2
  9
$LTSCALE
 40
0.6431102362
  9
$OSMODE
 70
  4095
  9
$ATTMODE
 70
     1
  9
$TEXTSIZE
 40
0.2
  9
$TRACEWID
 40
0.05
  9
$TEXTSTYLE
  7
STANDARD
  9
$CLAYER
  8
0
  9
$CELTYPE
  6
BYLAYER
  9
$CECOLOR
 62
   256
  9
$DIMSCALE
 40
1.0
  9
$DIMASZ
 40
0.1875
  9
$DIMEXO
 40
0.0625
  9
$DIMDLI
 40
0.4443307087
  9
$DIMRND
 40
0.0
  9
$DIMDLE
 40
0.0
  9
$DIMEXE
 40
0.125
  9
$DIMTP
 40
0.01
  9
$DIMTM
 40
0.01
  9
$DIMTXT
 40
2.0
  9
$DIMCEN
 40
0.1052362205
  9
$DIMTSZ
 40
0.0
  9
$DIMTOL
 70
     1
  9
$DIMLIM
 70
     0
  9
$DIMTIH
 70
     1
  9
$DIMTOH
 70
     1
  9
$DIMSE1
 70
     0
  9
$DIMSE2
 70
     0
  9
$DIMTAD
 70
     0
  9
$DIMZIN
 70
     0
  9
$DIMBLK
  1

  9
$DIMASO
 70
     1
  9
$DIMSHO
 70
     1
  9
$DIMPOST
  1
\X
  9
$DIMAPOST
  1

  9
$DIMALT
 70
     1
  9
$DIMALTD
 70
     2
  9
$DIMALTF
 40
25.3999999999999986
  9
$DIMLFAC
 40
1.0
  9
$DIMTOFL
 70
     0
  9
$DIMTVP
 40
0.0
  9
$DIMTIX
 70
     0
  9
$DIMSOXD
 70
     0
  9
$DIMSAH
 70
     0
  9
$DIMBLK1
  1

  9
$DIMBLK2
  1

  9
$DIMSTYLE
  2
STANDARD
  9
$DIMCLRD
 70
     0
  9
$DIMCLRE
 70
     0
  9
$DIMCLRT
 70
     0
  9
$DIMTFAC
 40
1.0
  9
$DIMGAP
 40
0.09
  9
$LUNITS
 70
     2
  9
$LUPREC
 70
     4
  9
$SKETCHINC
 40
0.1
  9
$FILLETRAD
 40
0.0
  9
$AUNITS
 70
     0
  9
$AUPREC
 70
     0
  9
$MENU
  1
.
  9
$ELEVATION
 40
0.0
  9
$PELEVATION
 40
0.0
  9
$THICKNESS
 40
0.0
  9
$LIMCHECK
 70
     0
  9
$BLIPMODE
 70
     0
  9
$CHAMFERA
 40
0.0
  9
$CHAMFERB
 40
0.0
  9
$SKPOLY
 70
     0
  9
$TDCREATE
 40
2458060.468368056230247
  9
$TDUPDATE
 40
2459104.7172106481157243
  9
$TDINDWG
 40
0.5766158565
  9
$TDUSRTIMER
 40
0.5766158565
  9
$USRTIMER
 70
     1
  9
$ANGBASE
 50
0.0
  9
$ANGDIR
 70
     0
  9
$PDMODE
 70
     0
  9
$PDSIZE
 40
0.3125
  9
$PLINEWID
 40
0.0
  9
$COORDS
 70
     1
  9
$SPLFRAME
 70
     0
  9
$SPLINETYPE
 70
     6
  9
$SPLINESEGS
 70
     8
  9
$ATTDIA
 70
     1
  9
$ATTREQ
 70
     1
  9
$HANDLING
 70
     1
  9
$HANDSEED
  5
154FC
  9
$SURFTAB1
 70
     6
  9
$SURFTAB2
 70
     6
  9
$SURFTYPE
 70
     6
  9
$SURFU
 70
     6
  9
$SURFV
 70
     6
  9
$UCSNAME
  2

  9
$UCSORG
 10
0.0
 20
0.0
 30
0.0
  9
$UCSXDIR
 10
1.0
 20
0.0
 30
0.0
  9
$UCSYDIR
 10
0.0
 20
1.0
 30
0.0
  9
$PUCSNAME
  2

  9
$PUCSORG
 10
0.0
 20
0.0
 30
0.0
  9
$PUCSXDIR
 10
1.0
 20
0.0
 30
0.0
  9
$PUCSYDIR
 10
0.0
 20
1.0
 30
0.0
  9
$USERI1
 70
     0
  9
$USERI2
 70
     0
  9
$USERI3
 70
     0
  9
$USERI4
 70
     0
  9
$USERI5
 70
     0
  9
$USERR1
 40
0.0
  9
$USERR2
 40
0.0
  9
$USERR3
 40
0.0
  9
$USERR4
 40
0.0
  9
$USERR5
 40
0.0
  9
$WORLDVIEW
 70
     1
  9
$SHADEDGE
 70
     3
  9
$SHADEDIF
 70
    70
  9
$TILEMODE
 70
     1
  9
$MAXACTVP
 70
    64
  9
$PLIMCHECK
 70
     0
  9
$PEXTMIN
 10
1.0000000000000000E+20
 20
1.0000000000000000E+20
 30
1.0000000000000000E+20
  9
$PEXTMAX
 10
-1.0000000000000000E+20
 20
-1.0000000000000000E+20
 30
-1.0000000000000000E+20
  9
$PLIMMIN
 10
0.0
 20
0.0
  9
$PLIMMAX
 10
12.0
 20
9.0
  9
$UNITMODE
 70
     0
  9
$VISRETAIN
 70
     1
  9
$PLINEGEN
 70
     0
  9
$PSLTSCALE
 70
     1
  0
ENDSEC
  0
SECTION
  2
TABLES
  0
TABLE
  2
VPORT
 70
     1
  0
VPORT
  2
*ACTIVE
 70
     0
 10
0.0
 20
0.0
 11
1.0
 21
1.0
 12
111.4294176558251053
 22
-32.7114695000298425
 13
0.0
 23
0.0
 14
1.0
 24
1.0
 15
0.0
 25
0.0
 16
0.0
 26
0.0
 36
96.5995694866707311
 17
3303.693115234375
 27
195.2615115758877096
 37
0.0
 40
5.4924124296921226
 41
2.6486111111111108
 42
50.0
 43
0.0
 44
0.0
 50
0.0
 51
0.0
 71
     0
 72
   100
 73
     1
 74
     1
 75
     0
 76
     0
 77
     0
 78
     0
  0
ENDTAB
  0
TABLE
  2
LTYPE
 70
     2
  0
LTYPE
  2
CONTINUOUS
 70
     0
  3
Solid line
 72
    65
 73
     0
 40
0.0
  0
LTYPE
  2
PHANTOM2
 70
     0
  3
___ _ _ ___ _ _ ___ _ _ ___ _ _
 72
    65
 73
     6
 40
1.25
 49
0.625
 49
-0.125
 49
0.125
 49
-0.125
 49
0.125
 49
-0.125
  0
ENDTAB
  0
TABLE
  2
LAYER
 70
     2
  0
LAYER
  2
0
 70
     0
 62
   255
  6
CONTINUOUS
  0
LAYER
  2
DEFPOINTS
 70
     0
 62
     7
  6
CONTINUOUS
  0
ENDTAB
  0
TABLE
  2
STYLE
 70
     1
  0
STYLE
  2
STANDARD
 70
     0
 40
0.0
 41
0.8
 50
0.0
 71
     0
 42
0.2
  3
txt
  4

  0
ENDTAB
  0
TABLE
  2
VIEW
 70
     0
  0
ENDTAB
  0
TABLE
  2
UCS
 70
     0
  0
ENDTAB
  0
TABLE
  2
APPID
 70
     9
  0
APPID
  2
ACAD
 70
     0
  0
APPID
  2
ACAD_MLEADERVER
 70
     0
  0
APPID
  2
ACAD_EXEMPT_FROM_CAD_STANDARDS
 70
     0
  0
APPID
  2
ACAD_NAV_VCDISPLAY
 70
     0
  0
APPID
  2
ACAECLAYERSTANDARD
 70
     0
  0
APPID
  2
ACCMTRANSPARENCY
 70
     0
  0
APPID
  2
ACAD_DSTYLE_DIMJAG
 70
     0
  0
APPID
  2
ACAD_DSTYLE_DIMTALN
 70
     0
  0
APPID
  2
ACDBATTR
 70
     0
  0
ENDTAB
  0
TABLE
  2
DIMSTYLE
 70
     1
  0
DIMSTYLE
  2
STANDARD
 70
     0
  3

  4

  5

  6

  7

 40
1.0
 41
0.1875
 42
0.0625
 43
0.38
 44
0.125
 45
0.0
 46
0.0
 47
0.01
 48
0.01
140
0.15625
141
0.09
142
0.0
143
25.3999999999999986
144
1.0
145
0.0
146
1.0
147
0.09
 71
     1
 72
     0
 73
     1
 74
     1
 75
     0
 76
     0
 77
     0
 78
     4
170
     0
171
     2
172
     0
173
     0
174
     0
175
     0
176
     0
177
     0
178
     0
  0
ENDTAB
  0
ENDSEC
  0
SECTION
  2
BLOCKS
  0
BLOCK
  8
0
  2
$MODEL_SPACE
 70
     0
 10
0.0
 20
0.0
 30
0.0
  3
$MODEL_SPACE
  1

  0
ENDBLK
  5
21
  8
0
  0
BLOCK
 67
     1
  8
0
  2
$PAPER_SPACE
 70
     0
 10
0.0
 20
0.0
 30
0.0
  3
$PAPER_SPACE
  1

  0
ENDBLK
  5
1D
 67
     1
  8
0
  0
BLOCK
  8
0
  2
_FILLED
 70
     0
 10
0.0
 20
0.0
 30
0.0
  3
_FILLED
  1

  0
SOLID
  5
1223D
  8
0
  6
BYBLOCK
 62
     0
 10
0.0
 20
0.0
 30
0.0
 11
-1.0
 21
0.1666666667
 31
0.0
 12
-1.0
 22
-0.1666666667
 32
0.0
 13
-1.0
 23
-0.1666666667
 33
0.0
  0
ENDBLK
  5
1223E
  8
0
  6
BYBLOCK
 62
     0
  0
ENDSEC
  0
SECTION
  2
ENTITIES
  0
ATTDEF
  5
14C53
  8
DEFPOINTS
 10
3415.1797778673872017
 20
159.8327966906140034
 30
0.0
 40
0.001
  1
K-37331IN-4ND
  3

  2
MODELNUMBER
 70
     0
1001
ACDBATTR
1070
     0
1070
     1
  0
ATTDEF
  5
14C54
  8
DEFPOINTS
 10
3415.1797778673872017
 20
159.8311300239473098
 30
0.0
 40
0.001
  1
STRAYT
  3

  2
TRADENAME
 70
     0
1001
ACDBATTR
1070
     0
1070
     1
  0
ATTDEF
  5
14C55
  8
DEFPOINTS
 10
3415.1797778673872017
 20
159.8294633572807015
 30
0.0
 40
0.001
  1
BATHROOM SINK FAUCET
  3

  2
PRODUCT
 70
     0
1001
ACDBATTR
1070
     0
1070
     1
  0
LINE
  5
15131
  8
0
 10
3414.1952454544111788
 20
159.8288601324092895
 30
0.0
 11
3416.1637493914108745
 21
159.8288601324092895
 31
0.0
  0
LINE
  5
15132
  8
0
 10
3418.27398561191103
 20
159.8288601324092895
 30
0.0
 11
3420.0850092339110233
 21
159.8288601324092895
 31
0.0
  0
LINE
  5
15133
  8
0
 10
3414.2228454544110718
 20
159.9469703686092998
 30
0.0
 11
3416.1361493914109815
 21
159.9469703686092998
 31
0.0
  0
ARC
  5
15134
  8
0
 10
3414.2228454544110718
 20
159.9193703686092931
 30
0.0
 40
0.0276
 50
90.0
 51
180.0
  0
LINE
  5
15135
  8
0
 10
3418.3015856119100135
 20
159.9469703686092998
 30
0.0
 11
3420.0574092339111303
 21
159.9469703686092998
 31
0.0
  0
ARC
  5
15136
  8
0
 10
3418.3015856119100135
 20
159.9193703686092931
 30
0.0
 40
0.0276
 50
90.0
 51
180.0
  0
LINE
  5
15137
  8
0
 10
3419.8192612025109156
 20
159.9863404474093045
 30
0.0
 11
3418.5397336434111821
 21
159.9863404474093045
 31
0.0
  0
LINE
  5
15138
  8
0
 10
3418.4436459451108021
 20
160.0060254868093068
 30
0.0
 11
3419.9153489007107964
 21
160.0060254868093068
 31
0.0
  0
LINE
  5
15139
  8
0
 10
3414.1952454544111788
 20
159.8288601324092895
 30
0.0
 11
3414.1952454544111788
 21
159.9193703686092931
 31
0.0
  0
LINE
  5
1513A
  8
0
 10
3414.3920958481107846
 20
159.9469703686092998
 30
0.0
 11
3414.3920958481107846
 21
165.0650309986093021
 31
0.0
  0
ARC
  5
1513B
  8
0
 10
3414.5889958481111535
 20
165.0650309986093021
 30
0.0
 40
0.1969
 50
90.0
 51
180.0
  0
LINE
  5
1513C
  8
0
 10
3420.2784175653318925
 20
162.2767300126093062
 30
0.0
 11
3421.9101599754922063
 21
162.2767300126093062
 31
0.0
  0
ARC
  5
1513D
  8
0
 10
3420.2784175653318925
 20
161.9037300126092873
 30
0.0
 40
0.373
 50
90.0
 51
180.2999999992258893
  0
LINE
  5
1513E
  8
0
 10
3418.4855986403317729
 20
162.7746910397092961
 30
0.0
 11
3421.9101599754922063
 21
162.7746910397092961
 31
0.0
  0
ARC
  5
1513F
  8
0
 10
3418.4855986403317729
 20
162.7470910397092894
 30
0.0
 40
0.0276
 50
90.0
 51
179.6999999989648131
  0
LINE
  5
15140
  8
0
 10
3415.966898997710814
 20
159.9469703686092998
 30
0.0
 11
3415.966898997710814
 21
165.0650309986093021
 31
0.0
  0
ARC
  5
15141
  8
0
 10
3415.7699989977099904
 20
165.0650309986093021
 30
0.0
 40
0.1969
 50
0.0
 51
90.0
  0
LINE
  5
15142
  8
0
 10
3416.1637493914108745
 20
159.9193703686092931
 30
0.0
 11
3416.1637493914108745
 21
159.8288601324092895
 31
0.0
  0
ARC
  5
15143
  8
0
 10
3416.1361493914109815
 20
159.9193703686092931
 30
0.0
 40
0.0276
 50
0.0
 51
90.0
  0
LINE
  5
15144
  8
0
 10
3419.7995761631109417
 20
160.0060254868093068
 30
0.0
 11
3419.8192612025109156
 21
159.9863404474093045
 31
0.0
  0
LINE
  5
15145
  8
0
 10
3415.7700486040112082
 20
164.3367341482093025
 30
0.0
 11
3414.5889462418108451
 21
164.3367341482093025
 31
0.0
  0
LINE
  5
15146
  8
0
 10
3414.5889958481111535
 20
165.2619309986093015
 30
0.0
 11
3415.7699989977099904
 21
165.2619309986093015
 31
0.0
  0
LINE
  5
15147
  8
0
 10
3418.27398561191103
 20
159.8288601324092895
 30
0.0
 11
3418.27398561191103
 21
159.9193703686092931
 31
0.0
  0
LINE
  5
15148
  8
0
 10
3418.5397336434111821
 20
159.9863404474093045
 30
0.0
 11
3418.5397336434111821
 21
159.9469703686092998
 31
0.0
  0
LINE
  5
15149
  8
0
 10
3418.4579990186662144
 20
162.7472355523115084
 30
0.0
 11
3418.4436459451108021
 21
160.0060254868093068
 31
0.0
  0
LINE
  5
1514A
  8
0
 10
3418.559418682811156
 20
160.0060254868093068
 30
0.0
 11
3418.5397336434111821
 21
159.9863404474093045
 31
0.0
  0
LINE
  5
1514B
  8
0
 10
3419.9054226783241575
 20
161.9017769981051913
 30
0.0
 11
3419.9153489007107964
 21
160.0060254868093068
 31
0.0
  0
LINE
  5
1514C
  8
0
 10
3419.8192612025109156
 20
159.9863404474093045
 30
0.0
 11
3419.8192612025109156
 21
159.9469703686092998
 31
0.0
  0
LINE
  5
1514D
  8
0
 10
3420.0850092339110233
 20
159.9193703686092931
 30
0.0
 11
3420.0850092339110233
 21
159.8288601324092895
 31
0.0
  0
ARC
  5
1514E
  8
0
 10
3420.0574092339111303
 20
159.9193703686092931
 30
0.0
 40
0.0276
 50
0.0
 51
90.0
  0
ARC
  5
1514F
  8
0
 10
3414.5889462418108451
 20
164.5335845419093062
 30
0.0
 40
0.1968503937
 50
180.0
 51
270.0000000050025051
  0
ARC
  5
15150
  8
0
 10
3415.7700486040112082
 20
164.5335845419093062
 30
0.0
 40
0.1968503937
 50
269.999999990099127
 51
0.0
  0
LINE
  5
15151
  8
0
 10
3421.9377599754920993
 20
162.3043300126093129
 30
0.0
 11
3421.9377599754920993
 21
162.7470910397092894
 31
0.0
  0
ARC
  5
15152
  8
0
 10
3421.9101599754922063
 20
162.3043300126093129
 30
0.0
 40
0.0276
 50
270.0
 51
0.0
  0
ARC
  5
15153
  8
0
 10
3421.9101599754922063
 20
162.7470910397092894
 30
0.0
 40
0.0276
 50
0.0
 51
90.0
  0
LINE
  5
15154
  8
0
 10
3412.0850092339110233
 20
159.8288601324092895
 30
0.0
 11
3410.27398561191103
 21
159.8288601324092895
 31
0.0
  0
LINE
  5
15155
  8
0
 10
3412.0574092339111303
 20
159.9469703686092998
 30
0.0
 11
3410.301585611910923
 21
159.9469703686092998
 31
0.0
  0
ARC
  5
15156
  8
0
 10
3412.0574092339111303
 20
159.9193703686092931
 30
0.0
 40
0.0276
 50
0.0
 51
90.0
  0
LINE
  5
15157
  8
0
 10
3410.5397336433111377
 20
159.9863404474093045
 30
0.0
 11
3411.8192612024099617
 21
159.9863404474093045
 31
0.0
  0
LINE
  5
15158
  8
0
 10
3411.9153489007107964
 20
160.0060254868093068
 30
0.0
 11
3410.4436459451108021
 21
160.0060254868093068
 31
0.0
  0
LINE
  5
15159
  8
0
 10
3410.0805772804887965
 20
162.2767300126093062
 30
0.0
 11
3408.448834870329847
 21
162.2767300126093062
 31
0.0
  0
ARC
  5
1515A
  8
0
 10
3410.0805772804887965
 20
161.9037300126092873
 30
0.0
 40
0.373
 50
359.700000000772377
 51
90.0
  0
LINE
  5
1515B
  8
0
 10
3411.8733962054898257
 20
162.7746910397092961
 30
0.0
 11
3408.448834870329847
 21
162.7746910397092961
 31
0.0
  0
ARC
  5
1515C
  8
0
 10
3411.8733962054898257
 20
162.7470910397092894
 30
0.0
 40
0.0276
 50
0.3000000010351763
 51
90.0
  0
LINE
  5
1515D
  8
0
 10
3410.5594186827111116
 20
160.0060254868093068
 30
0.0
 11
3410.5397336433111377
 21
159.9863404474093045
 31
0.0
  0
LINE
  5
1515E
  8
0
 10
3412.0850092339110233
 20
159.8288601324092895
 30
0.0
 11
3412.0850092339110233
 21
159.9193703686092931
 31
0.0
  0
LINE
  5
1515F
  8
0
 10
3411.8192612024099617
 20
159.9863404474093045
 30
0.0
 11
3411.8192612024099617
 21
159.9469703686092998
 31
0.0
  0
LINE
  5
15160
  8
0
 10
3411.9009958271558389
 20
162.7472355523115084
 30
0.0
 11
3411.9153489007107964
 21
160.0060254868093068
 31
0.0
  0
LINE
  5
15161
  8
0
 10
3411.7995761630108973
 20
160.0060254868093068
 30
0.0
 11
3411.8192612024099617
 21
159.9863404474093045
 31
0.0
  0
LINE
  5
15162
  8
0
 10
3410.4535721674978959
 20
161.9017769981051913
 30
0.0
 11
3410.4436459451108021
 21
160.0060254868093068
 31
0.0
  0
LINE
  5
15163
  8
0
 10
3410.5397336433111377
 20
159.9863404474093045
 30
0.0
 11
3410.5397336433111377
 21
159.9469703686092998
 31
0.0
  0
LINE
  5
15164
  8
0
 10
3410.27398561191103
 20
159.9193703686092931
 30
0.0
 11
3410.27398561191103
 21
159.8288601324092895
 31
0.0
  0
ARC
  5
15165
  8
0
 10
3410.301585611910923
 20
159.9193703686092931
 30
0.0
 40
0.0276
 50
90.0
 51
180.0
  0
LINE
  5
15166
  8
0
 10
3408.421234870329954
 20
162.3043300126093129
 30
0.0
 11
3408.421234870329954
 21
162.7470910397092894
 31
0.0
  0
ARC
  5
15167
  8
0
 10
3408.448834870329847
 20
162.3043300126093129
 30
0.0
 40
0.0276
 50
180.0
 51
270.0
  0
ARC
  5
15168
  8
0
 10
3408.448834870329847
 20
162.7470910397092894
 30
0.0
 40
0.0276
 50
90.0
 51
180.0
  0
ENDSEC
  0
EOF
