  0
SECTION
  2
HEADER
  9
$ACADVER
  1
AC1009
  9
$INSBASE
 10
256.9863504419249125
 20
26.4353377911340317
 30
0.0
  9
$EXTMIN
 10
256.0706424963274799
 20
20.6462457201340186
 30
0.0
  9
$EXTMAX
 10
257.9020583875222883
 20
28.3941377911340282
 30
0.0
  9
$LIMMIN
 10
0.0
 20
0.0
  9
$LIMMAX
 10
11.6929133858000007
 20
8.2677165353999982
  9
$ORTHOMODE
 70
     0
  9
$REGENMODE
 70
     1
  9
$FILLMODE
 70
     1
  9
$QTEXTMODE
 70
     0
  9
$MIRRTEXT
 70
     0
  9
$DRAGMODE
 70
     2
  9
$LTSCALE
 40
0.6431102362
  9
$OSMODE
 70
  3839
  9
$ATTMODE
 70
     1
  9
$TEXTSIZE
 40
0.2
  9
$TRACEWID
 40
0.05
  9
$TEXTSTYLE
  7
STANDARD
  9
$CLAYER
  8
0
  9
$CELTYPE
  6
BYLAYER
  9
$CECOLOR
 62
   256
  9
$DIMSCALE
 40
1.0
  9
$DIMASZ
 40
0.1875
  9
$DIMEXO
 40
0.0625
  9
$DIMDLI
 40
0.4443307087
  9
$DIMRND
 40
0.0
  9
$DIMDLE
 40
0.0
  9
$DIMEXE
 40
0.125
  9
$DIMTP
 40
0.01
  9
$DIMTM
 40
0.01
  9
$DIMTXT
 40
1.0
  9
$DIMCEN
 40
0.1052362205
  9
$DIMTSZ
 40
0.0
  9
$DIMTOL
 70
     1
  9
$DIMLIM
 70
     0
  9
$DIMTIH
 70
     0
  9
$DIMTOH
 70
     1
  9
$DIMSE1
 70
     0
  9
$DIMSE2
 70
     0
  9
$DIMTAD
 70
     0
  9
$DIMZIN
 70
     0
  9
$DIMBLK
  1

  9
$DIMASO
 70
     1
  9
$DIMSHO
 70
     1
  9
$DIMPOST
  1
\X
  9
$DIMAPOST
  1

  9
$DIMALT
 70
     1
  9
$DIMALTD
 70
     2
  9
$DIMALTF
 40
25.3999999999999986
  9
$DIMLFAC
 40
1.0
  9
$DIMTOFL
 70
     0
  9
$DIMTVP
 40
0.0
  9
$DIMTIX
 70
     0
  9
$DIMSOXD
 70
     0
  9
$DIMSAH
 70
     0
  9
$DIMBLK1
  1

  9
$DIMBLK2
  1

  9
$DIMSTYLE
  2
STANDARD
  9
$DIMCLRD
 70
     0
  9
$DIMCLRE
 70
     0
  9
$DIMCLRT
 70
     0
  9
$DIMTFAC
 40
1.0
  9
$DIMGAP
 40
0.09
  9
$LUNITS
 70
     2
  9
$LUPREC
 70
     4
  9
$SKETCHINC
 40
0.1
  9
$FILLETRAD
 40
0.0
  9
$AUNITS
 70
     0
  9
$AUPREC
 70
     0
  9
$MENU
  1
.
  9
$ELEVATION
 40
0.0
  9
$PELEVATION
 40
0.0
  9
$THICKNESS
 40
0.0
  9
$LIMCHECK
 70
     0
  9
$BLIPMODE
 70
     0
  9
$CHAMFERA
 40
0.0
  9
$CHAMFERB
 40
0.0
  9
$SKPOLY
 70
     0
  9
$TDCREATE
 40
2458172.5207638889551163
  9
$TDUPDATE
 40
2459089.859375
  9
$TDINDWG
 40
0.1938304977
  9
$TDUSRTIMER
 40
0.1938304977
  9
$USRTIMER
 70
     1
  9
$ANGBASE
 50
0.0
  9
$ANGDIR
 70
     0
  9
$PDMODE
 70
     0
  9
$PDSIZE
 40
0.3125
  9
$PLINEWID
 40
0.0
  9
$COORDS
 70
     1
  9
$SPLFRAME
 70
     0
  9
$SPLINETYPE
 70
     6
  9
$SPLINESEGS
 70
     8
  9
$ATTDIA
 70
     1
  9
$ATTREQ
 70
     1
  9
$HANDLING
 70
     1
  9
$HANDSEED
  5
401A
  9
$SURFTAB1
 70
     6
  9
$SURFTAB2
 70
     6
  9
$SURFTYPE
 70
     6
  9
$SURFU
 70
     6
  9
$SURFV
 70
     6
  9
$UCSNAME
  2

  9
$UCSORG
 10
0.0
 20
0.0
 30
0.0
  9
$UCSXDIR
 10
1.0
 20
0.0
 30
0.0
  9
$UCSYDIR
 10
0.0
 20
1.0
 30
0.0
  9
$PUCSNAME
  2

  9
$PUCSORG
 10
0.0
 20
0.0
 30
0.0
  9
$PUCSXDIR
 10
1.0
 20
0.0
 30
0.0
  9
$PUCSYDIR
 10
0.0
 20
1.0
 30
0.0
  9
$USERI1
 70
     0
  9
$USERI2
 70
     0
  9
$USERI3
 70
     0
  9
$USERI4
 70
     0
  9
$USERI5
 70
     0
  9
$USERR1
 40
0.0
  9
$USERR2
 40
0.0
  9
$USERR3
 40
0.0
  9
$USERR4
 40
0.0
  9
$USERR5
 40
0.0
  9
$WORLDVIEW
 70
     1
  9
$SHADEDGE
 70
     3
  9
$SHADEDIF
 70
    70
  9
$TILEMODE
 70
     1
  9
$MAXACTVP
 70
    64
  9
$PLIMCHECK
 70
     0
  9
$PEXTMIN
 10
1.0000000000000000E+20
 20
1.0000000000000000E+20
 30
1.0000000000000000E+20
  9
$PEXTMAX
 10
-1.0000000000000000E+20
 20
-1.0000000000000000E+20
 30
-1.0000000000000000E+20
  9
$PLIMMIN
 10
0.0
 20
0.0
  9
$PLIMMAX
 10
12.0
 20
9.0
  9
$UNITMODE
 70
     0
  9
$VISRETAIN
 70
     1
  9
$PLINEGEN
 70
     0
  9
$PSLTSCALE
 70
     1
  0
ENDSEC
  0
SECTION
  2
TABLES
  0
TABLE
  2
VPORT
 70
     1
  0
VPORT
  2
*ACTIVE
 70
     0
 10
0.0
 20
0.0
 11
1.0
 21
1.0
 12
0.0
 22
0.0
 13
0.0
 23
0.0
 14
1.0
 24
1.0
 15
0.0
 25
0.0
 16
0.0
 26
0.0
 36
33.044669776751519
 17
256.9863433837891193
 27
24.5201921463012695
 37
0.0
 40
7.9596025413279357
 41
3.314341846758349
 42
50.0
 43
0.0
 44
0.0
 50
0.0
 51
0.0
 71
     0
 72
   100
 73
     1
 74
     1
 75
     0
 76
     0
 77
     0
 78
     0
  0
ENDTAB
  0
TABLE
  2
LTYPE
 70
     2
  0
LTYPE
  2
CONTINUOUS
 70
     0
  3
Solid line
 72
    65
 73
     0
 40
0.0
  0
LTYPE
  2
PHANTOM2
 70
     0
  3
___ _ _ ___ _ _ ___ _ _ ___ _ _
 72
    65
 73
     6
 40
1.25
 49
0.625
 49
-0.125
 49
0.125
 49
-0.125
 49
0.125
 49
-0.125
  0
ENDTAB
  0
TABLE
  2
LAYER
 70
     2
  0
LAYER
  2
0
 70
     0
 62
   255
  6
CONTINUOUS
  0
LAYER
  2
DEFPOINTS
 70
     0
 62
     7
  6
CONTINUOUS
  0
ENDTAB
  0
TABLE
  2
STYLE
 70
     1
  0
STYLE
  2
STANDARD
 70
     0
 40
0.0
 41
0.8
 50
0.0
 71
     0
 42
0.2
  3
txt
  4

  0
ENDTAB
  0
TABLE
  2
VIEW
 70
     0
  0
ENDTAB
  0
TABLE
  2
UCS
 70
     0
  0
ENDTAB
  0
TABLE
  2
APPID
 70
    10
  0
APPID
  2
ACAD
 70
     0
  0
APPID
  2
ACAD_MLEADERVER
 70
     0
  0
APPID
  2
ACAD_EXEMPT_FROM_CAD_STANDARDS
 70
     0
  0
APPID
  2
ACAD_DSTYLE_DIMJAG
 70
     0
  0
APPID
  2
ACAD_DSTYLE_DIMTALN
 70
     0
  0
APPID
  2
ACAD_NAV_VCDISPLAY
 70
     0
  0
APPID
  2
ACAECLAYERSTANDARD
 70
     0
  0
APPID
  2
ACCMTRANSPARENCY
 70
     0
  0
APPID
  2
DCO15
 70
     0
  0
APPID
  2
ACDBATTR
 70
     0
  0
ENDTAB
  0
TABLE
  2
DIMSTYLE
 70
     1
  0
DIMSTYLE
  2
STANDARD
 70
     0
  3

  4

  5

  6

  7

 40
1.0
 41
0.1875
 42
0.0625
 43
0.38
 44
0.125
 45
0.0
 46
0.0
 47
0.01
 48
0.01
140
0.15625
141
0.09
142
0.0
143
25.3999999999999986
144
1.0
145
0.0
146
1.0
147
0.09
 71
     1
 72
     0
 73
     1
 74
     1
 75
     0
 76
     0
 77
     0
 78
     4
170
     0
171
     2
172
     0
173
     0
174
     0
175
     0
176
     0
177
     0
178
     0
  0
ENDTAB
  0
ENDSEC
  0
SECTION
  2
BLOCKS
  0
BLOCK
  8
0
  2
$MODEL_SPACE
 70
     0
 10
0.0
 20
0.0
 30
0.0
  3
$MODEL_SPACE
  1

  0
ENDBLK
  5
21
  8
0
  0
BLOCK
 67
     1
  8
0
  2
$PAPER_SPACE
 70
     0
 10
0.0
 20
0.0
 30
0.0
  3
$PAPER_SPACE
  1

  0
ENDBLK
  5
1D
 67
     1
  8
0
  0
BLOCK
  8
0
  2
_FILLED
 70
     0
 10
0.0
 20
0.0
 30
0.0
  3
_FILLED
  1

  0
SOLID
  5
2836
  8
0
  6
BYBLOCK
 62
     0
 10
0.0
 20
0.0
 30
0.0
 11
-1.0
 21
0.1666666667
 31
0.0
 12
-1.0
 22
-0.1666666667
 32
0.0
 13
-1.0
 23
-0.1666666667
 33
0.0
  0
ENDBLK
  5
2837
  8
0
  6
BYBLOCK
 62
     0
  0
ENDSEC
  0
SECTION
  2
ENTITIES
  0
ATTDEF
  5
829
  8
DEFPOINTS
 10
256.9866139386514874
 20
26.4390423799776784
 30
0.0
 40
0.001
  1
K-37329T-4
  3

  2
MODELNUMBER
 70
     0
1001
ACDBATTR
1070
     0
1070
     1
  0
ATTDEF
  5
82A
  8
DEFPOINTS
 10
256.9866139386514874
 20
26.4373757133110097
 30
0.0
 40
0.001
  1
STRAYT
  3

  2
TRADENAME
 70
     0
1001
ACDBATTR
1070
     0
1070
     1
  0
ATTDEF
  5
82B
  8
DEFPOINTS
 10
256.9866139386514874
 20
26.4357090466443516
 30
0.0
 40
0.001
  1
BATHROOM SINK FAUCET
  3

  2
PRODUCT
 70
     0
1001
ACDBATTR
1070
     0
1070
     1
  0
LINE
  5
3DE6
  8
0
 10
257.8917396652248044
 20
23.1847176176024696
 30
0.0
 11
257.8917396652248044
 21
20.6856157988340215
 31
0.0
  0
LINE
  5
3DE7
  8
0
 10
257.7032296389735961
 20
23.1633677574340204
 30
0.0
 11
256.269471244876172
 21
23.1633677574340204
 31
0.0
  0
ARC
  5
3DE8
  8
0
 10
257.7308275237086264
 20
30.3260736496979391
 30
0.0
 40
7.1627590593509574
 50
269.7792406224909882
 51
271.0726350332270727
  0
ARC
  5
3DE9
  8
0
 10
257.8649704667375886
 20
23.192426864849029
 30
0.0
 40
0.0278571800575311
 50
269.8834423926019213
 51
359.9210142622562216
  0
ARC
  5
3DEA
  8
0
 10
603.7832572246027212
 20
23.8095093096956099
 30
0.0
 40
345.8909801223103955
 50
179.692707367884509
 51
180.1022242290526094
  0
ARC
  5
3DEB
  8
0
 10
178.9252106195212093
 20
26.5359240128400096
 30
0.0
 40
78.9768477680010648
 50
359.3678675489929901
 51
0.5705578859123913
  0
ARC
  5
3DEC
  8
0
 10
257.8749886334505277
 20
27.3228260009090285
 30
0.0
 40
0.0231584167568663
 50
358.8753154595963224
 51
89.6955032767207143
  0
LINE
  5
3DED
  8
0
 10
257.1240231298248773
 20
28.35476771233402
 30
0.0
 11
257.1240231298248773
 21
27.469428887131091
 31
0.0
  0
LINE
  5
3DEE
  8
0
 10
257.0846530511249171
 20
28.3941377911340211
 30
0.0
 11
256.8880478327247943
 21
28.3941377911340211
 31
0.0
  0
LINE
  5
3DEF
  8
0
 10
257.0846530511249171
 20
27.4300588084340191
 30
0.0
 11
256.8880478327247943
 21
27.4300588084340191
 31
0.0
  0
LINE
  5
3DF0
  8
0
 10
257.0551254920247857
 20
27.3568503763706516
 30
0.0
 11
257.0551254920247857
 21
27.4300588084340191
 31
0.0
  0
ARC
  5
3DF1
  8
0
 10
257.0842365723547118
 20
27.4698453659042308
 30
0.0
 40
0.0397887372241931
 50
270.599740359105283
 51
359.4002596366204898
  0
ARC
  5
3DF2
  8
0
 10
257.0794158638697127
 20
28.349530525192101
 30
0.0
 40
0.044913653883421
 50
6.6962468723706943
 51
83.3037529820852427
  0
LINE
  5
3DF3
  8
0
 10
256.0809612186249069
 20
23.1847176176023098
 30
0.0
 11
256.0809612186249069
 21
20.6856157988340215
 31
0.0
  0
ARC
  5
3DF4
  8
0
 10
256.241873360141085
 20
30.3260736496979391
 30
0.0
 40
7.1627590593509574
 50
268.9273649667729842
 51
270.2207593775090118
  0
ARC
  5
3DF5
  8
0
 10
256.1077304171121227
 20
23.192426864849029
 30
0.0
 40
0.0278571800575311
 50
180.0789857377438068
 51
270.1165576073980787
  0
ARC
  5
3DF6
  8
0
 10
-89.8105563407530241
 20
23.8095093096956099
 30
0.0
 40
345.8909801223103955
 50
359.8977757709470779
 51
0.3072926321154827
  0
ARC
  5
3DF7
  8
0
 10
335.0474902643284736
 20
26.5359240128400096
 30
0.0
 40
78.9768477680010648
 50
179.4294421140874078
 51
180.6321324510068109
  0
ARC
  5
3DF8
  8
0
 10
256.0977122503991836
 20
27.3228260009090285
 30
0.0
 40
0.0231584167568663
 50
90.304496723279243
 51
181.1246845404035923
  0
LINE
  5
3DF9
  8
0
 10
256.8486777540248909
 20
28.35476771233402
 30
0.0
 11
256.8486777540248909
 21
27.469428887131091
 31
0.0
  0
LINE
  5
3DFA
  8
0
 10
256.9175753918249256
 20
27.3568503763706516
 30
0.0
 11
256.9175753918249256
 21
27.4300588084340191
 31
0.0
  0
ARC
  5
3DFB
  8
0
 10
256.8884643114951132
 20
27.4698453659042308
 30
0.0
 40
0.0397887372241931
 50
180.5997403633791976
 51
269.4002596408946033
  0
ARC
  5
3DFC
  8
0
 10
256.8932850199801123
 20
28.349530525192101
 30
0.0
 40
0.044913653883421
 50
96.6962470179147431
 51
173.3037531276293066
  0
LINE
  5
3DFD
  8
0
 10
257.852369586524901
 20
20.6462457201340186
 30
0.0
 11
256.1203312973248103
 21
20.6462457201340186
 31
0.0
  0
ARC
  5
3DFE
  8
0
 10
257.852369586524901
 20
20.6856157988340499
 30
0.0
 40
0.0393700787000313
 50
270.0000000000163141
 51
359.9999999999560032
  0
ARC
  5
3DFF
  8
0
 10
256.9863504419249125
 20
-8.7771458487764953
 30
0.0
 40
36.1340616760206501
 50
88.5905983718808869
 51
91.4094016281191273
  0
ARC
  5
3E00
  8
0
 10
256.9862277480600028
 20
18.0430496068707598
 30
0.0
 40
9.3137287753333524
 50
88.6435801627441435
 51
91.3564185306887566
  0
ARC
  5
3E01
  8
0
 10
256.9862280780192805
 20
46.981921266770982
 30
0.0
 40
19.6289909467369696
 50
269.3564407450052727
 51
270.6435579484294749
  0
ARC
  5
3E02
  8
0
 10
256.1203312973248103
 20
20.6856157988340499
 30
0.0
 40
0.0393700787000313
 50
180.0000000000439115
 51
269.9999999999837996
  0
ENDSEC
  0
EOF
