  0
SECTION
  2
HEADER
  9
$ACADVER
  1
AC1009
  9
$INSBASE
 10
257.2274865818276908
 20
26.1586047726129785
 30
0.0
  9
$EXTMIN
 10
256.3117786362302013
 20
26.1539076696311916
 30
0.0
  9
$EXTMAX
 10
258.1431945274252939
 20
38.7783290008129882
 30
0.0
  9
$LIMMIN
 10
0.0
 20
0.0
  9
$LIMMAX
 10
11.6929133858000007
 20
8.2677165353999982
  9
$ORTHOMODE
 70
     0
  9
$REGENMODE
 70
     1
  9
$FILLMODE
 70
     1
  9
$QTEXTMODE
 70
     0
  9
$MIRRTEXT
 70
     0
  9
$DRAGMODE
 70
     2
  9
$LTSCALE
 40
0.6431102362
  9
$OSMODE
 70
  3839
  9
$ATTMODE
 70
     1
  9
$TEXTSIZE
 40
0.2
  9
$TRACEWID
 40
0.05
  9
$TEXTSTYLE
  7
STANDARD
  9
$CLAYER
  8
0
  9
$CELTYPE
  6
BYLAYER
  9
$CECOLOR
 62
   256
  9
$DIMSCALE
 40
1.0
  9
$DIMASZ
 40
0.1875
  9
$DIMEXO
 40
0.0625
  9
$DIMDLI
 40
0.4443307087
  9
$DIMRND
 40
0.0
  9
$DIMDLE
 40
0.0
  9
$DIMEXE
 40
0.125
  9
$DIMTP
 40
0.01
  9
$DIMTM
 40
0.01
  9
$DIMTXT
 40
1.0
  9
$DIMCEN
 40
0.1052362205
  9
$DIMTSZ
 40
0.0
  9
$DIMTOL
 70
     1
  9
$DIMLIM
 70
     0
  9
$DIMTIH
 70
     0
  9
$DIMTOH
 70
     1
  9
$DIMSE1
 70
     0
  9
$DIMSE2
 70
     0
  9
$DIMTAD
 70
     0
  9
$DIMZIN
 70
     0
  9
$DIMBLK
  1

  9
$DIMASO
 70
     1
  9
$DIMSHO
 70
     1
  9
$DIMPOST
  1
\X
  9
$DIMAPOST
  1

  9
$DIMALT
 70
     1
  9
$DIMALTD
 70
     2
  9
$DIMALTF
 40
25.3999999999999986
  9
$DIMLFAC
 40
1.0
  9
$DIMTOFL
 70
     0
  9
$DIMTVP
 40
0.0
  9
$DIMTIX
 70
     0
  9
$DIMSOXD
 70
     0
  9
$DIMSAH
 70
     0
  9
$DIMBLK1
  1

  9
$DIMBLK2
  1

  9
$DIMSTYLE
  2
STANDARD
  9
$DIMCLRD
 70
     0
  9
$DIMCLRE
 70
     0
  9
$DIMCLRT
 70
     0
  9
$DIMTFAC
 40
1.0
  9
$DIMGAP
 40
0.09
  9
$LUNITS
 70
     2
  9
$LUPREC
 70
     4
  9
$SKETCHINC
 40
0.1
  9
$FILLETRAD
 40
0.0
  9
$AUNITS
 70
     0
  9
$AUPREC
 70
     0
  9
$MENU
  1
.
  9
$ELEVATION
 40
0.0
  9
$PELEVATION
 40
0.0
  9
$THICKNESS
 40
0.0
  9
$LIMCHECK
 70
     0
  9
$BLIPMODE
 70
     0
  9
$CHAMFERA
 40
0.0
  9
$CHAMFERB
 40
0.0
  9
$SKPOLY
 70
     0
  9
$TDCREATE
 40
2458172.5207638889551163
  9
$TDUPDATE
 40
2459089.8599074077792466
  9
$TDINDWG
 40
0.1967008681
  9
$TDUSRTIMER
 40
0.1967008681
  9
$USRTIMER
 70
     1
  9
$ANGBASE
 50
0.0
  9
$ANGDIR
 70
     0
  9
$PDMODE
 70
     0
  9
$PDSIZE
 40
0.3125
  9
$PLINEWID
 40
0.0
  9
$COORDS
 70
     1
  9
$SPLFRAME
 70
     0
  9
$SPLINETYPE
 70
     6
  9
$SPLINESEGS
 70
     8
  9
$ATTDIA
 70
     1
  9
$ATTREQ
 70
     1
  9
$HANDLING
 70
     1
  9
$HANDSEED
  5
4121
  9
$SURFTAB1
 70
     6
  9
$SURFTAB2
 70
     6
  9
$SURFTYPE
 70
     6
  9
$SURFU
 70
     6
  9
$SURFV
 70
     6
  9
$UCSNAME
  2

  9
$UCSORG
 10
0.0
 20
0.0
 30
0.0
  9
$UCSXDIR
 10
1.0
 20
0.0
 30
0.0
  9
$UCSYDIR
 10
0.0
 20
1.0
 30
0.0
  9
$PUCSNAME
  2

  9
$PUCSORG
 10
0.0
 20
0.0
 30
0.0
  9
$PUCSXDIR
 10
1.0
 20
0.0
 30
0.0
  9
$PUCSYDIR
 10
0.0
 20
1.0
 30
0.0
  9
$USERI1
 70
     0
  9
$USERI2
 70
     0
  9
$USERI3
 70
     0
  9
$USERI4
 70
     0
  9
$USERI5
 70
     0
  9
$USERR1
 40
0.0
  9
$USERR2
 40
0.0
  9
$USERR3
 40
0.0
  9
$USERR4
 40
0.0
  9
$USERR5
 40
0.0
  9
$WORLDVIEW
 70
     1
  9
$SHADEDGE
 70
     3
  9
$SHADEDIF
 70
    70
  9
$TILEMODE
 70
     1
  9
$MAXACTVP
 70
    64
  9
$PLIMCHECK
 70
     0
  9
$PEXTMIN
 10
1.0000000000000000E+20
 20
1.0000000000000000E+20
 30
1.0000000000000000E+20
  9
$PEXTMAX
 10
-1.0000000000000000E+20
 20
-1.0000000000000000E+20
 30
-1.0000000000000000E+20
  9
$PLIMMIN
 10
0.0
 20
0.0
  9
$PLIMMAX
 10
12.0
 20
9.0
  9
$UNITMODE
 70
     0
  9
$VISRETAIN
 70
     1
  9
$PLINEGEN
 70
     0
  9
$PSLTSCALE
 70
     1
  0
ENDSEC
  0
SECTION
  2
TABLES
  0
TABLE
  2
VPORT
 70
     1
  0
VPORT
  2
*ACTIVE
 70
     0
 10
0.0
 20
0.0
 11
1.0
 21
1.0
 12
0.0
 22
0.0
 13
0.0
 23
0.0
 14
1.0
 24
1.0
 15
0.0
 25
0.0
 16
0.0
 26
0.0
 36
52.8911156380141207
 17
257.2274780273438068
 27
32.4577941363292695
 37
0.0
 40
12.7400957942752697
 41
3.314341846758349
 42
50.0
 43
0.0
 44
0.0
 50
0.0
 51
0.0
 71
     0
 72
   100
 73
     1
 74
     1
 75
     0
 76
     0
 77
     0
 78
     0
  0
ENDTAB
  0
TABLE
  2
LTYPE
 70
     2
  0
LTYPE
  2
CONTINUOUS
 70
     0
  3
Solid line
 72
    65
 73
     0
 40
0.0
  0
LTYPE
  2
PHANTOM2
 70
     0
  3
___ _ _ ___ _ _ ___ _ _ ___ _ _
 72
    65
 73
     6
 40
1.25
 49
0.625
 49
-0.125
 49
0.125
 49
-0.125
 49
0.125
 49
-0.125
  0
ENDTAB
  0
TABLE
  2
LAYER
 70
     2
  0
LAYER
  2
0
 70
     0
 62
   255
  6
CONTINUOUS
  0
LAYER
  2
DEFPOINTS
 70
     0
 62
     7
  6
CONTINUOUS
  0
ENDTAB
  0
TABLE
  2
STYLE
 70
     1
  0
STYLE
  2
STANDARD
 70
     0
 40
0.0
 41
0.8
 50
0.0
 71
     0
 42
0.2
  3
txt
  4

  0
ENDTAB
  0
TABLE
  2
VIEW
 70
     0
  0
ENDTAB
  0
TABLE
  2
UCS
 70
     0
  0
ENDTAB
  0
TABLE
  2
APPID
 70
    10
  0
APPID
  2
ACAD
 70
     0
  0
APPID
  2
ACAD_MLEADERVER
 70
     0
  0
APPID
  2
ACAD_EXEMPT_FROM_CAD_STANDARDS
 70
     0
  0
APPID
  2
ACAD_DSTYLE_DIMJAG
 70
     0
  0
APPID
  2
ACAD_DSTYLE_DIMTALN
 70
     0
  0
APPID
  2
ACAD_NAV_VCDISPLAY
 70
     0
  0
APPID
  2
ACAECLAYERSTANDARD
 70
     0
  0
APPID
  2
ACCMTRANSPARENCY
 70
     0
  0
APPID
  2
DCO15
 70
     0
  0
APPID
  2
ACDBATTR
 70
     0
  0
ENDTAB
  0
TABLE
  2
DIMSTYLE
 70
     1
  0
DIMSTYLE
  2
STANDARD
 70
     0
  3

  4

  5

  6

  7

 40
1.0
 41
0.1875
 42
0.0625
 43
0.38
 44
0.125
 45
0.0
 46
0.0
 47
0.01
 48
0.01
140
0.15625
141
0.09
142
0.0
143
25.3999999999999986
144
1.0
145
0.0
146
1.0
147
0.09
 71
     1
 72
     0
 73
     1
 74
     1
 75
     0
 76
     0
 77
     0
 78
     4
170
     0
171
     2
172
     0
173
     0
174
     0
175
     0
176
     0
177
     0
178
     0
  0
ENDTAB
  0
ENDSEC
  0
SECTION
  2
BLOCKS
  0
BLOCK
  8
0
  2
$MODEL_SPACE
 70
     0
 10
0.0
 20
0.0
 30
0.0
  3
$MODEL_SPACE
  1

  0
ENDBLK
  5
21
  8
0
  0
BLOCK
 67
     1
  8
0
  2
$PAPER_SPACE
 70
     0
 10
0.0
 20
0.0
 30
0.0
  3
$PAPER_SPACE
  1

  0
ENDBLK
  5
1D
 67
     1
  8
0
  0
BLOCK
  8
0
  2
_FILLED
 70
     0
 10
0.0
 20
0.0
 30
0.0
  3
_FILLED
  1

  0
SOLID
  5
2836
  8
0
  6
BYBLOCK
 62
     0
 10
0.0
 20
0.0
 30
0.0
 11
-1.0
 21
0.1666666667
 31
0.0
 12
-1.0
 22
-0.1666666667
 32
0.0
 13
-1.0
 23
-0.1666666667
 33
0.0
  0
ENDBLK
  5
2837
  8
0
  6
BYBLOCK
 62
     0
  0
ENDSEC
  0
SECTION
  2
ENTITIES
  0
ATTDEF
  5
829
  8
DEFPOINTS
 10
257.2275454285136789
 20
26.1572410029645184
 30
0.0
 40
0.001
  1
K-37329T-4
  3

  2
MODELNUMBER
 70
     0
1001
ACDBATTR
1070
     0
1070
     1
  0
ATTDEF
  5
82A
  8
DEFPOINTS
 10
257.2275454285136789
 20
26.1555743362978497
 30
0.0
 40
0.001
  1
STRAYT
  3

  2
TRADENAME
 70
     0
1001
ACDBATTR
1070
     0
1070
     1
  0
ATTDEF
  5
82B
  8
DEFPOINTS
 10
257.2275454285136789
 20
26.1539076696311916
 30
0.0
 40
0.001
  1
BATHROOM SINK FAUCET
  3

  2
PRODUCT
 70
     0
1001
ACDBATTR
1070
     0
1070
     1
  0
LINE
  5
3E22
  8
0
 10
258.1328758051276964
 20
37.473565402512989
 30
0.0
 11
258.1328758051276964
 21
26.1782878278200393
 31
0.0
  0
LINE
  5
3E23
  8
0
 10
258.1431945274250097
 20
37.5798646151129816
 30
0.0
 11
256.3117786362302013
 21
37.5798646151129816
 31
0.0
  0
LINE
  5
3E24
  8
0
 10
258.11319076582771
 20
37.4932504419129771
 30
0.0
 11
256.3417823978277283
 21
37.4932504419129771
 31
0.0
  0
ARC
  5
3E25
  8
0
 10
258.1151871939953253
 20
37.4755618307705589
 30
0.0
 40
0.0178009182229419
 50
353.5605524064853853
 51
96.4394473021773848
  0
LINE
  5
3E26
  8
0
 10
257.9360254114276927
 20
35.607423670212988
 30
0.0
 11
256.5189477522284278
 21
35.607423670212988
 31
0.0
  0
LINE
  5
3E27
  8
0
 10
257.9360254114276927
 20
36.532620520612987
 30
0.0
 11
256.5189477522220045
 21
36.532620520612987
 31
0.0
  0
ARC
  5
3E28
  8
0
 10
257.9359883003335199
 20
36.3356805328059309
 30
0.0
 40
0.1969399913036437
 50
1.3228303922541931
 51
89.9892032641382968
  0
ARC
  5
3E29
  8
0
 10
257.9356590235411772
 20
35.8051586025176931
 30
0.0
 40
0.1977352717489433
 50
270.1061646278330954
 51
355.8498789699390272
  0
LINE
  5
3E2A
  8
0
 10
258.0344506083276883
 20
37.4932504419129771
 30
0.0
 11
258.0344506083276883
 21
37.5798646151129816
 31
0.0
  0
ARC
  5
3E2B
  8
0
 10
258.1133554617604204
 20
38.7420088128675104
 30
0.0
 40
0.0196850392668216
 50
0.4999998446670917
 51
87.8487114879520874
  0
ARC
  5
3E2C
  8
0
 10
264.1037443573320047
 20
38.7421793349815573
 30
0.0
 40
5.9707046058504014
 50
179.9999879085956991
 51
181.000012023660787
  0
ARC
  5
3E2D
  8
0
 10
257.9350861019968875
 20
38.6381788562399819
 30
0.0
 40
0.1988631431540385
 50
272.3095012273901148
 51
359.9412421940764943
  0
LINE
  5
3E2E
  8
0
 10
256.3220973585276852
 20
37.473565402512989
 30
0.0
 11
256.3220973585276852
 21
26.1782878278200393
 31
0.0
  0
ARC
  5
3E2F
  8
0
 10
256.3394098763855027
 20
37.475937924043123
 30
0.0
 40
0.0174743278265097
 50
82.1967466471571839
 51
187.8032536437540898
  0
ARC
  5
3E30
  8
0
 10
256.5189848633219754
 20
36.3356805328059309
 30
0.0
 40
0.1969399913036437
 50
90.0107967358617032
 51
178.6771696077458103
  0
ARC
  5
3E31
  8
0
 10
256.5193141401142043
 20
35.8051586025176931
 30
0.0
 40
0.1977352717489433
 50
184.1501210300610012
 51
269.8938353721667909
  0
LINE
  5
3E32
  8
0
 10
256.4205225553276932
 20
37.4932504419129771
 30
0.0
 11
256.4205225553276932
 21
37.5798646151129816
 31
0.0
  0
ARC
  5
3E33
  8
0
 10
256.3416177018950179
 20
38.7420088128675104
 30
0.0
 40
0.0196850392668216
 50
92.1512885120479126
 51
179.5000001553329128
  0
ARC
  5
3E34
  8
0
 10
250.3512288063234053
 20
38.7421793349815573
 30
0.0
 40
5.9707046058504014
 50
358.9999879763391277
 51
0.0000120914043037
  0
ARC
  5
3E35
  8
0
 10
256.5198870616584941
 20
38.6381788562399819
 30
0.0
 40
0.1988631431540385
 50
180.058757805923392
 51
267.6904987726098852
  0
ARC
  5
3E36
  8
0
 10
-778.2050474476202453
 20
28.9115639867805392
 30
0.0
 40
1036.3844933616819617
 50
0.4792264218762857
 51
0.5374046940133389
  0
ARC
  5
3E37
  8
0
 10
1292.6600207217370553
 20
28.9115639857736006
 30
0.0
 40
1036.3844934721469144
 50
179.4625953059882875
 51
179.52077357811919
  0
ARC
  5
3E38
  8
0
 10
257.2274865818276908
 20
62.070450497303149
 30
0.0
 40
23.6418061733901688
 50
268.2654506297961916
 51
271.7345493702038084
  0
ARC
  5
3E39
  8
0
 10
257.2274865818276908
 20
15.1628103517230493
 30
0.0
 40
23.6155186490899283
 50
87.8484136558208064
 51
92.1515863441792078
  0
ARC
  5
3E3A
  8
0
 10
258.1131585916821791
 20
26.1783031408801996
 30
0.0
 40
0.019717219391844
 50
272.5056363204761283
 51
359.9555021532664227
  0
LINE
  5
3E3B
  8
0
 10
258.1140205824914915
 20
26.1586047726129785
 30
0.0
 11
256.34095258116389
 21
26.1586047726129785
 31
0.0
  0
ARC
  5
3E3C
  8
0
 10
256.3418145719732024
 20
26.1783031408801996
 30
0.0
 40
0.019717219391844
 50
180.0444978467336057
 51
267.4943636795238717
  0
ENDSEC
  0
EOF
