  0
SECTION
  2
HEADER
  9
$ACADVER
  1
AC1009
  9
$INSBASE
 10
3584.733520939833852
 20
228.1939188734172888
 30
0.0
  9
$EXTMIN
 10
3579.8234851228689877
 20
228.1753093974053002
 30
-0.000000000000013
  9
$EXTMAX
 10
3585.8420140298549086
 20
235.1725704348471027
 30
0.0000000000000023
  9
$LIMMIN
 10
0.0
 20
0.0
  9
$LIMMAX
 10
11.6929133858000007
 20
8.2677165353999982
  9
$ORTHOMODE
 70
     0
  9
$REGENMODE
 70
     1
  9
$FILLMODE
 70
     1
  9
$QTEXTMODE
 70
     0
  9
$MIRRTEXT
 70
     0
  9
$DRAGMODE
 70
     2
  9
$LTSCALE
 40
0.6431102362
  9
$OSMODE
 70
  4095
  9
$ATTMODE
 70
     1
  9
$TEXTSIZE
 40
0.2
  9
$TRACEWID
 40
0.05
  9
$TEXTSTYLE
  7
STANDARD
  9
$CLAYER
  8
0
  9
$CELTYPE
  6
BYLAYER
  9
$CECOLOR
 62
   256
  9
$DIMSCALE
 40
1.0
  9
$DIMASZ
 40
0.1875
  9
$DIMEXO
 40
0.0625
  9
$DIMDLI
 40
0.4443307087
  9
$DIMRND
 40
0.0
  9
$DIMDLE
 40
0.0
  9
$DIMEXE
 40
0.125
  9
$DIMTP
 40
0.01
  9
$DIMTM
 40
0.01
  9
$DIMTXT
 40
2.0
  9
$DIMCEN
 40
0.1052362205
  9
$DIMTSZ
 40
0.0
  9
$DIMTOL
 70
     1
  9
$DIMLIM
 70
     0
  9
$DIMTIH
 70
     1
  9
$DIMTOH
 70
     1
  9
$DIMSE1
 70
     0
  9
$DIMSE2
 70
     0
  9
$DIMTAD
 70
     0
  9
$DIMZIN
 70
     0
  9
$DIMBLK
  1

  9
$DIMASO
 70
     1
  9
$DIMSHO
 70
     1
  9
$DIMPOST
  1
\X
  9
$DIMAPOST
  1

  9
$DIMALT
 70
     1
  9
$DIMALTD
 70
     2
  9
$DIMALTF
 40
25.3999999999999986
  9
$DIMLFAC
 40
1.0
  9
$DIMTOFL
 70
     0
  9
$DIMTVP
 40
0.0
  9
$DIMTIX
 70
     0
  9
$DIMSOXD
 70
     0
  9
$DIMSAH
 70
     0
  9
$DIMBLK1
  1

  9
$DIMBLK2
  1

  9
$DIMSTYLE
  2
STANDARD
  9
$DIMCLRD
 70
     0
  9
$DIMCLRE
 70
     0
  9
$DIMCLRT
 70
     0
  9
$DIMTFAC
 40
1.0
  9
$DIMGAP
 40
0.09
  9
$LUNITS
 70
     2
  9
$LUPREC
 70
     4
  9
$SKETCHINC
 40
0.1
  9
$FILLETRAD
 40
0.0
  9
$AUNITS
 70
     0
  9
$AUPREC
 70
     0
  9
$MENU
  1
.
  9
$ELEVATION
 40
0.0
  9
$PELEVATION
 40
0.0
  9
$THICKNESS
 40
0.0
  9
$LIMCHECK
 70
     0
  9
$BLIPMODE
 70
     0
  9
$CHAMFERA
 40
0.0
  9
$CHAMFERB
 40
0.0
  9
$SKPOLY
 70
     0
  9
$TDCREATE
 40
2458060.468368056230247
  9
$TDUPDATE
 40
2459080.8373379628174007
  9
$TDINDWG
 40
0.5499491898
  9
$TDUSRTIMER
 40
0.5499491898
  9
$USRTIMER
 70
     1
  9
$ANGBASE
 50
0.0
  9
$ANGDIR
 70
     0
  9
$PDMODE
 70
     0
  9
$PDSIZE
 40
0.3125
  9
$PLINEWID
 40
0.0
  9
$COORDS
 70
     1
  9
$SPLFRAME
 70
     0
  9
$SPLINETYPE
 70
     6
  9
$SPLINESEGS
 70
     8
  9
$ATTDIA
 70
     1
  9
$ATTREQ
 70
     1
  9
$HANDLING
 70
     1
  9
$HANDSEED
  5
B1D7
  9
$SURFTAB1
 70
     6
  9
$SURFTAB2
 70
     6
  9
$SURFTYPE
 70
     6
  9
$SURFU
 70
     6
  9
$SURFV
 70
     6
  9
$UCSNAME
  2

  9
$UCSORG
 10
0.0
 20
0.0
 30
0.0
  9
$UCSXDIR
 10
1.0
 20
0.0
 30
0.0
  9
$UCSYDIR
 10
0.0
 20
1.0
 30
0.0
  9
$PUCSNAME
  2

  9
$PUCSORG
 10
0.0
 20
0.0
 30
0.0
  9
$PUCSXDIR
 10
1.0
 20
0.0
 30
0.0
  9
$PUCSYDIR
 10
0.0
 20
1.0
 30
0.0
  9
$USERI1
 70
     0
  9
$USERI2
 70
     0
  9
$USERI3
 70
     0
  9
$USERI4
 70
     0
  9
$USERI5
 70
     0
  9
$USERR1
 40
0.0
  9
$USERR2
 40
0.0
  9
$USERR3
 40
0.0
  9
$USERR4
 40
0.0
  9
$USERR5
 40
0.0
  9
$WORLDVIEW
 70
     1
  9
$SHADEDGE
 70
     3
  9
$SHADEDIF
 70
    70
  9
$TILEMODE
 70
     1
  9
$MAXACTVP
 70
    64
  9
$PLIMCHECK
 70
     0
  9
$PEXTMIN
 10
1.0000000000000000E+20
 20
1.0000000000000000E+20
 30
1.0000000000000000E+20
  9
$PEXTMAX
 10
-1.0000000000000000E+20
 20
-1.0000000000000000E+20
 30
-1.0000000000000000E+20
  9
$PLIMMIN
 10
0.0
 20
0.0
  9
$PLIMMAX
 10
12.0
 20
9.0
  9
$UNITMODE
 70
     0
  9
$VISRETAIN
 70
     1
  9
$PLINEGEN
 70
     0
  9
$PSLTSCALE
 70
     1
  0
ENDSEC
  0
SECTION
  2
TABLES
  0
TABLE
  2
VPORT
 70
     1
  0
VPORT
  2
*ACTIVE
 70
     0
 10
0.0
 20
0.0
 11
1.0
 21
1.0
 12
279.1396343419864934
 22
36.4124283402384208
 13
0.0
 23
0.0
 14
1.0
 24
1.0
 15
0.0
 25
0.0
 16
0.0
 26
0.0
 36
96.5995694866707311
 17
3303.693115234375
 27
195.2615115758877096
 37
0.0
 40
7.055490671595293
 41
2.6486111111111108
 42
50.0
 43
0.0
 44
0.0
 50
0.0
 51
0.0
 71
     0
 72
   100
 73
     1
 74
     1
 75
     0
 76
     0
 77
     0
 78
     0
  0
ENDTAB
  0
TABLE
  2
LTYPE
 70
     2
  0
LTYPE
  2
CONTINUOUS
 70
     0
  3
Solid line
 72
    65
 73
     0
 40
0.0
  0
LTYPE
  2
PHANTOM2
 70
     0
  3
___ _ _ ___ _ _ ___ _ _ ___ _ _
 72
    65
 73
     6
 40
1.25
 49
0.625
 49
-0.125
 49
0.125
 49
-0.125
 49
0.125
 49
-0.125
  0
ENDTAB
  0
TABLE
  2
LAYER
 70
     2
  0
LAYER
  2
0
 70
     0
 62
   255
  6
CONTINUOUS
  0
LAYER
  2
DEFPOINTS
 70
     0
 62
     7
  6
CONTINUOUS
  0
ENDTAB
  0
TABLE
  2
STYLE
 70
     1
  0
STYLE
  2
STANDARD
 70
     0
 40
0.0
 41
0.8
 50
0.0
 71
     0
 42
0.2
  3
txt
  4

  0
ENDTAB
  0
TABLE
  2
VIEW
 70
     0
  0
ENDTAB
  0
TABLE
  2
UCS
 70
     0
  0
ENDTAB
  0
TABLE
  2
APPID
 70
     9
  0
APPID
  2
ACAD
 70
     0
  0
APPID
  2
ACAD_MLEADERVER
 70
     0
  0
APPID
  2
ACAD_EXEMPT_FROM_CAD_STANDARDS
 70
     0
  0
APPID
  2
ACAD_NAV_VCDISPLAY
 70
     0
  0
APPID
  2
ACAECLAYERSTANDARD
 70
     0
  0
APPID
  2
ACCMTRANSPARENCY
 70
     0
  0
APPID
  2
ACAD_DSTYLE_DIMJAG
 70
     0
  0
APPID
  2
ACAD_DSTYLE_DIMTALN
 70
     0
  0
APPID
  2
ACDBATTR
 70
     0
  0
ENDTAB
  0
TABLE
  2
DIMSTYLE
 70
     1
  0
DIMSTYLE
  2
STANDARD
 70
     0
  3

  4

  5

  6

  7

 40
1.0
 41
0.1875
 42
0.0625
 43
0.38
 44
0.125
 45
0.0
 46
0.0
 47
0.01
 48
0.01
140
0.15625
141
0.09
142
0.0
143
25.3999999999999986
144
1.0
145
0.0
146
1.0
147
0.09
 71
     1
 72
     0
 73
     1
 74
     1
 75
     0
 76
     0
 77
     0
 78
     4
170
     0
171
     2
172
     0
173
     0
174
     0
175
     0
176
     0
177
     0
178
     0
  0
ENDTAB
  0
ENDSEC
  0
SECTION
  2
BLOCKS
  0
BLOCK
  8
0
  2
$MODEL_SPACE
 70
     0
 10
0.0
 20
0.0
 30
0.0
  3
$MODEL_SPACE
  1

  0
ENDBLK
  5
21
  8
0
  0
BLOCK
 67
     1
  8
0
  2
$PAPER_SPACE
 70
     0
 10
0.0
 20
0.0
 30
0.0
  3
$PAPER_SPACE
  1

  0
ENDBLK
  5
1D
 67
     1
  8
0
  0
ENDSEC
  0
SECTION
  2
ENTITIES
  0
ATTDEF
  5
A614
  8
DEFPOINTS
 10
3584.7301162022981771
 20
228.1920436287556981
 30
0.0
 40
0.001
  1
K-37327IN-4ND
  3

  2
MODELNUMBER
 70
     0
1001
ACDBATTR
1070
     0
1070
     1
  0
ATTDEF
  5
A615
  8
DEFPOINTS
 10
3584.7301162022981771
 20
228.1903769620890898
 30
0.0
 40
0.001
  1
STRAYT
  3

  2
TRADENAME
 70
     0
1001
ACDBATTR
1070
     0
1070
     1
  0
ATTDEF
  5
A616
  8
DEFPOINTS
 10
3584.7301162022981771
 20
228.1887102954223963
 30
0.0
 40
0.001
  1
BATHROOM SINK FAUCET
  3

  2
PRODUCT
 70
     0
1001
ACDBATTR
1070
     0
1070
     1
  0
LINE
  5
ABF7
  8
0
 10
3580.0484815696840997
 20
232.0325015506172122
 30
0.0
 11
3580.0484815696840997
 21
232.8789582435171894
 31
0.0
  0
LINE
  5
ABF8
  8
0
 10
3583.8476941681838071
 20
228.1939188734172888
 30
0.0
 11
3585.619347711483897
 21
228.1939188734172888
 31
0.0
  0
LINE
  5
ABF9
  8
0
 10
3581.4657856016551705
 20
235.1445202064820137
 30
0.0
 11
3581.4631737371091731
 21
234.8452301654021142
 31
0.0
  0
LINE
  5
ABFD
  8
0
 10
3583.2177729082841324
 20
231.9931314719171951
 30
0.0
 11
3580.0878516484840475
 21
231.9931314719171951
 31
0.0
  0
LINE
  5
ABFE
  8
0
 10
3583.8164368103830384
 20
234.2238010392792091
 30
0.0
 11
3583.8164368103830384
 21
233.9655724167172082
 31
0.0
  0
LINE
  5
ABFF
  8
0
 10
3583.8280091287838331
 20
228.2136039128172058
 30
0.0
 11
3583.8280091287838331
 21
231.3828952514172101
 31
0.0
  0
LINE
  5
AC00
  8
0
 10
3583.8280091287838331
 20
233.5285645427171914
 30
0.0
 11
3583.8280091287838331
 21
233.8592732041171871
 31
0.0
  0
LINE
  5
AC01
  8
0
 10
3583.9264343255831591
 20
233.9655724167172082
 30
0.0
 11
3583.9264343255831591
 21
233.8789582435171894
 31
0.0
  0
LINE
  5
AC02
  8
0
 10
3580.0878516484840475
 20
232.9183283223171941
 30
0.0
 11
3583.2177729082841324
 21
232.9183283223171941
 31
0.0
  0
LINE
  5
AC03
  8
0
 10
3585.5406075539840458
 20
233.9576984010172964
 30
0.0
 11
3585.5406075539840458
 21
233.8789582435171894
 31
0.0
  0
LINE
  5
AC04
  8
0
 10
3585.6390327507838265
 20
233.8592732041171871
 30
0.0
 11
3585.6390327507838265
 21
228.2136039128172058
 31
0.0
  0
LINE
  5
AC05
  8
0
 10
3583.8476941681838071
 20
233.8789582435171894
 30
0.0
 11
3585.619347711483897
 21
233.8789582435171894
 31
0.0
  0
LINE
  5
AC06
  8
0
 10
3583.8164368103830384
 20
233.9655724167172082
 30
0.0
 11
3584.2217099161839542
 21
233.9655724167172082
 31
0.0
  0
LINE
  5
AC07
  8
0
 10
3585.6506238428851248
 20
235.1445235338294992
 30
0.0
 11
3585.6567894637769314
 21
234.4380133617129047
 31
0.0
  0
LINE
  5
AC0D
  8
0
 10
3583.2258857241467922
 20
234.8143521255173027
 30
0.0
 11
3581.4937601661140434
 21
234.8143521255173027
 31
0.0
  0
LINE
  5
AC10
  8
0
 10
3585.6309389181960796
 20
235.1640368025171881
 30
0.0
 11
3581.4854919680460625
 21
235.1640368025171881
 31
0.0
  0
ARC
  5
AC11
  8
0
 10
3584.2217099161839542
 20
236.3813809734172082
 30
0.0
 40
2.4158085566
 50
270.0
 51
306.4440088835261804
  0
ARC
  5
AC12
  8
0
 10
3584.7807650342838315
 20
233.9576984010172112
 30
0.0
 40
0.7598425197000001
 50
0.0000000000048853
 51
27.2141042819018892
  0
ARC
  5
AC13
  8
0
 10
3583.2177729082841324
 20
233.5285645427171914
 30
0.0
 40
0.6102362205
 50
270.0
 51
0.0
  0
ARC
  5
AC14
  8
0
 10
3583.2177729082841324
 20
231.3828952514172101
 30
0.0
 40
0.6102362205
 50
0.0
 51
90.0
  0
ARC
  5
AC1B
  8
0
 10
3580.0878516484840475
 20
232.8789582435171894
 30
0.0
 40
0.0393700787
 50
90.0
 51
180.0
  0
ARC
  5
AC1C
  8
0
 10
3580.0878516484840475
 20
232.0325015506172122
 30
0.0
 40
0.0393700787
 50
180.0
 51
270.0
  0
ARC
  5
AC1D
  8
0
 10
3581.4934380405798038
 20
234.8446208635496077
 30
0.0
 40
0.030270452043547
 50
178.8466363836660094
 51
270.6097293110382225
  0
ARC
  5
AC1F
  8
0
 10
3581.4851515193081468
 20
235.1446732717982968
 30
0.0
 40
0.0193665225440019
 50
88.9927319252874156
 51
180.4528478406296017
  0
ARC
  5
AC20
  8
0
 10
3583.8476941681838071
 20
228.2136039128172058
 30
0.0
 40
0.0196850394
 50
180.0
 51
270.0
  0
ARC
  5
AC21
  8
0
 10
3583.8476941681838071
 20
233.8592732041171871
 30
0.0
 40
0.0196850394
 50
90.0
 51
180.0
  0
ARC
  5
AC22
  8
0
 10
3585.619347711483897
 20
233.8592732041171871
 30
0.0
 40
0.0196850394
 50
0.0
 51
90.0
  0
ARC
  5
AC23
  8
0
 10
3585.619347711483897
 20
228.2136039128172058
 30
0.0
 40
0.0196850394
 50
270.0
 51
0.0
  0
ARC
  5
AC24
  8
0
 10
3585.6301461178841237
 20
235.1435513483232
 30
0.0
 40
0.0205007893943215
 50
2.7180916772598982
 51
87.783722342531334
  0
ARC
  5
AC26
  8
0
 10
3583.2258857241467922
 20
234.2238010392792091
 30
0.0
 40
0.5905510862380315
 50
0.0
 51
90.0
  0
ENDSEC
  0
EOF
