  0
SECTION
  2
HEADER
  9
$ACADVER
  1
AC1009
  9
$INSBASE
 10
3579.7918294818500726
 20
231.832468075866899
 30
0.0
  9
$EXTMIN
 10
3578.8760103466488545
 20
227.1474287057170045
 30
0.0
  9
$EXTMAX
 10
3580.7076486170371936
 20
232.7551983351995091
 30
0.0
  9
$LIMMIN
 10
0.0
 20
0.0
  9
$LIMMAX
 10
11.6929133858000007
 20
8.2677165353999982
  9
$ORTHOMODE
 70
     0
  9
$REGENMODE
 70
     1
  9
$FILLMODE
 70
     1
  9
$QTEXTMODE
 70
     0
  9
$MIRRTEXT
 70
     0
  9
$DRAGMODE
 70
     2
  9
$LTSCALE
 40
0.6431102362
  9
$OSMODE
 70
  4095
  9
$ATTMODE
 70
     1
  9
$TEXTSIZE
 40
0.2
  9
$TRACEWID
 40
0.05
  9
$TEXTSTYLE
  7
STANDARD
  9
$CLAYER
  8
0
  9
$CELTYPE
  6
BYLAYER
  9
$CECOLOR
 62
   256
  9
$DIMSCALE
 40
1.0
  9
$DIMASZ
 40
0.1875
  9
$DIMEXO
 40
0.0625
  9
$DIMDLI
 40
0.4443307087
  9
$DIMRND
 40
0.0
  9
$DIMDLE
 40
0.0
  9
$DIMEXE
 40
0.125
  9
$DIMTP
 40
0.01
  9
$DIMTM
 40
0.01
  9
$DIMTXT
 40
2.0
  9
$DIMCEN
 40
0.1052362205
  9
$DIMTSZ
 40
0.0
  9
$DIMTOL
 70
     1
  9
$DIMLIM
 70
     0
  9
$DIMTIH
 70
     1
  9
$DIMTOH
 70
     1
  9
$DIMSE1
 70
     0
  9
$DIMSE2
 70
     0
  9
$DIMTAD
 70
     0
  9
$DIMZIN
 70
     0
  9
$DIMBLK
  1

  9
$DIMASO
 70
     1
  9
$DIMSHO
 70
     1
  9
$DIMPOST
  1
\X
  9
$DIMAPOST
  1

  9
$DIMALT
 70
     1
  9
$DIMALTD
 70
     2
  9
$DIMALTF
 40
25.3999999999999986
  9
$DIMLFAC
 40
1.0
  9
$DIMTOFL
 70
     0
  9
$DIMTVP
 40
0.0
  9
$DIMTIX
 70
     0
  9
$DIMSOXD
 70
     0
  9
$DIMSAH
 70
     0
  9
$DIMBLK1
  1

  9
$DIMBLK2
  1

  9
$DIMSTYLE
  2
STANDARD
  9
$DIMCLRD
 70
     0
  9
$DIMCLRE
 70
     0
  9
$DIMCLRT
 70
     0
  9
$DIMTFAC
 40
1.0
  9
$DIMGAP
 40
0.09
  9
$LUNITS
 70
     2
  9
$LUPREC
 70
     4
  9
$SKETCHINC
 40
0.1
  9
$FILLETRAD
 40
0.0
  9
$AUNITS
 70
     0
  9
$AUPREC
 70
     0
  9
$MENU
  1
.
  9
$ELEVATION
 40
0.0
  9
$PELEVATION
 40
0.0
  9
$THICKNESS
 40
0.0
  9
$LIMCHECK
 70
     0
  9
$BLIPMODE
 70
     0
  9
$CHAMFERA
 40
0.0
  9
$CHAMFERB
 40
0.0
  9
$SKPOLY
 70
     0
  9
$TDCREATE
 40
2458060.468368056230247
  9
$TDUPDATE
 40
2459080.8376041669398546
  9
$TDINDWG
 40
0.5495209491
  9
$TDUSRTIMER
 40
0.5495209491
  9
$USRTIMER
 70
     1
  9
$ANGBASE
 50
0.0
  9
$ANGDIR
 70
     0
  9
$PDMODE
 70
     0
  9
$PDSIZE
 40
0.3125
  9
$PLINEWID
 40
0.0
  9
$COORDS
 70
     1
  9
$SPLFRAME
 70
     0
  9
$SPLINETYPE
 70
     6
  9
$SPLINESEGS
 70
     8
  9
$ATTDIA
 70
     1
  9
$ATTREQ
 70
     1
  9
$HANDLING
 70
     1
  9
$HANDSEED
  5
B2C4
  9
$SURFTAB1
 70
     6
  9
$SURFTAB2
 70
     6
  9
$SURFTYPE
 70
     6
  9
$SURFU
 70
     6
  9
$SURFV
 70
     6
  9
$UCSNAME
  2

  9
$UCSORG
 10
0.0
 20
0.0
 30
0.0
  9
$UCSXDIR
 10
1.0
 20
0.0
 30
0.0
  9
$UCSYDIR
 10
0.0
 20
1.0
 30
0.0
  9
$PUCSNAME
  2

  9
$PUCSORG
 10
0.0
 20
0.0
 30
0.0
  9
$PUCSXDIR
 10
1.0
 20
0.0
 30
0.0
  9
$PUCSYDIR
 10
0.0
 20
1.0
 30
0.0
  9
$USERI1
 70
     0
  9
$USERI2
 70
     0
  9
$USERI3
 70
     0
  9
$USERI4
 70
     0
  9
$USERI5
 70
     0
  9
$USERR1
 40
0.0
  9
$USERR2
 40
0.0
  9
$USERR3
 40
0.0
  9
$USERR4
 40
0.0
  9
$USERR5
 40
0.0
  9
$WORLDVIEW
 70
     1
  9
$SHADEDGE
 70
     3
  9
$SHADEDIF
 70
    70
  9
$TILEMODE
 70
     1
  9
$MAXACTVP
 70
    64
  9
$PLIMCHECK
 70
     0
  9
$PEXTMIN
 10
1.0000000000000000E+20
 20
1.0000000000000000E+20
 30
1.0000000000000000E+20
  9
$PEXTMAX
 10
-1.0000000000000000E+20
 20
-1.0000000000000000E+20
 30
-1.0000000000000000E+20
  9
$PLIMMIN
 10
0.0
 20
0.0
  9
$PLIMMAX
 10
12.0
 20
9.0
  9
$UNITMODE
 70
     0
  9
$VISRETAIN
 70
     1
  9
$PLINEGEN
 70
     0
  9
$PSLTSCALE
 70
     1
  0
ENDSEC
  0
SECTION
  2
TABLES
  0
TABLE
  2
VPORT
 70
     1
  0
VPORT
  2
*ACTIVE
 70
     0
 10
0.0
 20
0.0
 11
1.0
 21
1.0
 12
276.098714247468024
 22
34.6898019445704833
 13
0.0
 23
0.0
 14
1.0
 24
1.0
 15
0.0
 25
0.0
 16
0.0
 26
0.0
 36
96.5995694866707311
 17
3303.693115234375
 27
195.2615115758877096
 37
0.0
 40
5.6544362283409733
 41
2.6486111111111108
 42
50.0
 43
0.0
 44
0.0
 50
0.0
 51
0.0
 71
     0
 72
   100
 73
     1
 74
     1
 75
     0
 76
     0
 77
     0
 78
     0
  0
ENDTAB
  0
TABLE
  2
LTYPE
 70
     2
  0
LTYPE
  2
CONTINUOUS
 70
     0
  3
Solid line
 72
    65
 73
     0
 40
0.0
  0
LTYPE
  2
PHANTOM2
 70
     0
  3
___ _ _ ___ _ _ ___ _ _ ___ _ _
 72
    65
 73
     6
 40
1.25
 49
0.625
 49
-0.125
 49
0.125
 49
-0.125
 49
0.125
 49
-0.125
  0
ENDTAB
  0
TABLE
  2
LAYER
 70
     2
  0
LAYER
  2
0
 70
     0
 62
   255
  6
CONTINUOUS
  0
LAYER
  2
DEFPOINTS
 70
     0
 62
     7
  6
CONTINUOUS
  0
ENDTAB
  0
TABLE
  2
STYLE
 70
     1
  0
STYLE
  2
STANDARD
 70
     0
 40
0.0
 41
0.8
 50
0.0
 71
     0
 42
0.2
  3
txt
  4

  0
ENDTAB
  0
TABLE
  2
VIEW
 70
     0
  0
ENDTAB
  0
TABLE
  2
UCS
 70
     0
  0
ENDTAB
  0
TABLE
  2
APPID
 70
     9
  0
APPID
  2
ACAD
 70
     0
  0
APPID
  2
ACAD_MLEADERVER
 70
     0
  0
APPID
  2
ACAD_EXEMPT_FROM_CAD_STANDARDS
 70
     0
  0
APPID
  2
ACAD_NAV_VCDISPLAY
 70
     0
  0
APPID
  2
ACAECLAYERSTANDARD
 70
     0
  0
APPID
  2
ACCMTRANSPARENCY
 70
     0
  0
APPID
  2
ACAD_DSTYLE_DIMJAG
 70
     0
  0
APPID
  2
ACAD_DSTYLE_DIMTALN
 70
     0
  0
APPID
  2
ACDBATTR
 70
     0
  0
ENDTAB
  0
TABLE
  2
DIMSTYLE
 70
     1
  0
DIMSTYLE
  2
STANDARD
 70
     0
  3

  4

  5

  6

  7

 40
1.0
 41
0.1875
 42
0.0625
 43
0.38
 44
0.125
 45
0.0
 46
0.0
 47
0.01
 48
0.01
140
0.15625
141
0.09
142
0.0
143
25.3999999999999986
144
1.0
145
0.0
146
1.0
147
0.09
 71
     1
 72
     0
 73
     1
 74
     1
 75
     0
 76
     0
 77
     0
 78
     4
170
     0
171
     2
172
     0
173
     0
174
     0
175
     0
176
     0
177
     0
178
     0
  0
ENDTAB
  0
ENDSEC
  0
SECTION
  2
BLOCKS
  0
BLOCK
  8
0
  2
$MODEL_SPACE
 70
     0
 10
0.0
 20
0.0
 30
0.0
  3
$MODEL_SPACE
  1

  0
ENDBLK
  5
21
  8
0
  0
BLOCK
 67
     1
  8
0
  2
$PAPER_SPACE
 70
     0
 10
0.0
 20
0.0
 30
0.0
  3
$PAPER_SPACE
  1

  0
ENDBLK
  5
1D
 67
     1
  8
0
  0
ENDSEC
  0
SECTION
  2
ENTITIES
  0
ATTDEF
  5
A614
  8
DEFPOINTS
 10
3579.7876361121111586
 20
231.8297081104796007
 30
0.0
 40
0.001
  1
K-37327IN-4ND
  3

  2
MODELNUMBER
 70
     0
1001
ACDBATTR
1070
     0
1070
     1
  0
ATTDEF
  5
A615
  8
DEFPOINTS
 10
3579.7876361121111586
 20
231.8280414438129071
 30
0.0
 40
0.001
  1
STRAYT
  3

  2
TRADENAME
 70
     0
1001
ACDBATTR
1070
     0
1070
     1
  0
ATTDEF
  5
A616
  8
DEFPOINTS
 10
3579.7876361121111586
 20
231.8263747771462135
 30
0.0
 40
0.001
  1
BATHROOM SINK FAUCET
  3

  2
PRODUCT
 70
     0
1001
ACDBATTR
1070
     0
1070
     1
  0
LINE
  5
ABEE
  8
0
 10
3578.9256877495490698
 20
227.1474287057170045
 30
0.0
 11
3580.6579712141488017
 21
227.1474287057170045
 31
0.0
  0
LINE
  5
ABEF
  8
0
 10
3578.8851774022491554
 20
230.4291085159169938
 30
0.0
 11
3578.8852297157491194
 21
228.5912989270698858
 31
0.0
  0
LINE
  5
ABF0
  8
0
 10
3578.886317670850076
 20
227.1867987845168955
 30
0.0
 11
3578.886317670850076
 21
228.5839450743117993
 31
0.0
  0
LINE
  5
ABF3
  8
0
 10
3580.6984292463498605
 20
228.5912091196169911
 30
0.0
 11
3580.6984146985491861
 21
228.5912361404168962
 31
0.0
  0
LINE
  5
ABF6
  8
0
 10
3580.6973412928491598
 20
228.5839450743117993
 30
0.0
 11
3580.6973412928491598
 21
227.1867987845168955
 31
0.0
  0
LINE
  5
ABF7
  8
0
 10
3580.6984147020270939
 20
228.5912989270698858
 30
0.0
 11
3580.6984813873018538
 21
230.4291356966618878
 31
0.0
  0
ARC
  5
ABFB
  8
0
 10
3579.7918301312488438
 20
197.0883515555169083
 30
0.0
 40
35.667385056199997
 50
89.6464759061087619
 51
90.3147786425668926
  0
ARC
  5
ABFC
  8
0
 10
3579.7918413925499408
 20
197.0903469748168959
 30
0.0
 40
35.6653896054000015
 50
88.572129878188079
 51
89.6464742178709457
  0
ARC
  5
ABFD
  8
0
 10
3579.791800281048836
 20
197.0914586954168897
 30
0.0
 40
35.6642777992000006
 50
90.3147581119869329
 51
91.4280119727462761
  0
ARC
  5
AC02
  8
0
 10
3580.6579712141488017
 20
227.1867987845168955
 30
0.0
 40
0.0393700787
 50
270.0
 51
0.0
  0
ARC
  5
AC03
  8
0
 10
3578.9256877495490698
 20
227.1867987845168955
 30
0.0
 40
0.0393700787
 50
180.0
 51
270.0
  0
ARC
  5
AC04
  8
0
 10
3580.6706756944490735
 20
228.5912638942170076
 30
0.0
 40
0.0277390297
 50
349.4302028278290777
 51
0.0723614046385236
  0
ARC
  5
AC05
  8
0
 10
3580.6675095689329282
 20
228.5932031674944938
 30
0.0
 40
0.0312353012027224
 50
276.814665393961377
 51
346.9978956166651756
  0
LINE
  5
AC06
  8
0
 10
3580.6712158911541337
 20
228.56218853841699
 30
0.0
 11
3578.9124430725319144
 21
228.56218853841699
 31
0.0
  0
ARC
  5
AC07
  8
0
 10
3578.9147646392511888
 20
228.5915113731034864
 30
0.0
 40
0.0295356875583478
 50
180.4121240123483005
 51
190.4078503643860074
  0
ARC
  5
AC08
  8
0
 10
3578.9161493947658528
 20
228.5932031674944938
 30
0.0
 40
0.0312353012027224
 50
193.0021043833347107
 51
263.1853345830256785
  0
LINE
  5
AC09
  8
0
 10
3578.8760103466488545
 20
231.1154475307641007
 30
0.0
 11
3578.8760103466488545
 21
231.6931776562032894
 31
0.0
  0
ARC
  5
AC0A
  8
0
 10
3555.04818614475289
 20
230.5818309394425967
 30
0.0
 40
23.837480494981051
 50
359.6329137984590716
 51
1.15773505013547
  0
ARC
  5
AC0B
  8
0
 10
3579.1828005877791838
 20
231.1175059746767886
 30
0.0
 40
0.3067971467337414
 50
180.3844267611956127
 51
190.1453007735229903
  0
ARC
  5
AC0C
  8
0
 10
3825.4542711136791695
 20
231.2706877913740016
 30
0.0
 40
246.5786227161212878
 50
179.6630074634080927
 51
179.9018288863894099
  0
ARC
  5
AC0D
  8
0
 10
3578.9036435626239836
 20
232.7209382724749105
 30
0.0
 40
0.0237301741422547
 50
91.5219400740670181
 51
179.939122118427008
  0
LINE
  5
AC0E
  8
0
 10
3580.7076486170371936
 20
231.1154475307641007
 30
0.0
 11
3580.7076486170371936
 21
231.6931776562032894
 31
0.0
  0
ARC
  5
AC0F
  8
0
 10
3604.5354728189331581
 20
230.5818309394425967
 30
0.0
 40
23.837480494981051
 50
178.8422649498645001
 51
180.367020868549389
  0
ARC
  5
AC10
  8
0
 10
3580.4008583759059547
 20
231.1175059746767886
 30
0.0
 40
0.3067971467337414
 50
349.8546992264721212
 51
359.6155732388044157
  0
ARC
  5
AC11
  8
0
 10
3334.1293878500068786
 20
231.2706877913740016
 30
0.0
 40
246.5786227161212878
 50
0.0981711136105919
 51
0.3369925365918276
  0
ARC
  5
AC12
  8
0
 10
3580.680015401062974
 20
232.7209382724749105
 30
0.0
 40
0.0237301741422547
 50
0.0608778815729746
 51
88.6660958890479236
  0
ENDSEC
  0
EOF
