  0
SECTION
  2
HEADER
  9
$ACADVER
  1
AC1009
  9
$INSBASE
 10
4394.9047899858851451
 20
303.2231018958852928
 30
0.0
  9
$EXTMIN
 10
4385.3072130265099986
 20
303.210754578896001
 30
-0.0000000000112498
  9
$EXTMAX
 10
4396.0091152866089033
 20
313.6485881434214775
 30
0.0000000000002956
  9
$LIMMIN
 10
0.0
 20
0.0
  9
$LIMMAX
 10
11.6929133858000007
 20
8.2677165353999982
  9
$ORTHOMODE
 70
     0
  9
$REGENMODE
 70
     1
  9
$FILLMODE
 70
     1
  9
$QTEXTMODE
 70
     0
  9
$MIRRTEXT
 70
     0
  9
$DRAGMODE
 70
     2
  9
$LTSCALE
 40
0.6431102362
  9
$OSMODE
 70
     3
  9
$ATTMODE
 70
     1
  9
$TEXTSIZE
 40
0.2
  9
$TRACEWID
 40
0.05
  9
$TEXTSTYLE
  7
STANDARD
  9
$CLAYER
  8
0
  9
$CELTYPE
  6
BYLAYER
  9
$CECOLOR
 62
   256
  9
$DIMSCALE
 40
1.0
  9
$DIMASZ
 40
0.1875
  9
$DIMEXO
 40
0.0625
  9
$DIMDLI
 40
0.4443307087
  9
$DIMRND
 40
0.0
  9
$DIMDLE
 40
0.0
  9
$DIMEXE
 40
0.125
  9
$DIMTP
 40
0.01
  9
$DIMTM
 40
0.01
  9
$DIMTXT
 40
2.0
  9
$DIMCEN
 40
0.1052362205
  9
$DIMTSZ
 40
0.0
  9
$DIMTOL
 70
     1
  9
$DIMLIM
 70
     0
  9
$DIMTIH
 70
     1
  9
$DIMTOH
 70
     1
  9
$DIMSE1
 70
     0
  9
$DIMSE2
 70
     0
  9
$DIMTAD
 70
     0
  9
$DIMZIN
 70
     0
  9
$DIMBLK
  1

  9
$DIMASO
 70
     1
  9
$DIMSHO
 70
     1
  9
$DIMPOST
  1
\X
  9
$DIMAPOST
  1

  9
$DIMALT
 70
     1
  9
$DIMALTD
 70
     2
  9
$DIMALTF
 40
25.3999999999999986
  9
$DIMLFAC
 40
1.0
  9
$DIMTOFL
 70
     0
  9
$DIMTVP
 40
0.0
  9
$DIMTIX
 70
     0
  9
$DIMSOXD
 70
     0
  9
$DIMSAH
 70
     0
  9
$DIMBLK1
  1

  9
$DIMBLK2
  1

  9
$DIMSTYLE
  2
STANDARD
  9
$DIMCLRD
 70
     0
  9
$DIMCLRE
 70
     0
  9
$DIMCLRT
 70
     0
  9
$DIMTFAC
 40
1.0
  9
$DIMGAP
 40
0.09
  9
$LUNITS
 70
     2
  9
$LUPREC
 70
     4
  9
$SKETCHINC
 40
0.1
  9
$FILLETRAD
 40
0.0
  9
$AUNITS
 70
     0
  9
$AUPREC
 70
     0
  9
$MENU
  1
.
  9
$ELEVATION
 40
0.0
  9
$PELEVATION
 40
0.0
  9
$THICKNESS
 40
0.0
  9
$LIMCHECK
 70
     0
  9
$BLIPMODE
 70
     0
  9
$CHAMFERA
 40
0.0
  9
$CHAMFERB
 40
0.0
  9
$SKPOLY
 70
     0
  9
$TDCREATE
 40
2458060.468368056230247
  9
$TDUPDATE
 40
2459149.6144675929099321
  9
$TDINDWG
 40
0.5335487269
  9
$TDUSRTIMER
 40
0.5335487269
  9
$USRTIMER
 70
     1
  9
$ANGBASE
 50
0.0
  9
$ANGDIR
 70
     0
  9
$PDMODE
 70
     0
  9
$PDSIZE
 40
0.3125
  9
$PLINEWID
 40
0.0
  9
$COORDS
 70
     1
  9
$SPLFRAME
 70
     0
  9
$SPLINETYPE
 70
     6
  9
$SPLINESEGS
 70
     8
  9
$ATTDIA
 70
     1
  9
$ATTREQ
 70
     1
  9
$HANDLING
 70
     1
  9
$HANDSEED
  5
1805A
  9
$SURFTAB1
 70
     6
  9
$SURFTAB2
 70
     6
  9
$SURFTYPE
 70
     6
  9
$SURFU
 70
     6
  9
$SURFV
 70
     6
  9
$UCSNAME
  2

  9
$UCSORG
 10
0.0
 20
0.0
 30
0.0
  9
$UCSXDIR
 10
1.0
 20
0.0
 30
0.0
  9
$UCSYDIR
 10
0.0
 20
1.0
 30
0.0
  9
$PUCSNAME
  2

  9
$PUCSORG
 10
0.0
 20
0.0
 30
0.0
  9
$PUCSXDIR
 10
1.0
 20
0.0
 30
0.0
  9
$PUCSYDIR
 10
0.0
 20
1.0
 30
0.0
  9
$USERI1
 70
     0
  9
$USERI2
 70
     0
  9
$USERI3
 70
     0
  9
$USERI4
 70
     0
  9
$USERI5
 70
     0
  9
$USERR1
 40
0.0
  9
$USERR2
 40
0.0
  9
$USERR3
 40
0.0
  9
$USERR4
 40
0.0
  9
$USERR5
 40
0.0
  9
$WORLDVIEW
 70
     1
  9
$SHADEDGE
 70
     3
  9
$SHADEDIF
 70
    70
  9
$TILEMODE
 70
     1
  9
$MAXACTVP
 70
    64
  9
$PLIMCHECK
 70
     0
  9
$PEXTMIN
 10
1.0000000000000000E+20
 20
1.0000000000000000E+20
 30
1.0000000000000000E+20
  9
$PEXTMAX
 10
-1.0000000000000000E+20
 20
-1.0000000000000000E+20
 30
-1.0000000000000000E+20
  9
$PLIMMIN
 10
0.0
 20
0.0
  9
$PLIMMAX
 10
12.0
 20
9.0
  9
$UNITMODE
 70
     0
  9
$VISRETAIN
 70
     1
  9
$PLINEGEN
 70
     0
  9
$PSLTSCALE
 70
     1
  0
ENDSEC
  0
SECTION
  2
TABLES
  0
TABLE
  2
VPORT
 70
     1
  0
VPORT
  2
*ACTIVE
 70
     0
 10
0.0
 20
0.0
 11
1.0
 21
1.0
 12
479.2928077112474057
 22
175.8500662586197052
 13
0.0
 23
0.0
 14
1.0
 24
1.0
 15
0.0
 25
0.0
 16
0.0
 26
0.0
 36
60.4960186965801583
 17
3911.3653564453120453
 27
132.5796051025390057
 37
0.0
 40
10.5006490122559608
 41
1.9267068273092369
 42
50.0
 43
0.0
 44
0.0
 50
0.0
 51
0.0
 71
     0
 72
   100
 73
     1
 74
     1
 75
     0
 76
     0
 77
     0
 78
     0
  0
ENDTAB
  0
TABLE
  2
LTYPE
 70
     2
  0
LTYPE
  2
CONTINUOUS
 70
     0
  3
Solid line
 72
    65
 73
     0
 40
0.0
  0
LTYPE
  2
PHANTOM2
 70
     0
  3
___ _ _ ___ _ _ ___ _ _ ___ _ _
 72
    65
 73
     6
 40
1.25
 49
0.625
 49
-0.125
 49
0.125
 49
-0.125
 49
0.125
 49
-0.125
  0
ENDTAB
  0
TABLE
  2
LAYER
 70
     2
  0
LAYER
  2
0
 70
     0
 62
   255
  6
CONTINUOUS
  0
LAYER
  2
DEFPOINTS
 70
     0
 62
     7
  6
CONTINUOUS
  0
ENDTAB
  0
TABLE
  2
STYLE
 70
     1
  0
STYLE
  2
STANDARD
 70
     0
 40
0.0
 41
0.8
 50
0.0
 71
     0
 42
0.2
  3
txt
  4

  0
ENDTAB
  0
TABLE
  2
VIEW
 70
     0
  0
ENDTAB
  0
TABLE
  2
UCS
 70
     0
  0
ENDTAB
  0
TABLE
  2
APPID
 70
    10
  0
APPID
  2
ACAD
 70
     0
  0
APPID
  2
ACAD_MLEADERVER
 70
     0
  0
APPID
  2
ACAD_EXEMPT_FROM_CAD_STANDARDS
 70
     0
  0
APPID
  2
ACAD_NAV_VCDISPLAY
 70
     0
  0
APPID
  2
ACAECLAYERSTANDARD
 70
     0
  0
APPID
  2
ACCMTRANSPARENCY
 70
     0
  0
APPID
  2
ACAD_DSTYLE_DIMJAG
 70
     0
  0
APPID
  2
ACAD_DSTYLE_DIMTALN
 70
     0
  0
APPID
  2
ACDBATTR
 70
     0
  0
APPID
  2
ACADANNOTATIVE
 70
     0
  0
ENDTAB
  0
TABLE
  2
DIMSTYLE
 70
     1
  0
DIMSTYLE
  2
STANDARD
 70
     0
  3

  4

  5

  6

  7

 40
1.0
 41
0.1875
 42
0.0625
 43
0.38
 44
0.125
 45
0.0
 46
0.0
 47
0.01
 48
0.01
140
0.15625
141
0.09
142
0.0
143
25.3999999999999986
144
1.0
145
0.0
146
1.0
147
0.09
 71
     1
 72
     0
 73
     1
 74
     1
 75
     0
 76
     0
 77
     0
 78
     4
170
     0
171
     2
172
     0
173
     0
174
     0
175
     0
176
     0
177
     0
178
     0
  0
ENDTAB
  0
ENDSEC
  0
SECTION
  2
BLOCKS
  0
BLOCK
  8
0
  2
$MODEL_SPACE
 70
     0
 10
0.0
 20
0.0
 30
0.0
  3
$MODEL_SPACE
  1

  0
ENDBLK
  5
21
  8
0
  0
BLOCK
 67
     1
  8
0
  2
$PAPER_SPACE
 70
     0
 10
0.0
 20
0.0
 30
0.0
  3
$PAPER_SPACE
  1

  0
ENDBLK
  5
1D
 67
     1
  8
0
  0
ENDSEC
  0
SECTION
  2
ENTITIES
  0
ATTDEF
  5
159BF
  8
0
 10
4394.9050056288488122
 20
303.2213547459869005
 30
0.0
 40
0.001
  1
K-37316IN-4
  3

  2
MODELNUMBER
 70
     0
1001
ACDBATTR
1070
     0
1070
     1
  0
ATTDEF
  5
159C0
  8
0
 10
4394.9048798191915921
 20
303.2196879056078274
 30
0.0
 40
0.001
  1
CUFF
  3

  2
TRADENAME
 70
     0
1001
ACDBATTR
1070
     0
1070
     1
  0
ATTDEF
  5
159C1
  8
0
 10
4394.9050056288488122
 20
303.2180214126536271
 30
0.0
 40
0.001
  1
KITCHEN SINK FAUCET
  3

  2
PRODUCT
 70
     0
1001
ACDBATTR
1070
     0
1070
     1
  0
LINE
  5
17F9A
  8
0
 10
4387.9362860488363367
 20
312.7703459903852945
 30
0.0
 11
4393.3299868362346388
 21
312.7703459903852945
 31
0.0
  0
LINE
  5
17F9B
  8
0
 10
4387.9362860488363367
 20
313.6364877226852741
 30
0.0
 11
4393.3299868362346388
 21
313.6364877226852741
 31
0.0
  0
LINE
  5
17F9C
  8
0
 10
4386.1165341930345676
 20
312.4771779332851906
 30
0.0
 11
4385.8087216795347558
 21
311.817071867885204
 31
0.0
  0
LINE
  5
17F9D
  8
0
 10
4386.901525189635322
 20
312.1111306198852731
 30
0.0
 11
4386.5937126762346452
 21
311.451024554585274
 31
0.0
  0
LINE
  5
17F9E
  8
0
 10
4385.5955703614354206
 20
311.4135329779851986
 30
0.0
 11
4385.788204869434594
 21
311.8266390135851793
 31
0.0
  0
LINE
  5
17F9F
  8
0
 10
4385.788204869434594
 20
311.8266390135851793
 30
0.0
 11
4386.6142287068350925
 21
311.4414577723853199
 31
0.0
  0
LINE
  5
17FA0
  8
0
 10
4386.6142287068350925
 20
311.4414577723853199
 30
0.0
 11
4386.4215949783356336
 21
311.0283513733853056
 31
0.0
  0
LINE
  5
17FA1
  8
0
 10
4385.5400019052340213
 20
311.2038966721851807
 30
0.0
 11
4386.2967229663354374
 21
310.8510318462851956
 31
0.0
  0
LINE
  5
17FA2
  8
0
 10
4386.2352161433364017
 20
310.8731969375853055
 30
0.0
 11
4385.5965171739362631
 21
311.1710271582853125
 31
0.0
  0
ARC
  5
17FA3
  8
0
 10
4386.1989960067003267
 20
311.1240016602993137
 30
0.0
 40
0.6692913366277923
 50
154.3677144897062874
 51
172.4389209812441948
  0
ARC
  5
17FA4
  8
0
 10
4385.5433296081428125
 20
311.2110329540100793
 30
0.0
 40
0.0078740158071984
 50
172.4389209634948941
 51
244.9999997170218933
  0
ARC
  5
17FA5
  8
0
 10
4385.6031734544776555
 20
311.1852993140565218
 30
0.0
 40
0.0157480316554562
 50
193.6821877269615015
 51
244.9964882388298975
  0
ARC
  5
17FA6
  8
0
 10
4386.2418706742528229
 20
310.8874699094304219
 30
0.0
 40
0.0157480318460518
 50
245.0035122573056015
 51
296.317811913859714
  0
ARC
  5
17FA7
  8
0
 10
4386.300050669092343
 20
310.8581681282474847
 30
0.0
 40
0.0078740158676068
 50
245.0000011404243878
 51
317.5610786657164795
  0
ARC
  5
17FA8
  8
0
 10
4385.8119265929735775
 20
311.3044950923747933
 30
0.0
 40
0.6692913368970329
 50
317.5610790032043838
 51
335.6322854997268905
  0
ARC
  5
17FA9
  8
0
 10
4387.9362860491055471
 20
311.6286137065944217
 30
0.0
 40
2.0078740160909239
 50
90.0000000077123161
 51
154.9999999932012997
  0
ARC
  5
17FAA
  8
0
 10
4387.936286048785405
 20
311.6286137070568998
 30
0.0
 40
1.1417322833283641
 50
89.9999999974987048
 51
155.0000000069304065
  0
LINE
  5
17FAB
  8
0
 10
4394.471719119734189
 20
311.6286137068852895
 30
0.0
 11
4394.471719119734189
 21
307.7900310297853252
 31
0.0
  0
LINE
  5
17FAC
  8
0
 10
4395.3378608520351918
 20
311.6286137068852895
 30
0.0
 11
4395.3378608520351918
 21
307.7900310297853252
 31
0.0
  0
ARC
  5
17FAD
  8
0
 10
4393.3299868359927132
 20
311.6286137066438187
 30
0.0
 40
2.007874016041419
 50
0.0000000068883181
 51
89.9999999931214347
  0
ARC
  5
17FAE
  8
0
 10
4393.3299868362346388
 20
311.6286137068851758
 30
0.0
 40
1.1417322835000061
 50
0.0
 51
90.0
  0
LINE
  5
17FAF
  8
0
 10
4393.9402230567338847
 20
303.2231018958852928
 30
0.0
 11
4395.8693569150345866
 21
303.2231018958852928
 31
0.0
  0
LINE
  5
17FB0
  8
0
 10
4393.9402230567338847
 20
303.3805822108852794
 30
0.0
 11
4395.8693569150345866
 21
303.3805822108852794
 31
0.0
  0
LINE
  5
17FB1
  8
0
 10
4395.8890419544350152
 20
303.3608971714853055
 30
0.0
 11
4395.8890419544350152
 21
303.2427869352853236
 31
0.0
  0
LINE
  5
17FB2
  8
0
 10
4393.9205380173361846
 20
303.3608971714853055
 30
0.0
 11
4393.9205380173361846
 21
303.2427869352853236
 31
0.0
  0
LINE
  5
17FB3
  8
0
 10
4394.2158136079342512
 20
303.3805822108852794
 30
0.0
 11
4394.215830859135167
 21
304.3691224688852799
 31
0.0
  0
ARC
  5
17FB4
  8
0
 10
4410.0006184581707203
 20
304.3925866309779735
 30
0.0
 40
15.7848050388212702
 50
178.8333078441860096
 51
180.085170386933811
  0
ARC
  5
17FB5
  8
0
 10
4335.5376329141590759
 20
304.6900402360976727
 30
0.0
 40
58.6814577535192825
 50
0.0233787554866493
 51
0.590556586262816
  0
LINE
  5
17FB6
  8
0
 10
4394.304435162334812
 20
307.3372751241852825
 30
0.0
 11
4394.3043392058352765
 21
306.2657918756852951
 31
0.0
  0
ARC
  5
17FB7
  8
0
 10
4390.3287996775407009
 20
306.2159364791161806
 30
0.0
 40
3.975852122702523
 50
353.6096555836272728
 51
0.7184821230991388
  0
ARC
  5
17FB8
  8
0
 10
4381.5367713153264049
 20
307.5844338872630033
 30
0.0
 40
12.8712215657146594
 50
350.3170427725202103
 51
351.9114898442101094
  0
LINE
  5
17FB9
  8
0
 10
4394.3241202017352407
 20
307.3569601635853132
 30
0.0
 11
4394.7637659692345551
 21
307.3569601635853132
 31
0.0
  0
LINE
  5
17FBA
  8
0
 10
4394.7637671652355493
 20
307.8538172307851823
 30
0.0
 11
4394.7637659692345551
 21
306.0697834430853277
 31
0.0
  0
LINE
  5
17FBB
  8
0
 10
4394.7637659692345551
 20
307.7900310297853252
 30
0.0
 11
4394.4421915607354094
 21
307.7900310297853252
 31
0.0
  0
LINE
  5
17FBC
  8
0
 10
4394.4421915607354094
 20
307.7900310297853252
 30
0.0
 11
4394.4421915607354094
 21
307.3766452029852871
 31
0.0
  0
ARC
  5
17FBD
  8
0
 10
4394.6516033297966715
 20
306.0697951638279051
 30
0.0
 40
0.1121626400500489
 50
288.40288023661941
 51
359.9940127203859106
  0
ARC
  5
17FBE
  8
0
 10
4393.9402230567338847
 20
303.3608971714853055
 30
0.0
 40
0.0196850393999952
 50
90.0
 51
180.0000000000065086
  0
ARC
  5
17FBF
  8
0
 10
4393.9402230567338847
 20
303.2427869352853236
 30
0.0
 40
0.0196850393999952
 50
179.9999999999934914
 51
270.0
  0
ARC
  5
17FC0
  8
0
 10
4394.3241202017352407
 20
307.3372751241852825
 30
0.0
 40
0.0196850394000059
 50
90.0
 51
179.9999999999739089
  0
ARC
  5
17FC1
  8
0
 10
4394.4618765999639436
 20
307.3766452028145864
 30
0.0
 40
0.0196850392292909
 50
179.9999995031290894
 51
270.0000002057831807
  0
LINE
  5
17FC2
  8
0
 10
4395.8890419544350152
 20
303.3608971714853055
 30
0.0
 11
4395.8890419544350152
 21
303.2427869352853236
 31
0.0
  0
LINE
  5
17FC3
  8
0
 10
4395.5937663638351296
 20
303.3805822108852794
 30
0.0
 11
4395.5937491126342138
 21
304.3691224688852799
 31
0.0
  0
ARC
  5
17FC4
  8
0
 10
4379.8089615135986605
 20
304.3925866309779735
 30
0.0
 40
15.7848050388212702
 50
359.9148296130662175
 51
1.1666921558140171
  0
ARC
  5
17FC5
  8
0
 10
4454.2800510192328147
 20
304.6900168731402232
 30
0.0
 40
58.6895617240028713
 50
179.4095193617934001
 51
179.9766016645700972
  0
LINE
  5
17FC6
  8
0
 10
4395.5051448094363877
 20
307.3372751241852825
 30
0.0
 11
4395.5051775909605567
 21
306.9712253457720976
 31
0.0
  0
LINE
  5
17FC7
  8
0
 10
4395.5052072332391617
 20
306.6402294818333871
 30
0.0
 11
4395.5052407659350138
 21
306.2657918756852951
 31
0.0
  0
ARC
  5
17FC8
  8
0
 10
4399.4807802942286798
 20
306.2159364791161806
 30
0.0
 40
3.975852122702523
 50
179.2815178769008071
 51
186.3903444163726988
  0
ARC
  5
17FC9
  8
0
 10
4408.2750697529691024
 20
307.5847712926416193
 30
0.0
 40
12.8735076424666701
 50
188.0885809502582049
 51
189.6829650650300039
  0
LINE
  5
17FCA
  8
0
 10
4395.4854597700350496
 20
307.3569601635853132
 30
0.0
 11
4395.0458131396226236
 21
307.3569601635853132
 31
0.0
  0
LINE
  5
17FCB
  8
0
 10
4395.045812806534741
 20
307.8538172307851823
 30
0.0
 11
4395.0458140025348257
 21
306.0697834430853277
 31
0.0
  0
LINE
  5
17FCC
  8
0
 10
4395.0458140025348257
 20
307.7900310297853252
 30
0.0
 11
4395.3673884110348808
 21
307.7900310297853252
 31
0.0
  0
LINE
  5
17FCD
  8
0
 10
4395.3673884110348808
 20
307.7900310297853252
 30
0.0
 11
4395.3673884110348808
 21
307.3766452029852871
 31
0.0
  0
ARC
  5
17FCE
  8
0
 10
4395.0349012513988782
 20
307.852123091783028
 30
0.0
 40
0.0110422888225869
 50
8.8253359686814381
 51
80.3843682123348486
  0
ARC
  5
17FCF
  8
0
 10
4395.1579766420200031
 20
306.0697951638430823
 30
0.0
 40
0.1121626400970771
 50
180.0059872873719939
 51
251.5971417310423135
  0
ARC
  5
17FD0
  8
0
 10
4395.8693569150345866
 20
303.3608971714853055
 30
0.0
 40
0.0196850393999952
 50
359.9999999999935199
 51
90.0
  0
ARC
  5
17FD1
  8
0
 10
4395.8693569150345866
 20
303.2427869352853236
 30
0.0
 40
0.0196850393999952
 50
270.0
 51
0.0000000000065138
  0
ARC
  5
17FD2
  8
0
 10
4395.4854597700350496
 20
307.3372751241852825
 30
0.0
 40
0.0196850394000059
 50
0.0000000000260551
 51
90.0
  0
ARC
  5
17FD3
  8
0
 10
4395.3477033718072562
 20
307.3766452028145864
 30
0.0
 40
0.0196850392292909
 50
269.9999997941646939
 51
0.0000004968708323
  0
ARC
  5
17FD4
  8
0
 10
4396.0821802141481385
 20
306.8057790858471776
 30
0.0
 40
0.6002536897748609
 50
164.0006037332285018
 51
196.0096584943186997
  0
CIRCLE
  5
17FD5
  8
0
 10
4394.9047899858851451
 20
305.3097160691352769
 30
0.0
 40
0.68897637795
  0
ARC
  5
17FD6
  8
0
 10
4394.7746787203714121
 20
307.852123091783028
 30
0.0
 40
0.0110422888225869
 50
99.6156317876651656
 51
171.1746640313185992
  0
ARC
  5
17FD7
  8
0
 10
4394.9047899858851451
 20
306.3546521711675723
 30
0.0
 40
1.514119013922103
 50
85.000319941431755
 51
94.999680058568245
  0
ENDSEC
  0
EOF
