  0
SECTION
  2
HEADER
  9
$ACADVER
  1
AC1009
  9
$INSBASE
 10
4374.6758205466330764
 20
306.0361920131712736
 30
0.0
  9
$EXTMIN
 10
4371.9548221988334262
 20
296.6668576195726814
 30
0.0
  9
$EXTMAX
 10
4377.3968188944327267
 20
307.020443981671292
 30
0.0
  9
$LIMMIN
 10
0.0
 20
0.0
  9
$LIMMAX
 10
11.6929133858000007
 20
8.2677165353999982
  9
$ORTHOMODE
 70
     0
  9
$REGENMODE
 70
     1
  9
$FILLMODE
 70
     1
  9
$QTEXTMODE
 70
     0
  9
$MIRRTEXT
 70
     0
  9
$DRAGMODE
 70
     2
  9
$LTSCALE
 40
0.6431102362
  9
$OSMODE
 70
     3
  9
$ATTMODE
 70
     1
  9
$TEXTSIZE
 40
0.2
  9
$TRACEWID
 40
0.05
  9
$TEXTSTYLE
  7
STANDARD
  9
$CLAYER
  8
0
  9
$CELTYPE
  6
BYLAYER
  9
$CECOLOR
 62
   256
  9
$DIMSCALE
 40
1.0
  9
$DIMASZ
 40
0.1875
  9
$DIMEXO
 40
0.0625
  9
$DIMDLI
 40
0.4443307087
  9
$DIMRND
 40
0.0
  9
$DIMDLE
 40
0.0
  9
$DIMEXE
 40
0.125
  9
$DIMTP
 40
0.01
  9
$DIMTM
 40
0.01
  9
$DIMTXT
 40
2.0
  9
$DIMCEN
 40
0.1052362205
  9
$DIMTSZ
 40
0.0
  9
$DIMTOL
 70
     1
  9
$DIMLIM
 70
     0
  9
$DIMTIH
 70
     1
  9
$DIMTOH
 70
     1
  9
$DIMSE1
 70
     0
  9
$DIMSE2
 70
     0
  9
$DIMTAD
 70
     0
  9
$DIMZIN
 70
     0
  9
$DIMBLK
  1

  9
$DIMASO
 70
     1
  9
$DIMSHO
 70
     1
  9
$DIMPOST
  1
\X
  9
$DIMAPOST
  1

  9
$DIMALT
 70
     1
  9
$DIMALTD
 70
     2
  9
$DIMALTF
 40
25.3999999999999986
  9
$DIMLFAC
 40
1.0
  9
$DIMTOFL
 70
     0
  9
$DIMTVP
 40
0.0
  9
$DIMTIX
 70
     0
  9
$DIMSOXD
 70
     0
  9
$DIMSAH
 70
     0
  9
$DIMBLK1
  1

  9
$DIMBLK2
  1

  9
$DIMSTYLE
  2
STANDARD
  9
$DIMCLRD
 70
     0
  9
$DIMCLRE
 70
     0
  9
$DIMCLRT
 70
     0
  9
$DIMTFAC
 40
1.0
  9
$DIMGAP
 40
0.09
  9
$LUNITS
 70
     2
  9
$LUPREC
 70
     4
  9
$SKETCHINC
 40
0.1
  9
$FILLETRAD
 40
0.0
  9
$AUNITS
 70
     0
  9
$AUPREC
 70
     0
  9
$MENU
  1
.
  9
$ELEVATION
 40
0.0
  9
$PELEVATION
 40
0.0
  9
$THICKNESS
 40
0.0
  9
$LIMCHECK
 70
     0
  9
$BLIPMODE
 70
     0
  9
$CHAMFERA
 40
0.0
  9
$CHAMFERB
 40
0.0
  9
$SKPOLY
 70
     0
  9
$TDCREATE
 40
2458060.468368056230247
  9
$TDUPDATE
 40
2459149.6136921299621463
  9
$TDINDWG
 40
0.5286065972
  9
$TDUSRTIMER
 40
0.5286065972
  9
$USRTIMER
 70
     1
  9
$ANGBASE
 50
0.0
  9
$ANGDIR
 70
     0
  9
$PDMODE
 70
     0
  9
$PDSIZE
 40
0.3125
  9
$PLINEWID
 40
0.0
  9
$COORDS
 70
     1
  9
$SPLFRAME
 70
     0
  9
$SPLINETYPE
 70
     6
  9
$SPLINESEGS
 70
     8
  9
$ATTDIA
 70
     1
  9
$ATTREQ
 70
     1
  9
$HANDLING
 70
     1
  9
$HANDSEED
  5
18120
  9
$SURFTAB1
 70
     6
  9
$SURFTAB2
 70
     6
  9
$SURFTYPE
 70
     6
  9
$SURFU
 70
     6
  9
$SURFV
 70
     6
  9
$UCSNAME
  2

  9
$UCSORG
 10
0.0
 20
0.0
 30
0.0
  9
$UCSXDIR
 10
1.0
 20
0.0
 30
0.0
  9
$UCSYDIR
 10
0.0
 20
1.0
 30
0.0
  9
$PUCSNAME
  2

  9
$PUCSORG
 10
0.0
 20
0.0
 30
0.0
  9
$PUCSXDIR
 10
1.0
 20
0.0
 30
0.0
  9
$PUCSYDIR
 10
0.0
 20
1.0
 30
0.0
  9
$USERI1
 70
     0
  9
$USERI2
 70
     0
  9
$USERI3
 70
     0
  9
$USERI4
 70
     0
  9
$USERI5
 70
     0
  9
$USERR1
 40
0.0
  9
$USERR2
 40
0.0
  9
$USERR3
 40
0.0
  9
$USERR4
 40
0.0
  9
$USERR5
 40
0.0
  9
$WORLDVIEW
 70
     1
  9
$SHADEDGE
 70
     3
  9
$SHADEDIF
 70
    70
  9
$TILEMODE
 70
     1
  9
$MAXACTVP
 70
    64
  9
$PLIMCHECK
 70
     0
  9
$PEXTMIN
 10
1.0000000000000000E+20
 20
1.0000000000000000E+20
 30
1.0000000000000000E+20
  9
$PEXTMAX
 10
-1.0000000000000000E+20
 20
-1.0000000000000000E+20
 30
-1.0000000000000000E+20
  9
$PLIMMIN
 10
0.0
 20
0.0
  9
$PLIMMAX
 10
12.0
 20
9.0
  9
$UNITMODE
 70
     0
  9
$VISRETAIN
 70
     1
  9
$PLINEGEN
 70
     0
  9
$PSLTSCALE
 70
     1
  0
ENDSEC
  0
SECTION
  2
TABLES
  0
TABLE
  2
VPORT
 70
     1
  0
VPORT
  2
*ACTIVE
 70
     0
 10
0.0
 20
0.0
 11
1.0
 21
1.0
 12
463.3104641013201217
 22
169.2640456980828958
 13
0.0
 23
0.0
 14
1.0
 24
1.0
 15
0.0
 25
0.0
 16
0.0
 26
0.0
 36
60.4960186965801583
 17
3911.3653564453120453
 27
132.5796051025390057
 37
0.0
 40
10.4158948056017309
 41
1.9267068273092369
 42
50.0
 43
0.0
 44
0.0
 50
0.0
 51
0.0
 71
     0
 72
   100
 73
     1
 74
     1
 75
     0
 76
     0
 77
     0
 78
     0
  0
ENDTAB
  0
TABLE
  2
LTYPE
 70
     2
  0
LTYPE
  2
CONTINUOUS
 70
     0
  3
Solid line
 72
    65
 73
     0
 40
0.0
  0
LTYPE
  2
PHANTOM2
 70
     0
  3
___ _ _ ___ _ _ ___ _ _ ___ _ _
 72
    65
 73
     6
 40
1.25
 49
0.625
 49
-0.125
 49
0.125
 49
-0.125
 49
0.125
 49
-0.125
  0
ENDTAB
  0
TABLE
  2
LAYER
 70
     2
  0
LAYER
  2
0
 70
     0
 62
   255
  6
CONTINUOUS
  0
LAYER
  2
DEFPOINTS
 70
     0
 62
     7
  6
CONTINUOUS
  0
ENDTAB
  0
TABLE
  2
STYLE
 70
     1
  0
STYLE
  2
STANDARD
 70
     0
 40
0.0
 41
0.8
 50
0.0
 71
     0
 42
0.2
  3
txt
  4

  0
ENDTAB
  0
TABLE
  2
VIEW
 70
     0
  0
ENDTAB
  0
TABLE
  2
UCS
 70
     0
  0
ENDTAB
  0
TABLE
  2
APPID
 70
    10
  0
APPID
  2
ACAD
 70
     0
  0
APPID
  2
ACAD_MLEADERVER
 70
     0
  0
APPID
  2
ACAD_EXEMPT_FROM_CAD_STANDARDS
 70
     0
  0
APPID
  2
ACAD_NAV_VCDISPLAY
 70
     0
  0
APPID
  2
ACAECLAYERSTANDARD
 70
     0
  0
APPID
  2
ACCMTRANSPARENCY
 70
     0
  0
APPID
  2
ACAD_DSTYLE_DIMJAG
 70
     0
  0
APPID
  2
ACAD_DSTYLE_DIMTALN
 70
     0
  0
APPID
  2
ACDBATTR
 70
     0
  0
APPID
  2
ACADANNOTATIVE
 70
     0
  0
ENDTAB
  0
TABLE
  2
DIMSTYLE
 70
     1
  0
DIMSTYLE
  2
STANDARD
 70
     0
  3

  4

  5

  6

  7

 40
1.0
 41
0.1875
 42
0.0625
 43
0.38
 44
0.125
 45
0.0
 46
0.0
 47
0.01
 48
0.01
140
0.15625
141
0.09
142
0.0
143
25.3999999999999986
144
1.0
145
0.0
146
1.0
147
0.09
 71
     1
 72
     0
 73
     1
 74
     1
 75
     0
 76
     0
 77
     0
 78
     4
170
     0
171
     2
172
     0
173
     0
174
     0
175
     0
176
     0
177
     0
178
     0
  0
ENDTAB
  0
ENDSEC
  0
SECTION
  2
BLOCKS
  0
BLOCK
  8
0
  2
$MODEL_SPACE
 70
     0
 10
0.0
 20
0.0
 30
0.0
  3
$MODEL_SPACE
  1

  0
ENDBLK
  5
21
  8
0
  0
BLOCK
 67
     1
  8
0
  2
$PAPER_SPACE
 70
     0
 10
0.0
 20
0.0
 30
0.0
  3
$PAPER_SPACE
  1

  0
ENDBLK
  5
1D
 67
     1
  8
0
  0
ENDSEC
  0
SECTION
  2
ENTITIES
  0
ATTDEF
  5
159BF
  8
0
 10
4374.6764983488656071
 20
306.0346253661780906
 30
0.0
 40
0.001
  1
K-37316IN-4
  3

  2
MODELNUMBER
 70
     0
1001
ACDBATTR
1070
     0
1070
     1
  0
ATTDEF
  5
159C0
  8
0
 10
4374.6763725392092965
 20
306.0329585257989038
 30
0.0
 40
0.001
  1
CUFF
  3

  2
TRADENAME
 70
     0
1001
ACDBATTR
1070
     0
1070
     1
  0
ATTDEF
  5
159C1
  8
0
 10
4374.6764983488656071
 20
306.0312920328448172
 30
0.0
 40
0.001
  1
KITCHEN SINK FAUCET
  3

  2
PRODUCT
 70
     0
1001
ACDBATTR
1070
     0
1070
     1
  0
LINE
  5
1805F
  8
0
 10
4373.1561355582316537
 20
306.725106236571321
 30
0.0
 11
4371.9976856678322292
 21
306.725106236571321
 31
0.0
  0
LINE
  5
18060
  8
0
 10
4371.9976853041316645
 20
305.3471534816712847
 30
0.0
 11
4373.1561356673328191
 21
305.3471534816712847
 31
0.0
  0
LINE
  5
18061
  8
0
 10
4373.1758205466339859
 20
306.7054216731713154
 30
0.0
 11
4373.1758205466339859
 21
305.3668375326712976
 31
0.0
  0
LINE
  5
18062
  8
0
 10
4373.1758205466339859
 20
305.4456408320713194
 30
0.0
 11
4373.2191276332323469
 21
305.4456408320713194
 31
0.0
  0
LINE
  5
18063
  8
0
 10
4373.2191276332323469
 20
305.3669012125712925
 30
0.0
 11
4373.2191276332323469
 21
306.7054822902712772
 31
0.0
  0
LINE
  5
18064
  8
0
 10
4373.1758205466339859
 20
306.6267431942712847
 30
0.0
 11
4373.2191276332323469
 21
306.6267431942712847
 31
0.0
  0
LINE
  5
18065
  8
0
 10
4373.2388129662322171
 20
306.7251683910712927
 30
0.0
 11
4376.1128281269329818
 21
306.7251683910712927
 31
0.0
  0
LINE
  5
18066
  8
0
 10
4373.2388125780325936
 20
305.3472156351713238
 30
0.0
 11
4374.2427496805830742
 21
305.3472156351713238
 31
0.0
  0
LINE
  5
18067
  8
0
 10
4375.1088914126830787
 20
305.3472156351713238
 30
0.0
 11
4376.1128285212316769
 21
305.3472156351713238
 31
0.0
  0
ARC
  5
18068
  8
0
 10
4374.6758205466330764
 20
306.0361298591212744
 30
0.0
 40
0.4389763824001511
 50
350.5912035378217979
 51
189.4087964621782021
  0
ARC
  5
18069
  8
0
 10
4374.6758205466330764
 20
306.0361298591212744
 30
0.0
 40
0.9843141225499998
 50
44.4285238447493072
 51
135.5714761552507071
  0
ARC
  5
1806A
  8
0
 10
4374.6758205466330764
 20
306.0361298591212744
 30
0.0
 40
0.9843141225499998
 50
224.4183922790651025
 51
243.8978915572043888
  0
ARC
  5
1806B
  8
0
 10
4374.6758205466330764
 20
306.0361298591212744
 30
0.0
 40
0.9843141225499998
 50
296.1021084427957248
 51
315.581607720934926
  0
ARC
  5
1806C
  8
0
 10
4381.667354832032288
 20
306.0361296531713151
 30
0.0
 40
9.7125326332000643
 50
176.0405906535002885
 51
183.9594222809010091
  0
ARC
  5
1806D
  8
0
 10
4371.9976726227960171
 20
306.7053885288694914
 30
0.0
 40
0.0197177120170297
 50
89.9620936943384351
 51
175.9605187039923919
  0
ARC
  5
1806E
  8
0
 10
4371.9976646970735601
 20
305.3668627125337025
 30
0.0
 40
0.0197092416352833
 50
184.0240913528616034
 51
270.0599057880443752
  0
ARC
  5
1806F
  8
0
 10
4373.1561386318953737
 20
305.366835396301326
 30
0.0
 40
0.019681914853237
 50
269.9913698980572008
 51
0.0062191604555571
  0
ARC
  5
18070
  8
0
 10
4373.1561366736059426
 20
306.7054223635644803
 30
0.0
 40
0.0196838730383244
 50
359.9979904045828789
 51
90.0032466278604062
  0
ARC
  5
18071
  8
0
 10
4373.2388112661501509
 20
306.7054847580723731
 30
0.0
 40
0.0196836330723237
 50
89.9950513431573853
 51
180.0071833582314014
  0
ARC
  5
18072
  8
0
 10
4373.2388089505957396
 20
305.3668969526607953
 30
0.0
 40
0.0196813178238074
 50
179.9875986508995993
 51
270.0105601081048121
  0
ARC
  5
18073
  8
0
 10
4374.6758206905096813
 20
297.4100396126211763
 30
0.0
 40
0.490432715849928
 50
230.152718709639089
 51
309.8472921073752104
  0
ARC
  5
18074
  8
0
 10
4374.6758206905096813
 20
297.4100396126211763
 30
0.0
 40
0.4678327158499274
 50
230.152718709639089
 51
309.8472921073752104
  0
ARC
  5
18075
  8
0
 10
4374.5963596049687112
 20
297.3326109965041724
 30
0.0
 40
0.3762477197859956
 50
160.0234858407895047
 51
199.9766022248560944
  0
ARC
  5
18076
  8
0
 10
4374.5976705502525874
 20
297.3327301065717734
 30
0.0
 40
0.3549208898063563
 50
180.0192282455373913
 51
199.908663392045014
  0
ARC
  5
18077
  8
0
 10
4374.6278772268151442
 20
297.3457086213563798
 30
0.0
 40
0.4103465184143341
 50
200.1919093069570863
 51
229.5368327191432058
  0
ARC
  5
18078
  8
0
 10
4374.6278962390979359
 20
297.3457185303957999
 30
0.0
 40
0.3877677825062592
 50
200.1923138180044077
 51
229.4997510023052882
  0
ARC
  5
18079
  8
0
 10
4374.7114181664328498
 20
297.1364916293516103
 30
0.0
 40
0.4913186985240011
 50
180.4073521647327141
 51
197.4653286132048891
  0
ARC
  5
1807A
  8
0
 10
4374.6758207451875933
 20
297.1319314929518782
 30
0.0
 40
0.465073873379179
 50
248.6257647544348117
 51
291.3742384852591272
  0
ARC
  5
1807B
  8
0
 10
4374.6743491163788349
 20
297.1162535866038183
 30
0.0
 40
0.4499589144796908
 50
196.4237221423412905
 51
248.072670300348193
  0
ARC
  5
1807C
  8
0
 10
4374.7552753210784431
 20
297.3326109964394277
 30
0.0
 40
0.3762538870040536
 50
340.0237391704786774
 51
19.9763488056325293
  0
ARC
  5
1807D
  8
0
 10
4374.7539836539281168
 20
297.3327267136481282
 30
0.0
 40
0.3549077783235282
 50
340.0911525763323766
 51
359.981046190419022
  0
ARC
  5
1807E
  8
0
 10
4374.7237652003368567
 20
297.3457081319334065
 30
0.0
 40
0.4103454681477729
 50
310.4631134232437262
 51
339.8081095731989762
  0
ARC
  5
1807F
  8
0
 10
4374.7237461921413342
 20
297.3457180388422216
 30
0.0
 40
0.3877667276667962
 50
310.5001912192802251
 51
339.8077062473644219
  0
ARC
  5
18080
  8
0
 10
4374.6402392164000048
 20
297.136487960594593
 30
0.0
 40
0.4913024354648872
 50
342.5345231811616031
 51
359.5922064889506942
  0
ARC
  5
18081
  8
0
 10
4374.6772923667913346
 20
297.1162535893773224
 30
0.0
 40
0.4499589199976549
 50
291.9273337673786841
 51
343.5762776965760281
  0
LINE
  5
18082
  8
0
 10
4372.5440056049319537
 20
306.177216029771273
 30
0.0
 11
4372.6359659750696665
 21
306.177216029771273
 31
0.0
  0
LINE
  5
18083
  8
0
 10
4372.6359659750696665
 20
305.8951572055713086
 30
0.0
 11
4372.5440056049319537
 21
305.8951572055713086
 31
0.0
  0
ARC
  5
18084
  8
0
 10
4372.5440056049319537
 20
306.0361866176713193
 30
0.0
 40
0.1410294120999982
 50
90.0
 51
270.0
  0
ARC
  5
18085
  8
0
 10
4372.6359659750696665
 20
306.0361866176713193
 30
0.0
 40
0.1410294120999982
 50
270.0
 51
90.0
  0
LINE
  5
18086
  8
0
 10
4376.1955055350317707
 20
306.725106236571321
 30
0.0
 11
4377.3539554254330142
 21
306.725106236571321
 31
0.0
  0
LINE
  5
18087
  8
0
 10
4377.35395578913176
 20
305.3471534816712847
 30
0.0
 11
4376.1955054259324243
 21
305.3471534816712847
 31
0.0
  0
LINE
  5
18088
  8
0
 10
4376.1758205466330764
 20
306.7054216731713154
 30
0.0
 11
4376.1758205466330764
 21
305.3668375326712976
 31
0.0
  0
LINE
  5
18089
  8
0
 10
4376.1758205466330764
 20
305.4456408320713194
 30
0.0
 11
4376.1325134600319871
 21
305.4456408320713194
 31
0.0
  0
LINE
  5
1808A
  8
0
 10
4376.1325134600319871
 20
305.3669012125712925
 30
0.0
 11
4376.1325134600319871
 21
306.7054822902712772
 31
0.0
  0
LINE
  5
1808B
  8
0
 10
4376.1758205466330764
 20
306.6267431942712847
 30
0.0
 11
4376.1325134600319871
 21
306.6267431942712847
 31
0.0
  0
ARC
  5
1808C
  8
0
 10
4367.6842862612329554
 20
306.0361296531713151
 30
0.0
 40
9.7125326332000643
 50
356.0405777190990193
 51
3.9594093464997231
  0
ARC
  5
1808D
  8
0
 10
4377.3539684704692263
 20
306.7053885288694914
 30
0.0
 40
0.0197177120170297
 50
4.0394812960076116
 51
90.0379063056615649
  0
ARC
  5
1808E
  8
0
 10
4377.3539763961898643
 20
305.3668627125337025
 30
0.0
 40
0.0197092416352833
 50
269.9400942119556248
 51
355.9759086471383966
  0
ARC
  5
1808F
  8
0
 10
4376.1955024613698697
 20
305.366835396301326
 30
0.0
 40
0.019681914853237
 50
179.9937808395443994
 51
270.0086301019429129
  0
ARC
  5
18090
  8
0
 10
4376.1955044196593008
 20
306.7054223635644803
 30
0.0
 40
0.0196838730383244
 50
89.996753372139608
 51
180.0020095954170927
  0
ARC
  5
18091
  8
0
 10
4376.1128298271150925
 20
306.7054847580723731
 30
0.0
 40
0.0196836330723237
 50
359.9928166417686271
 51
90.0049486568426289
  0
ARC
  5
18092
  8
0
 10
4376.1128321426722323
 20
305.3668969526599994
 30
0.0
 40
0.0196813178219261
 50
269.9894573535050881
 51
0.012401351367214
  0
LINE
  5
18093
  8
0
 10
4376.8076354883323802
 20
306.177216029771273
 30
0.0
 11
4376.7156751181946674
 21
306.177216029771273
 31
0.0
  0
LINE
  5
18094
  8
0
 10
4376.7156751181946674
 20
305.8951572055713086
 30
0.0
 11
4376.8076354883323802
 21
305.8951572055713086
 31
0.0
  0
ARC
  5
18095
  8
0
 10
4376.8076354883323802
 20
306.0361866176713193
 30
0.0
 40
0.1410294120999982
 50
270.0
 51
90.0
  0
ARC
  5
18096
  8
0
 10
4376.7156751181946674
 20
306.0361866176713193
 30
0.0
 40
0.1410294120999982
 50
90.0
 51
270.0
  0
LINE
  5
18097
  8
0
 10
4375.1088914128322358
 20
306.0361298591212744
 30
0.0
 11
4375.1088914128322358
 21
297.3326093078918007
 31
0.0
  0
LINE
  5
18098
  8
0
 10
4374.2427496804330076
 20
306.0361298591212744
 30
0.0
 11
4374.2427496804330076
 21
297.3326109964864941
 31
0.0
  0
ARC
  5
18099
  8
0
 10
4374.6758205466330764
 20
306.0361298591212744
 30
0.0
 40
0.4330708661999969
 50
0.0
 51
180.0
  0
ARC
  5
1809A
  8
0
 10
4374.6758205466330764
 20
306.0361298591212744
 30
0.0
 40
0.4625984252000004
 50
339.418030807984394
 51
200.5819691920125933
  0
LINE
  5
1809B
  8
0
 10
4375.1315292080817017
 20
297.1329912239178839
 30
0.0
 11
4375.1315292080817017
 21
297.3326109964394277
 31
0.0
  0
LINE
  5
1809C
  8
0
 10
4374.2201118851817228
 20
297.132998561432089
 30
0.0
 11
4374.2201118851817228
 21
297.3326109965041724
 31
0.0
  0
ARC
  5
1809D
  8
0
 10
4374.6758205466330764
 20
306.0361920131712736
 30
0.0
 40
0.6003465874000007
 50
316.1675476209463227
 51
223.8324523790537057
  0
ENDSEC
  0
EOF
