  0
SECTION
  2
HEADER
  9
$ACADVER
  1
AC1009
  9
$INSBASE
 10
4350.9772324865443807
 20
302.3058555225945838
 30
0.0
  9
$EXTMIN
 10
4348.2562341387438209
 20
302.3011552469764069
 30
0.0
  9
$EXTMAX
 10
4353.6982308343449404
 20
312.7192413493946788
 30
0.0
  9
$LIMMIN
 10
0.0
 20
0.0
  9
$LIMMAX
 10
11.6929133858000007
 20
8.2677165353999982
  9
$ORTHOMODE
 70
     0
  9
$REGENMODE
 70
     1
  9
$FILLMODE
 70
     1
  9
$QTEXTMODE
 70
     0
  9
$MIRRTEXT
 70
     0
  9
$DRAGMODE
 70
     2
  9
$LTSCALE
 40
0.6431102362
  9
$OSMODE
 70
     3
  9
$ATTMODE
 70
     1
  9
$TEXTSIZE
 40
0.2
  9
$TRACEWID
 40
0.05
  9
$TEXTSTYLE
  7
STANDARD
  9
$CLAYER
  8
0
  9
$CELTYPE
  6
BYLAYER
  9
$CECOLOR
 62
   256
  9
$DIMSCALE
 40
1.0
  9
$DIMASZ
 40
0.1875
  9
$DIMEXO
 40
0.0625
  9
$DIMDLI
 40
0.4443307087
  9
$DIMRND
 40
0.0
  9
$DIMDLE
 40
0.0
  9
$DIMEXE
 40
0.125
  9
$DIMTP
 40
0.01
  9
$DIMTM
 40
0.01
  9
$DIMTXT
 40
2.0
  9
$DIMCEN
 40
0.1052362205
  9
$DIMTSZ
 40
0.0
  9
$DIMTOL
 70
     1
  9
$DIMLIM
 70
     0
  9
$DIMTIH
 70
     1
  9
$DIMTOH
 70
     1
  9
$DIMSE1
 70
     0
  9
$DIMSE2
 70
     0
  9
$DIMTAD
 70
     0
  9
$DIMZIN
 70
     0
  9
$DIMBLK
  1

  9
$DIMASO
 70
     1
  9
$DIMSHO
 70
     1
  9
$DIMPOST
  1
\X
  9
$DIMAPOST
  1

  9
$DIMALT
 70
     1
  9
$DIMALTD
 70
     2
  9
$DIMALTF
 40
25.3999999999999986
  9
$DIMLFAC
 40
1.0
  9
$DIMTOFL
 70
     0
  9
$DIMTVP
 40
0.0
  9
$DIMTIX
 70
     0
  9
$DIMSOXD
 70
     0
  9
$DIMSAH
 70
     0
  9
$DIMBLK1
  1

  9
$DIMBLK2
  1

  9
$DIMSTYLE
  2
STANDARD
  9
$DIMCLRD
 70
     0
  9
$DIMCLRE
 70
     0
  9
$DIMCLRT
 70
     0
  9
$DIMTFAC
 40
1.0
  9
$DIMGAP
 40
0.09
  9
$LUNITS
 70
     2
  9
$LUPREC
 70
     4
  9
$SKETCHINC
 40
0.1
  9
$FILLETRAD
 40
0.0
  9
$AUNITS
 70
     0
  9
$AUPREC
 70
     0
  9
$MENU
  1
.
  9
$ELEVATION
 40
0.0
  9
$PELEVATION
 40
0.0
  9
$THICKNESS
 40
0.0
  9
$LIMCHECK
 70
     0
  9
$BLIPMODE
 70
     0
  9
$CHAMFERA
 40
0.0
  9
$CHAMFERB
 40
0.0
  9
$SKPOLY
 70
     0
  9
$TDCREATE
 40
2458060.468368056230247
  9
$TDUPDATE
 40
2459149.6135995369404554
  9
$TDINDWG
 40
0.522472338
  9
$TDUSRTIMER
 40
0.522472338
  9
$USRTIMER
 70
     1
  9
$ANGBASE
 50
0.0
  9
$ANGDIR
 70
     0
  9
$PDMODE
 70
     0
  9
$PDSIZE
 40
0.3125
  9
$PLINEWID
 40
0.0
  9
$COORDS
 70
     1
  9
$SPLFRAME
 70
     0
  9
$SPLINETYPE
 70
     6
  9
$SPLINESEGS
 70
     8
  9
$ATTDIA
 70
     1
  9
$ATTREQ
 70
     1
  9
$HANDLING
 70
     1
  9
$HANDSEED
  5
1BDF6
  9
$SURFTAB1
 70
     6
  9
$SURFTAB2
 70
     6
  9
$SURFTYPE
 70
     6
  9
$SURFU
 70
     6
  9
$SURFV
 70
     6
  9
$UCSNAME
  2

  9
$UCSORG
 10
0.0
 20
0.0
 30
0.0
  9
$UCSXDIR
 10
1.0
 20
0.0
 30
0.0
  9
$UCSYDIR
 10
0.0
 20
1.0
 30
0.0
  9
$PUCSNAME
  2

  9
$PUCSORG
 10
0.0
 20
0.0
 30
0.0
  9
$PUCSXDIR
 10
1.0
 20
0.0
 30
0.0
  9
$PUCSYDIR
 10
0.0
 20
1.0
 30
0.0
  9
$USERI1
 70
     0
  9
$USERI2
 70
     0
  9
$USERI3
 70
     0
  9
$USERI4
 70
     0
  9
$USERI5
 70
     0
  9
$USERR1
 40
0.0
  9
$USERR2
 40
0.0
  9
$USERR3
 40
0.0
  9
$USERR4
 40
0.0
  9
$USERR5
 40
0.0
  9
$WORLDVIEW
 70
     1
  9
$SHADEDGE
 70
     3
  9
$SHADEDIF
 70
    70
  9
$TILEMODE
 70
     1
  9
$MAXACTVP
 70
    64
  9
$PLIMCHECK
 70
     0
  9
$PEXTMIN
 10
1.0000000000000000E+20
 20
1.0000000000000000E+20
 30
1.0000000000000000E+20
  9
$PEXTMAX
 10
-1.0000000000000000E+20
 20
-1.0000000000000000E+20
 30
-1.0000000000000000E+20
  9
$PLIMMIN
 10
0.0
 20
0.0
  9
$PLIMMAX
 10
12.0
 20
9.0
  9
$UNITMODE
 70
     0
  9
$VISRETAIN
 70
     1
  9
$PLINEGEN
 70
     0
  9
$PSLTSCALE
 70
     1
  0
ENDSEC
  0
SECTION
  2
TABLES
  0
TABLE
  2
VPORT
 70
     1
  0
VPORT
  2
*ACTIVE
 70
     0
 10
0.0
 20
0.0
 11
1.0
 21
1.0
 12
439.6118760412318807
 22
174.9305931956463951
 13
0.0
 23
0.0
 14
1.0
 24
1.0
 15
0.0
 25
0.0
 16
0.0
 26
0.0
 36
60.4960186965801583
 17
3911.3653564453120453
 27
132.5796051025390057
 37
0.0
 40
10.4807827088521304
 41
1.926706827309236
 42
50.0
 43
0.0
 44
0.0
 50
0.0
 51
0.0
 71
     0
 72
   100
 73
     1
 74
     1
 75
     0
 76
     0
 77
     0
 78
     0
  0
ENDTAB
  0
TABLE
  2
LTYPE
 70
     2
  0
LTYPE
  2
CONTINUOUS
 70
     0
  3
Solid line
 72
    65
 73
     0
 40
0.0
  0
LTYPE
  2
PHANTOM2
 70
     0
  3
___ _ _ ___ _ _ ___ _ _ ___ _ _
 72
    65
 73
     6
 40
1.25
 49
0.625
 49
-0.125
 49
0.125
 49
-0.125
 49
0.125
 49
-0.125
  0
ENDTAB
  0
TABLE
  2
LAYER
 70
     2
  0
LAYER
  2
0
 70
     0
 62
   255
  6
CONTINUOUS
  0
LAYER
  2
DEFPOINTS
 70
     0
 62
     7
  6
CONTINUOUS
  0
ENDTAB
  0
TABLE
  2
STYLE
 70
     1
  0
STYLE
  2
STANDARD
 70
     0
 40
0.0
 41
0.8
 50
0.0
 71
     0
 42
0.2
  3
txt
  4

  0
ENDTAB
  0
TABLE
  2
VIEW
 70
     0
  0
ENDTAB
  0
TABLE
  2
UCS
 70
     0
  0
ENDTAB
  0
TABLE
  2
APPID
 70
    10
  0
APPID
  2
ACAD
 70
     0
  0
APPID
  2
ACAD_MLEADERVER
 70
     0
  0
APPID
  2
ACAD_EXEMPT_FROM_CAD_STANDARDS
 70
     0
  0
APPID
  2
ACAD_NAV_VCDISPLAY
 70
     0
  0
APPID
  2
ACAECLAYERSTANDARD
 70
     0
  0
APPID
  2
ACCMTRANSPARENCY
 70
     0
  0
APPID
  2
ACAD_DSTYLE_DIMJAG
 70
     0
  0
APPID
  2
ACAD_DSTYLE_DIMTALN
 70
     0
  0
APPID
  2
ACDBATTR
 70
     0
  0
APPID
  2
ACADANNOTATIVE
 70
     0
  0
ENDTAB
  0
TABLE
  2
DIMSTYLE
 70
     1
  0
DIMSTYLE
  2
STANDARD
 70
     0
  3

  4

  5

  6

  7

 40
1.0
 41
0.1875
 42
0.0625
 43
0.38
 44
0.125
 45
0.0
 46
0.0
 47
0.01
 48
0.01
140
0.15625
141
0.09
142
0.0
143
25.3999999999999986
144
1.0
145
0.0
146
1.0
147
0.09
 71
     1
 72
     0
 73
     1
 74
     1
 75
     0
 76
     0
 77
     0
 78
     4
170
     0
171
     2
172
     0
173
     0
174
     0
175
     0
176
     0
177
     0
178
     0
  0
ENDTAB
  0
ENDSEC
  0
SECTION
  2
BLOCKS
  0
BLOCK
  8
0
  2
$MODEL_SPACE
 70
     0
 10
0.0
 20
0.0
 30
0.0
  3
$MODEL_SPACE
  1

  0
ENDBLK
  5
21
  8
0
  0
BLOCK
 67
     1
  8
0
  2
$PAPER_SPACE
 70
     0
 10
0.0
 20
0.0
 30
0.0
  3
$PAPER_SPACE
  1

  0
ENDBLK
  5
1D
 67
     1
  8
0
  0
ENDSEC
  0
SECTION
  2
ENTITIES
  0
ATTDEF
  5
159BF
  8
0
 10
4350.9772522027487867
 20
302.3044885803096804
 30
0.0
 40
0.001
  1
K-37316IN-4
  3

  2
MODELNUMBER
 70
     0
1001
ACDBATTR
1070
     0
1070
     1
  0
ATTDEF
  5
159C0
  8
0
 10
4350.9771263930933856
 20
302.3028217399304935
 30
0.0
 40
0.001
  1
CUFF
  3

  2
TRADENAME
 70
     0
1001
ACDBATTR
1070
     0
1070
     1
  0
ATTDEF
  5
159C1
  8
0
 10
4350.9772522027487867
 20
302.3011552469764069
 30
0.0
 40
0.001
  1
KITCHEN SINK FAUCET
  3

  2
PRODUCT
 70
     0
1001
ACDBATTR
1070
     0
1070
     1
  0
LINE
  5
1B859
  8
0
 10
4350.5441616203434023
 20
310.1294338112186892
 30
0.0
 11
4350.5441616203434023
 21
306.8727846564946162
 31
0.0
  0
LINE
  5
1B85A
  8
0
 10
4351.410303352745359
 20
310.1294375857792147
 30
0.0
 11
4351.410303352745359
 21
306.8727846564946162
 31
0.0
  0
LINE
  5
1B85B
  8
0
 10
4350.5146340613446228
 20
306.4593988296945781
 30
0.0
 11
4350.5146340613446228
 21
306.8727846564946162
 31
0.0
  0
LINE
  5
1B85C
  8
0
 10
4350.5146340613446228
 20
306.8727846564946162
 30
0.0
 11
4351.4398309117432291
 21
306.8727846564946162
 31
0.0
  0
LINE
  5
1B85D
  8
0
 10
4351.4398309117432291
 20
306.8727846564946162
 30
0.0
 11
4351.4398309117432291
 21
306.4593988296945781
 31
0.0
  0
LINE
  5
1B85E
  8
0
 10
4350.3965745911436898
 20
306.4397137902947179
 30
0.0
 11
4351.5579132120446957
 21
306.4397137902947179
 31
0.0
  0
LINE
  5
1B85F
  8
0
 10
4350.3768858991443267
 20
306.4200287508945735
 30
0.0
 11
4350.3768630020449564
 21
305.5277660947945719
 31
0.0
  0
LINE
  5
1B860
  8
0
 10
4348.2990972440438782
 20
305.0814460737947229
 30
0.0
 11
4348.5921833857437377
 21
305.0814460737947229
 31
0.0
  0
LINE
  5
1B861
  8
0
 10
4349.190611776143669
 20
305.0814460737947229
 30
0.0
 11
4349.4575476072441234
 21
305.0814460737947229
 31
0.0
  0
LINE
  5
1B862
  8
0
 10
4349.4772324865443807
 20
305.0617624919946138
 30
0.0
 11
4349.4772324865443807
 21
303.7231785189947004
 31
0.0
  0
LINE
  5
1B863
  8
0
 10
4349.4575474981438674
 20
303.7034933178945835
 30
0.0
 11
4348.2990976077444429
 21
303.7034933178945835
 31
0.0
  0
LINE
  5
1B864
  8
0
 10
4349.5402246190442384
 20
303.7034933178945835
 30
0.0
 11
4349.8435852298443933
 21
303.7034725508946167
 31
0.0
  0
LINE
  5
1B865
  8
0
 10
4349.5402245179438978
 20
305.0814460737947229
 30
0.0
 11
4349.9307255597441326
 21
305.0814672916945938
 31
0.0
  0
LINE
  5
1B866
  8
0
 10
4350.288256108544374
 20
303.2398404935947269
 30
0.0
 11
4350.288256108544374
 21
302.4633358375946273
 31
0.0
  0
LINE
  5
1B867
  8
0
 10
4350.0126660920441282
 20
302.4633358375946273
 30
0.0
 11
4351.9417988809436793
 21
302.4633358375946273
 31
0.0
  0
LINE
  5
1B868
  8
0
 10
4349.9929805180436233
 20
302.4436507981945965
 30
0.0
 11
4349.9929805180436233
 21
302.3255405619946146
 31
0.0
  0
LINE
  5
1B869
  8
0
 10
4350.012665557344917
 20
302.3058555225945838
 30
0.0
 11
4351.9417988809436793
 21
302.3058555225945838
 31
0.0
  0
LINE
  5
1B86A
  8
0
 10
4348.7043881614436032
 20
306.935908519494717
 30
0.0
 11
4348.7043881040435735
 21
305.1936507341947049
 31
0.0
  0
LINE
  5
1B86B
  8
0
 10
4349.0784073657187037
 20
306.935908519494717
 30
0.0
 11
4349.0784072884443958
 21
305.1936432752946189
 31
0.0
  0
ARC
  5
1B86C
  8
0
 10
4348.2991258032725455
 20
305.0617434406258894
 30
0.0
 40
0.0197026538671491
 50
90.0830509376450976
 51
176.0005272183418867
  0
ARC
  5
1B86D
  8
0
 10
4348.2990688581166978
 20
303.7231873003274245
 30
0.0
 40
0.0196940034174098
 50
183.9856264720883132
 51
270.0836413453098999
  0
ARC
  5
1B86E
  8
0
 10
4357.9558907652453854
 20
304.3921170941945888
 30
0.0
 40
9.6996566265003175
 50
176.0332379433997971
 51
183.9626059720997091
  0
ARC
  5
1B86F
  8
0
 10
4348.592179560587283
 20
305.1936546172537987
 30
0.0
 40
0.1122085435243692
 50
270.0019531967409989
 51
359.9980172374122276
  0
ARC
  5
1B870
  8
0
 10
4349.1906159061727521
 20
305.1936546920284741
 30
0.0
 40
0.1122086183098717
 50
180.0058295938179924
 51
269.9978911313602907
  0
ARC
  5
1B871
  8
0
 10
4348.8913976637359156
 20
306.3317592444810771
 30
0.0
 40
1.2856192743061401
 50
256.5412329652949097
 51
283.4587670347050903
  0
ARC
  5
1B872
  8
0
 10
4349.0682760983308981
 20
306.9354865691481109
 30
0.0
 40
0.0101400503451347
 50
2.3848951182587159
 51
84.8594355183175679
  0
ARC
  5
1B873
  8
0
 10
4349.4575511582379477
 20
305.0617647456797954
 30
0.0
 40
0.0196813284351721
 50
359.9934391294074203
 51
90.010337562495323
  0
LINE
  5
1B874
  8
0
 10
4349.5205395731436511
 20
305.0617573571947219
 30
0.0
 11
4349.5205395731436511
 21
303.7231820059947154
 31
0.0
  0
ARC
  5
1B875
  8
0
 10
4349.4575502026318645
 20
303.7231756018376814
 30
0.0
 40
0.0196822841289197
 50
269.9921271481816234
 51
0.0084919401343631
  0
ARC
  5
1B876
  8
0
 10
4349.5402221038202697
 20
303.7231758493725238
 30
0.0
 40
0.0196825316385125
 50
179.9820780944127989
 51
270.0073218091893068
  0
ARC
  5
1B877
  8
0
 10
4349.5402217154305617
 20
305.0617639306100841
 30
0.0
 40
0.0196821433840147
 50
89.991841731711375
 51
180.0191355669639961
  0
ARC
  5
1B878
  8
0
 10
4349.9433381470553286
 20
305.5149967359758989
 30
0.0
 40
0.4337128732439502
 50
268.3335751384252035
 51
1.687144084395185
  0
ARC
  5
1B879
  8
0
 10
4350.396570939123194
 20
306.4200287506550922
 30
0.0
 40
0.0196850399783131
 50
89.9893703324787566
 51
179.9999993027718972
  0
ARC
  5
1B87A
  8
0
 10
4350.5343191005740664
 20
306.4593988295238773
 30
0.0
 40
0.0196850392292918
 50
179.9999995031323863
 51
270.0000373564010943
  0
ARC
  5
1B87B
  8
0
 10
4349.8549266828285909
 20
303.2692915652925194
 30
0.0
 40
0.4343290881512183
 50
356.1118931392645095
 51
91.4963106965860504
  0
ARC
  5
1B87C
  8
0
 10
4350.0126655572857999
 20
302.4436507983601814
 30
0.0
 40
0.0196850392416899
 50
89.9984435187409275
 51
180.0000004819250137
  0
ARC
  5
1B87D
  8
0
 10
4350.0126655572739764
 20
302.3255405618239138
 30
0.0
 40
0.0196850392292891
 50
179.9999995031290894
 51
270.0000002058353061
  0
LINE
  5
1B87E
  8
0
 10
4349.4772324865443807
 20
304.9830208768947273
 30
0.0
 11
4349.5205395731436511
 21
304.9830208768947273
 31
0.0
  0
LINE
  5
1B87F
  8
0
 10
4349.4772324865443807
 20
303.8019185146945915
 30
0.0
 11
4349.5205395731436511
 21
303.8019185146945915
 31
0.0
  0
LINE
  5
1B880
  8
0
 10
4351.5775790739453441
 20
306.4200287508945735
 30
0.0
 11
4351.5776019710447144
 21
305.5277660947945719
 31
0.0
  0
LINE
  5
1B881
  8
0
 10
4353.6553677290448832
 20
305.0814460737947229
 30
0.0
 11
4353.3622815873441141
 21
305.0814460737947229
 31
0.0
  0
LINE
  5
1B882
  8
0
 10
4352.7638531969441829
 20
305.0814460737947229
 30
0.0
 11
4352.4969173658437285
 21
305.0814460737947229
 31
0.0
  0
LINE
  5
1B883
  8
0
 10
4352.4772324865452902
 20
305.0617624919946138
 30
0.0
 11
4352.4772324865452902
 21
303.7231785189947004
 31
0.0
  0
LINE
  5
1B884
  8
0
 10
4352.4969174749448939
 20
303.7034933178945835
 30
0.0
 11
4353.6553673653443184
 21
303.7034933178945835
 31
0.0
  0
LINE
  5
1B885
  8
0
 10
4352.4142403540436135
 20
303.7034933178945835
 30
0.0
 11
4352.1108797432452775
 21
303.7034725508946167
 31
0.0
  0
LINE
  5
1B886
  8
0
 10
4352.4142404551448635
 20
305.0814460737947229
 30
0.0
 11
4352.0237394133437192
 21
305.0814672916945938
 31
0.0
  0
LINE
  5
1B887
  8
0
 10
4351.6662088645452968
 20
303.2398404935947269
 30
0.0
 11
4351.6662088645452968
 21
302.4633358375946273
 31
0.0
  0
LINE
  5
1B888
  8
0
 10
4351.961484455045138
 20
302.4436507981945965
 30
0.0
 11
4351.961484455045138
 21
302.3255405619946146
 31
0.0
  0
LINE
  5
1B889
  8
0
 10
4353.2500768116442487
 20
306.935908519494717
 30
0.0
 11
4353.2500768690442783
 21
305.1936507341947049
 31
0.0
  0
LINE
  5
1B88A
  8
0
 10
4352.8760576073691482
 20
306.935908519494717
 30
0.0
 11
4352.8760576846443655
 21
305.1936432752946189
 31
0.0
  0
ARC
  5
1B88B
  8
0
 10
4353.6553391698153064
 20
305.0617434406258894
 30
0.0
 40
0.0197026538671491
 50
3.9994727816580831
 51
89.9169490623549166
  0
ARC
  5
1B88C
  8
0
 10
4353.6553961149720635
 20
303.7231873003274245
 30
0.0
 40
0.0196940034174098
 50
269.9163586546902138
 51
356.0143735279116868
  0
ARC
  5
1B88D
  8
0
 10
4343.9985742078433759
 20
304.3921170941945888
 30
0.0
 40
9.6996566265003175
 50
356.0373940279001772
 51
3.9667620566002491
  0
ARC
  5
1B88E
  8
0
 10
4353.3622854125005688
 20
305.1936546172537987
 30
0.0
 40
0.1122085435243692
 50
180.0019827625878008
 51
269.9980468032590011
  0
ARC
  5
1B88F
  8
0
 10
4352.7638490669150997
 20
305.1936546920284741
 30
0.0
 40
0.1122086183098717
 50
270.0021088686395956
 51
359.9941704061819792
  0
ARC
  5
1B890
  8
0
 10
4353.0630673093537553
 20
306.3317592444810771
 30
0.0
 40
1.2856192743061401
 50
256.5412329652949097
 51
283.4587670347050903
  0
ARC
  5
1B891
  8
0
 10
4353.2399455442546241
 20
306.9354865691481109
 30
0.0
 40
0.0101400503451347
 50
2.3848951182587159
 51
84.8594355183175679
  0
ARC
  5
1B892
  8
0
 10
4352.4969138148499042
 20
305.0617647456797954
 30
0.0
 40
0.0196813284351721
 50
89.989662437504677
 51
180.0065608705926081
  0
LINE
  5
1B893
  8
0
 10
4352.4339253999442008
 20
305.0617573571947219
 30
0.0
 11
4352.4339253999442008
 21
303.7231820059947154
 31
0.0
  0
ARC
  5
1B894
  8
0
 10
4352.4969147704568968
 20
303.7231756018376814
 30
0.0
 40
0.0196822841289197
 50
179.9915080598655948
 51
270.0078728518183766
  0
ARC
  5
1B895
  8
0
 10
4352.4142428692675821
 20
303.7231758493725238
 30
0.0
 40
0.0196825316385125
 50
269.9926781908106932
 51
0.0179219055872171
  0
ARC
  5
1B896
  8
0
 10
4352.4142432576581996
 20
305.0617639306100841
 30
0.0
 40
0.0196821433840147
 50
359.9808644330360039
 51
90.008158268288625
  0
ARC
  5
1B897
  8
0
 10
4352.0111268260343422
 20
305.5149967359758989
 30
0.0
 40
0.4337128732439502
 50
178.3128559156048141
 51
271.6664248615749102
  0
ARC
  5
1B898
  8
0
 10
4351.5578940339655674
 20
306.4200287506550922
 30
0.0
 40
0.0196850399783131
 50
0.0000006972280679
 51
90.010629667521286
  0
ARC
  5
1B899
  8
0
 10
4351.4201458725146949
 20
306.4593988295238773
 30
0.0
 40
0.0196850392292918
 50
269.9999626435989057
 51
0.0000004968675754
  0
ARC
  5
1B89A
  8
0
 10
4352.099538290259261
 20
303.2692915652925194
 30
0.0
 40
0.4343290881512183
 50
88.503689303413978
 51
183.8881068607354905
  0
ARC
  5
1B89B
  8
0
 10
4351.9417994158029614
 20
302.4436507983601814
 30
0.0
 40
0.0196850392416899
 50
359.9999995180750147
 51
90.0015564812590725
  0
ARC
  5
1B89C
  8
0
 10
4351.9417994158138754
 20
302.3255405618239138
 30
0.0
 40
0.0196850392292891
 50
269.9999997941646939
 51
0.0000004968708323
  0
LINE
  5
1B89D
  8
0
 10
4352.4772324865452902
 20
304.9830208768947273
 30
0.0
 11
4352.4339253999442008
 21
304.9830208768947273
 31
0.0
  0
LINE
  5
1B89E
  8
0
 10
4352.4772324865452902
 20
303.8019185146945915
 30
0.0
 11
4352.4339253999442008
 21
303.8019185146945915
 31
0.0
  0
ARC
  5
1B89F
  8
0
 10
4350.9772324865443807
 20
312.2861704831947236
 30
0.0
 40
0.4330708662000005
 50
0.0000000066147395
 51
179.9999999933851882
  0
LINE
  5
1B8A0
  8
0
 10
4351.410303352745359
 20
312.2861704832445753
 30
0.0
 11
4351.410303352745359
 21
310.7765347418402939
 31
0.0
  0
LINE
  5
1B8A1
  8
0
 10
4350.5441616203434023
 20
312.2861704832445753
 30
0.0
 11
4350.5441616203434023
 21
310.7765347418426813
 31
0.0
  0
ARC
  5
1B8A2
  8
0
 10
4352.8861889061572583
 20
306.9354865691481109
 30
0.0
 40
0.0101400503451347
 50
95.1405644816824321
 51
177.615104881741189
  0
ARC
  5
1B8A3
  8
0
 10
4353.063067225206396
 20
304.2874767105238902
 30
0.0
 40
2.6640481012751902
 50
86.1734875737472237
 51
93.8265124262527763
  0
ARC
  5
1B8A4
  8
0
 10
4348.7145194129234369
 20
306.9354865691481109
 30
0.0
 40
0.0101400503451347
 50
95.1405644816824321
 51
177.615104881741189
  0
ARC
  5
1B8A5
  8
0
 10
4348.8913977556258033
 20
304.2874760024154739
 30
0.0
 40
2.664048809383555
 50
86.1734880824868128
 51
93.8265119175131872
  0
LINE
  5
1B8A6
  8
0
 10
4351.4329411479948249
 20
310.7168018379946943
 30
0.0
 11
4351.4329411479948249
 21
310.3046868843945845
 31
0.0
  0
ARC
  5
1B8A7
  8
0
 10
4350.803205176353913
 20
310.2969461445306933
 30
0.0
 40
0.6297835445865615
 50
340.7108987891064089
 51
0.7042465559408666
  0
ARC
  5
1B8A8
  8
0
 10
4350.9772325122348775
 20
310.8616927753213872
 30
0.0
 40
0.9286450362321113
 50
255.5368081964473106
 51
284.4631461838631026
  0
ARC
  5
1B8A9
  8
0
 10
4351.2434803901696796
 20
310.1581055386091066
 30
0.0
 40
0.1689738027818323
 50
296.8572565626229789
 51
335.8250544552415136
  0
ARC
  5
1B8AA
  8
0
 10
4351.0878650234963061
 20
310.420382552748606
 30
0.0
 40
0.4736994372453279
 50
284.8373818619708118
 51
299.3183582216981904
  0
ARC
  5
1B8AB
  8
0
 10
4350.9772323183879053
 20
310.8110767588510157
 30
0.0
 40
0.8684919038563023
 50
254.7786872412710864
 51
285.2213326088246959
  0
ARC
  5
1B8AC
  8
0
 10
4350.9772324865443807
 20
309.4093577544076084
 30
0.0
 40
0.8684931625870339
 50
74.7786983461048465
 51
105.2213016538950967
  0
ARC
  5
1B8AD
  8
0
 10
4351.2942905116879047
 20
310.1102661407387018
 30
0.0
 40
0.0795925910335543
 50
317.4212840741543005
 51
43.2071332334326073
  0
ARC
  5
1B8AE
  8
0
 10
4351.1335764781642865
 20
309.9476489018363736
 30
0.0
 40
0.3081854875825375
 50
44.7872421967277603
 51
76.551115716987681
  0
ARC
  5
1B8AF
  8
0
 10
4351.1362508717020319
 20
310.2676977713443875
 30
0.0
 40
0.3026171707702164
 50
283.1805076230173768
 51
315.7180611721980199
  0
LINE
  5
1B8B0
  8
0
 10
4351.3453427225122141
 20
310.1715536863109719
 30
0.0
 11
4351.3453427083941278
 21
310.1190948465946917
 31
0.0
  0
ARC
  5
1B8B1
  8
0
 10
4351.2555794501868149
 20
310.1208382876754968
 30
0.0
 40
0.0897801877411314
 50
322.6970098464420857
 51
358.887303563307114
  0
ARC
  5
1B8B2
  8
0
 10
4350.9772337109088767
 20
310.6896406078590758
 30
0.0
 40
0.7351651035653469
 50
248.5319952692090908
 51
291.4680047307908808
  0
ARC
  5
1B8B3
  8
0
 10
4351.1640316577631893
 20
310.1983054352784279
 30
0.0
 40
0.2096384747117922
 50
293.1029718460976028
 51
321.0186858178927878
  0
ARC
  5
1B8B4
  8
0
 10
4350.9772292917532468
 20
309.4789943115372921
 30
0.0
 40
0.7714425895987019
 50
77.173890999298095
 51
102.826109000701905
  0
ARC
  5
1B8B5
  8
0
 10
4351.2549899164359886
 20
310.104864140630923
 30
0.0
 40
0.0667295788758676
 50
324.1028394815152751
 51
35.897160518484732
  0
ARC
  5
1B8B6
  8
0
 10
4350.9772301031825918
 20
309.5680202383896926
 30
0.0
 40
0.6757215867227498
 50
72.5075243800250888
 51
107.492475619974897
  0
ARC
  5
1B8B7
  8
0
 10
4350.9772304923208139
 20
310.6823757370020758
 30
0.0
 40
0.7056813321101048
 50
256.9478740878191729
 51
283.0521259121807134
  0
ARC
  5
1B8B8
  8
0
 10
4351.2328145566725652
 20
310.1100951177841125
 30
0.0
 40
0.0603621750089799
 50
325.6283896936697033
 51
30.8187444723684898
  0
ARC
  5
1B8B9
  8
0
 10
4351.1295557604125861
 20
310.0265186291114219
 30
0.0
 40
0.1927842855563375
 50
36.4367980289143603
 51
74.7269492711007075
  0
ARC
  5
1B8BA
  8
0
 10
4351.166284204880867
 20
310.1569685483547119
 30
0.0
 40
0.1417431531517205
 50
298.8491361251549279
 51
325.1721112033984014
  0
ARC
  5
1B8BB
  8
0
 10
4351.0563583976299924
 20
310.3484953025309778
 30
0.0
 40
0.3625605512564106
 50
282.7864839699939239
 51
299.4608302563859752
  0
ARC
  5
1B8BC
  8
0
 10
4351.2512067099742126
 20
310.1269733688243946
 30
0.0
 40
0.0610526381043612
 50
343.6443398558650983
 51
14.3651881211566597
  0
ARC
  5
1B8BD
  8
0
 10
4351.1816777604053641
 20
310.1558400343295148
 30
0.0
 40
0.1361376152655883
 50
295.1013900773243108
 51
340.2272192193393039
  0
ARC
  5
1B8BE
  8
0
 10
4351.0205843195908528
 20
310.4501360313387863
 30
0.0
 40
0.4714485496058362
 50
273.4454880657742137
 51
297.6583928653698194
  0
ARC
  5
1B8BF
  8
0
 10
4351.0963212708629726
 20
309.9437154743803831
 30
0.0
 40
0.2921668353074515
 50
43.2733265294885499
 51
79.7154121670292426
  0
ARC
  5
1B8C0
  8
0
 10
4351.1533583739656024
 20
310.1867738914556867
 30
0.0
 40
0.1972006362077029
 50
287.9573154614694204
 51
322.1375400469128749
  0
ARC
  5
1B8C1
  8
0
 10
4350.9826947220790316
 20
310.6501996101945906
 30
0.0
 40
0.690942717187041
 50
269.5470445016987924
 51
289.5722256283067964
  0
LINE
  5
1B8C2
  8
0
 10
4351.2815666890937791
 20
310.1450869989192256
 30
0.0
 11
4351.2815666890937791
 21
310.1285934716946144
 31
0.0
  0
LINE
  5
1B8C3
  8
0
 10
4351.2799414346818594
 20
310.1471417186590998
 30
0.0
 11
4351.2665582403942608
 21
310.1456262027945741
 31
0.0
  0
LINE
  5
1B8C4
  8
0
 10
4351.2918560517209698
 20
310.1226527463165894
 30
0.0
 11
4351.2818428297941864
 21
310.1215188468946167
 31
0.0
  0
LINE
  5
1B8C5
  8
0
 10
4351.2770741104941408
 20
310.1222081173946208
 30
0.0
 11
4351.2551770838954326
 21
310.131462200794715
 31
0.0
  0
LINE
  5
1B8C6
  8
0
 10
4351.2551770838954326
 20
310.131462200794715
 30
0.0
 11
4351.2247999660949063
 21
310.1279783934945726
 31
0.0
  0
LINE
  5
1B8C7
  8
0
 10
4351.2398084145943358
 20
310.1296996411386999
 30
0.0
 11
4351.2398084145943358
 21
310.1109456622946254
 31
0.0
  0
LINE
  5
1B8C8
  8
0
 10
4351.2200312467948606
 20
310.1286676639945767
 30
0.0
 11
4351.1981342202943779
 21
310.1379217472946266
 31
0.0
  0
LINE
  5
1B8C9
  8
0
 10
4351.2102103114948477
 20
310.1328181705945894
 30
0.0
 11
4351.2102103114948477
 21
310.1205130595947139
 31
0.0
  0
LINE
  5
1B8CA
  8
0
 10
4351.1827655507941017
 20
310.136159187582507
 30
0.0
 11
4351.1827655507941017
 21
310.1174052087947075
 31
0.0
  0
LINE
  5
1B8CB
  8
0
 10
4351.1689060774451718
 20
310.1345697104090959
 30
0.0
 11
4351.1619848985938006
 21
310.1236533998945788
 31
0.0
  0
LINE
  5
1B8CC
  8
0
 10
4351.1531674476937042
 20
310.1392777170946147
 30
0.0
 11
4351.1531674476937042
 21
310.126972606194613
 31
0.0
  0
LINE
  5
1B8CD
  8
0
 10
4351.156375945794025
 20
310.1202739379946252
 30
0.0
 11
4351.1782729722935983
 21
310.1110198546945753
 31
0.0
  0
LINE
  5
1B8CE
  8
0
 10
4351.1830416915936439
 20
310.1103305840945836
 30
0.0
 11
4351.213589093094015
 21
310.1137897785945938
 31
0.0
  0
LINE
  5
1B8CF
  8
0
 10
4351.213589093094015
 20
310.1137897785945938
 30
0.0
 11
4351.2353153711937921
 21
310.1045623983945916
 31
0.0
  0
LINE
  5
1B8D0
  8
0
 10
4351.2400845551937891
 20
310.1038710374946277
 30
0.0
 11
4351.270631956894249
 21
310.107330231994581
 31
0.0
  0
LINE
  5
1B8D1
  8
0
 10
4351.270631956894249
 20
310.107330231994581
 30
0.0
 11
4351.29008573561714
 21
310.0990615890385129
 31
0.0
  0
LINE
  5
1B8D2
  8
0
 10
4351.2829906709512215
 20
310.1216488286762001
 30
0.0
 11
4351.2760706260942243
 21
310.1107343067947113
 31
0.0
  0
LINE
  5
1B8D3
  8
0
 10
4351.2770741104941408
 20
310.1222081173946208
 30
0.0
 11
4351.2791002951944392
 21
310.1217756430946224
 31
0.0
  0
LINE
  5
1B8D4
  8
0
 10
4351.2353153711937921
 20
310.1045623983945916
 30
0.0
 11
4351.2373420206940864
 21
310.1041278336945766
 31
0.0
  0
LINE
  5
1B8D5
  8
0
 10
4351.2200312467948606
 20
310.1286676639945767
 30
0.0
 11
4351.2220574314951591
 21
310.1282351896946921
 31
0.0
  0
LINE
  5
1B8D6
  8
0
 10
4351.1782729722935983
 20
310.1110198546945753
 30
0.0
 11
4351.1802991569948063
 21
310.1105873802945894
 31
0.0
  0
LINE
  5
1B8D7
  8
0
 10
4351.1981342202943779
 20
310.1379217472946266
 30
0.0
 11
4351.1677571021946278
 21
310.134437939894724
 31
0.0
  0
LINE
  5
1B8D8
  8
0
 10
4351.2106643520046418
 20
310.1522175199017965
 30
0.0
 11
4351.203743172994109
 21
310.1413012091945802
 31
0.0
  0
LINE
  5
1B8D9
  8
0
 10
4351.1949257221949665
 20
310.1569265709708247
 30
0.0
 11
4351.1949257221949665
 21
310.144620415594602
 31
0.0
  0
LINE
  5
1B8DA
  8
0
 10
4351.1674809615951744
 20
310.1602665435386825
 30
0.0
 11
4351.1674809615951744
 21
310.1415125647945956
 31
0.0
  0
LINE
  5
1B8DB
  8
0
 10
4351.1536214882380591
 20
310.1586770663943753
 30
0.0
 11
4351.1467003092939194
 21
310.1477607557947067
 31
0.0
  0
LINE
  5
1B8DC
  8
0
 10
4351.137882858393823
 20
310.1633850730946165
 30
0.0
 11
4351.137882858393823
 21
310.1510799620946841
 31
0.0
  0
LINE
  5
1B8DD
  8
0
 10
4351.1650145676949251
 20
310.1346947361947173
 30
0.0
 11
4351.1629883829937171
 21
310.1351272104947157
 31
0.0
  0
LINE
  5
1B8DE
  8
0
 10
4351.1629883829937171
 20
310.1351272104947157
 30
0.0
 11
4351.1410913563940994
 21
310.144381293794595
 31
0.0
  0
LINE
  5
1B8DF
  8
0
 10
4351.1410913563940994
 20
310.144381293794595
 30
0.0
 11
4351.1107142385935731
 21
310.1408974864946231
 31
0.0
  0
LINE
  5
1B8E0
  8
0
 10
4351.1079717038937815
 20
310.141154282694572
 30
0.0
 11
4351.1059450544944411
 21
310.1415888473947007
 31
0.0
  0
LINE
  5
1B8E1
  8
0
 10
4351.1059450544944411
 20
310.1415888473947007
 30
0.0
 11
4351.084218776394664
 21
310.1508162275945892
 31
0.0
  0
LINE
  5
1B8E2
  8
0
 10
4351.084218776394664
 20
310.1508162275945892
 30
0.0
 11
4351.053671374795158
 21
310.147357033094579
 31
0.0
  0
LINE
  5
1B8E3
  8
0
 10
4351.0808399946936333
 20
310.1698446195946985
 30
0.0
 11
4351.0808399946936333
 21
310.1575395086946969
 31
0.0
  0
LINE
  5
1B8E4
  8
0
 10
4351.0533952340947508
 20
310.1731856366445186
 30
0.0
 11
4351.0533952340947508
 21
310.1544316578945768
 31
0.0
  0
LINE
  5
1B8E5
  8
0
 10
4351.0686798232945875
 20
310.1490565930947128
 30
0.0
 11
4351.0686798232945875
 21
310.130324301894575
 31
0.0
  0
LINE
  5
1B8E6
  8
0
 10
4351.0993330820938354
 20
310.1267334844945935
 30
0.0
 11
4351.0689559639940853
 21
310.1232496770946909
 31
0.0
  0
LINE
  5
1B8E7
  8
0
 10
4351.0662134293943382
 20
310.1235064733946274
 30
0.0
 11
4351.0641872447931746
 21
310.1239389477946133
 31
0.0
  0
LINE
  5
1B8E8
  8
0
 10
4351.0641872447931746
 20
310.1239389477946133
 30
0.0
 11
4351.0422902182936014
 21
310.1331930309946188
 31
0.0
  0
LINE
  5
1B8E9
  8
0
 10
4351.0422902182936014
 20
310.1331930309946188
 30
0.0
 11
4351.0119131002948052
 21
310.1297092236947037
 31
0.0
  0
LINE
  5
1B8EA
  8
0
 10
4351.0119131002948052
 20
310.1297092236947037
 30
0.0
 11
4351.0109111536949058
 21
310.1297674311945798
 31
0.0
  0
LINE
  5
1B8EB
  8
0
 10
4351.0109111536949058
 20
310.1297674311945798
 30
0.0
 11
4351.0101661992939626
 21
310.1300039409946976
 31
0.0
  0
LINE
  5
1B8EC
  8
0
 10
4351.0116369595943979
 20
310.1555378272331041
 30
0.0
 11
4351.0116369595943979
 21
310.1367838484947015
 31
0.0
  0
LINE
  5
1B8ED
  8
0
 10
4351.03908172019419
 20
310.1521968102946971
 30
0.0
 11
4351.03908172019419
 21
310.1398916992947079
 31
0.0
  0
LINE
  5
1B8EE
  8
0
 10
4351.0509288401935919
 20
310.1476138292945848
 30
0.0
 11
4351.0489026554942029
 21
310.1480463036946276
 31
0.0
  0
LINE
  5
1B8EF
  8
0
 10
4351.0489026554942029
 20
310.1480463036946276
 30
0.0
 11
4351.0270056290937646
 21
310.1573003868945761
 31
0.0
  0
LINE
  5
1B8F0
  8
0
 10
4351.0270056290937646
 20
310.1573003868945761
 30
0.0
 11
4350.9966285109940145
 21
310.153816579594718
 31
0.0
  0
LINE
  5
1B8F1
  8
0
 10
4350.9938859763942673
 20
310.1540733757947237
 30
0.0
 11
4350.9918597916948784
 21
310.1545058502945835
 31
0.0
  0
LINE
  5
1B8F2
  8
0
 10
4350.9918597916948784
 20
310.1545058502945835
 30
0.0
 11
4350.96996276529444
 21
310.1637599334945889
 31
0.0
  0
LINE
  5
1B8F3
  8
0
 10
4350.96996276529444
 20
310.1637599334945889
 30
0.0
 11
4350.9395856472947344
 21
310.1602761261946171
 31
0.0
  0
LINE
  5
1B8F4
  8
0
 10
4350.9368431126940777
 20
310.1605329223946228
 30
0.0
 11
4350.9348169279946887
 21
310.1609653967947224
 31
0.0
  0
LINE
  5
1B8F5
  8
0
 10
4350.9348169279946887
 20
310.1609653967947224
 30
0.0
 11
4350.912919901494206
 21
310.1702194800946017
 31
0.0
  0
LINE
  5
1B8F6
  8
0
 10
4350.912919901494206
 20
310.1702194800946017
 30
0.0
 11
4350.8825427834935908
 21
310.1667356726946991
 31
0.0
  0
LINE
  5
1B8F7
  8
0
 10
4350.8777740641944547
 20
310.1674249432945771
 30
0.0
 11
4350.8558770376948814
 21
310.176679026594627
 31
0.0
  0
LINE
  5
1B8F8
  8
0
 10
4350.8558770376948814
 20
310.176679026594627
 30
0.0
 11
4350.8254999197943107
 21
310.1731952192947119
 31
0.0
  0
LINE
  5
1B8F9
  8
0
 10
4350.8207312004942651
 20
310.1738844898945899
 30
0.0
 11
4350.7988341739937823
 21
310.1831385731946966
 31
0.0
  0
LINE
  5
1B8FA
  8
0
 10
4350.7988341739937823
 20
310.1831385731946966
 30
0.0
 11
4350.7684570558940322
 21
310.1796547657946235
 31
0.0
  0
LINE
  5
1B8FB
  8
0
 10
4350.763688336694031
 20
310.1803440363946152
 30
0.0
 11
4350.7417913101935483
 21
310.1895981196947218
 31
0.0
  0
LINE
  5
1B8FC
  8
0
 10
4350.7417913101935483
 20
310.1895981196947218
 30
0.0
 11
4350.7178462753399799
 21
310.1868411422109943
 31
0.0
  0
LINE
  5
1B8FD
  8
0
 10
4350.7681809152936694
 20
310.2054833694330114
 30
0.0
 11
4350.7681809152936694
 21
310.1867293905946212
 31
0.0
  0
LINE
  5
1B8FE
  8
0
 10
4351.2062472152592818
 20
310.2033920344359217
 30
0.0
 11
4351.1789461982943976
 21
310.2003004611946153
 31
0.0
  0
LINE
  5
1B8FF
  8
0
 10
4351.174177478994352
 20
310.2009897317947207
 30
0.0
 11
4351.1522804523947343
 21
310.2102438150946
 31
0.0
  0
LINE
  5
1B900
  8
0
 10
4351.1522804523947343
 20
310.2102438150946
 30
0.0
 11
4351.1219033344941636
 21
310.2067600077946281
 31
0.0
  0
LINE
  5
1B901
  8
0
 10
4351.1171346151941179
 20
310.2074492782945754
 30
0.0
 11
4351.0952375886936352
 21
310.2167033615946252
 31
0.0
  0
LINE
  5
1B902
  8
0
 10
4351.0952375886936352
 20
310.2167033615946252
 30
0.0
 11
4351.064860470694839
 21
310.2132195542945965
 31
0.0
  0
LINE
  5
1B903
  8
0
 10
4351.0030488876946038
 20
310.2203683713947271
 30
0.0
 11
4350.9811518610940766
 21
310.2296224546947201
 31
0.0
  0
LINE
  5
1B904
  8
0
 10
4350.9811518610940766
 20
310.2296224546947201
 30
0.0
 11
4350.9507747432953693
 21
310.2261386473946914
 31
0.0
  0
LINE
  5
1B905
  8
0
 10
4350.9460060239953236
 20
310.2268279179946262
 30
0.0
 11
4350.9241089973947965
 21
310.2360820011945748
 31
0.0
  0
LINE
  5
1B906
  8
0
 10
4350.9241089973947965
 20
310.2360820011945748
 30
0.0
 11
4350.8937318792950464
 21
310.2325981938947166
 31
0.0
  0
LINE
  5
1B907
  8
0
 10
4350.8889631600941357
 20
310.2332874645945822
 30
0.0
 11
4350.8806439834688717
 21
310.2368033005568009
 31
0.0
  0
LINE
  5
1B908
  8
0
 10
4351.2577877158109914
 20
310.1704712128752135
 30
0.0
 11
4351.2512736512935589
 21
310.1697335586945883
 31
0.0
  0
LINE
  5
1B909
  8
0
 10
4351.2485311166938118
 20
310.1699903549945816
 30
0.0
 11
4351.2465049319944228
 21
310.1704228292946937
 31
0.0
  0
LINE
  5
1B90A
  8
0
 10
4351.2465049319944228
 20
310.1704228292946937
 30
0.0
 11
4351.2246079054948495
 21
310.179676912594573
 31
0.0
  0
LINE
  5
1B90B
  8
0
 10
4351.2246079054948495
 20
310.179676912594573
 30
0.0
 11
4351.19423078739419
 21
310.1761931051947272
 31
0.0
  0
LINE
  5
1B90C
  8
0
 10
4351.1914882528953967
 20
310.1764499014947205
 30
0.0
 11
4351.1894616033941929
 21
310.1768844660945774
 31
0.0
  0
LINE
  5
1B90D
  8
0
 10
4351.1894616033941929
 20
310.1768844660945774
 30
0.0
 11
4351.167565041693706
 21
310.1861364590947119
 31
0.0
  0
LINE
  5
1B90E
  8
0
 10
4351.167565041693706
 20
310.1861364590947119
 30
0.0
 11
4351.1371879236940003
 21
310.1826526517946263
 31
0.0
  0
LINE
  5
1B90F
  8
0
 10
4351.1344453890942532
 20
310.1829094479945752
 30
0.0
 11
4351.1324192044949086
 21
310.183341922394618
 31
0.0
  0
LINE
  5
1B910
  8
0
 10
4351.1324192044949086
 20
310.183341922394618
 30
0.0
 11
4351.1105221779944259
 21
310.1925960056947247
 31
0.0
  0
LINE
  5
1B911
  8
0
 10
4351.1105221779944259
 20
310.1925960056947247
 30
0.0
 11
4351.0801450598946758
 21
310.189112198394696
 31
0.0
  0
LINE
  5
1B912
  8
0
 10
4351.0753763406937651
 20
310.189801468994574
 30
0.0
 11
4351.0534793140941474
 21
310.1990555522946238
 31
0.0
  0
LINE
  5
1B913
  8
0
 10
4350.9964364503948673
 20
310.2055150987947059
 30
0.0
 11
4350.966059332495206
 21
310.2020312914946203
 31
0.0
  0
LINE
  5
1B914
  8
0
 10
4350.9612906131942509
 20
310.2027205620947257
 30
0.0
 11
4350.9393935867938126
 21
310.2119746453947187
 31
0.0
  0
LINE
  5
1B915
  8
0
 10
4350.9393935867938126
 20
310.2119746453947187
 30
0.0
 11
4350.909016468694972
 21
310.2084908379945887
 31
0.0
  0
LINE
  5
1B916
  8
0
 10
4350.9042477493949264
 20
310.209180108594694
 30
0.0
 11
4350.8823507228944436
 21
310.2184341918945734
 31
0.0
  0
LINE
  5
1B917
  8
0
 10
4350.8823507228944436
 20
310.2184341918945734
 30
0.0
 11
4350.8519736049947824
 21
310.2149503845947152
 31
0.0
  0
LINE
  5
1B918
  8
0
 10
4350.8472048856938272
 20
310.2156396551947068
 30
0.0
 11
4350.825307859194254
 21
310.2248937384945862
 31
0.0
  0
LINE
  5
1B919
  8
0
 10
4350.825307859194254
 20
310.2248937384945862
 30
0.0
 11
4350.8129126921321586
 21
310.2234586040569866
 31
0.0
  0
LINE
  5
1B91A
  8
0
 10
4351.2638157058936486
 20
310.1458829989946935
 30
0.0
 11
4351.2617890563942638
 21
310.1463175636947085
 31
0.0
  0
LINE
  5
1B91B
  8
0
 10
4351.2617890563942638
 20
310.1463175636947085
 30
0.0
 11
4351.2398924946946863
 21
310.1555695566946156
 31
0.0
  0
LINE
  5
1B91C
  8
0
 10
4351.2398924946946863
 20
310.1555695566946156
 30
0.0
 11
4351.2095153767941156
 21
310.1520857493945869
 31
0.0
  0
LINE
  5
1B91D
  8
0
 10
4351.2067728421952779
 20
310.1523425455947063
 30
0.0
 11
4351.2047461926940741
 21
310.15277711019462
 31
0.0
  0
LINE
  5
1B91E
  8
0
 10
4351.2047461926940741
 20
310.15277711019462
 30
0.0
 11
4351.1828496308944523
 21
310.1620291031946977
 31
0.0
  0
LINE
  5
1B91F
  8
0
 10
4351.1828496308944523
 20
310.1620291031946977
 30
0.0
 11
4351.1524725130948354
 21
310.1585452958947258
 31
0.0
  0
LINE
  5
1B920
  8
0
 10
4351.1497299783941344
 20
310.1588020920946178
 30
0.0
 11
4351.147703328994794
 21
310.159236656794576
 31
0.0
  0
LINE
  5
1B921
  8
0
 10
4351.147703328994794
 20
310.159236656794576
 30
0.0
 11
4351.1258067671942626
 21
310.1684886497947105
 31
0.0
  0
LINE
  5
1B922
  8
0
 10
4351.1258067671942626
 20
310.1684886497947105
 30
0.0
 11
4351.0954296491936475
 21
310.1650048423945805
 31
0.0
  0
LINE
  5
1B923
  8
0
 10
4351.0926871145939003
 20
310.1652616386945738
 30
0.0
 11
4351.0906604651936505
 21
310.1656962032947149
 31
0.0
  0
LINE
  5
1B924
  8
0
 10
4351.0906604651936505
 20
310.1656962032947149
 30
0.0
 11
4351.0687639033949381
 21
310.174948196294622
 31
0.0
  0
LINE
  5
1B925
  8
0
 10
4351.0687639033949381
 20
310.174948196294622
 30
0.0
 11
4351.0383867854952769
 21
310.1714643889945933
 31
0.0
  0
LINE
  5
1B926
  8
0
 10
4351.0356442508937107
 20
310.171721185194599
 30
0.0
 11
4351.0336180661943217
 21
310.172153659594585
 31
0.0
  0
LINE
  5
1B927
  8
0
 10
4351.0336180661943217
 20
310.172153659594585
 30
0.0
 11
4351.0117210397947929
 21
310.181407742894578
 31
0.0
  0
LINE
  5
1B928
  8
0
 10
4351.0117210397947929
 20
310.181407742894578
 30
0.0
 11
4350.9813439216941333
 21
310.1779239355947198
 31
0.0
  0
LINE
  5
1B929
  8
0
 10
4350.9765752024932226
 20
310.1786132061945978
 30
0.0
 11
4350.9546781759936493
 21
310.1878672894947044
 31
0.0
  0
LINE
  5
1B92A
  8
0
 10
4350.9546781759936493
 20
310.1878672894947044
 30
0.0
 11
4350.9243010580948976
 21
310.1843834820945744
 31
0.0
  0
LINE
  5
1B92B
  8
0
 10
4350.919532338794852
 20
310.185072752694623
 30
0.0
 11
4350.8976353122952787
 21
310.194326835994616
 31
0.0
  0
LINE
  5
1B92C
  8
0
 10
4350.8976353122952787
 20
310.194326835994616
 30
0.0
 11
4350.8672581941937096
 21
310.1908430285947134
 31
0.0
  0
LINE
  5
1B92D
  8
0
 10
4350.862489474893664
 20
310.1915322992946926
 30
0.0
 11
4350.8405924484941352
 21
310.200786382494698
 31
0.0
  0
LINE
  5
1B92E
  8
0
 10
4350.8405924484941352
 20
310.200786382494698
 30
0.0
 11
4350.8102153304944295
 21
310.1973025751946125
 31
0.0
  0
LINE
  5
1B92F
  8
0
 10
4350.8054466111943839
 20
310.1979918457947178
 30
0.0
 11
4350.7835495846939011
 21
310.2072459290947108
 31
0.0
  0
LINE
  5
1B930
  8
0
 10
4350.7835495846939011
 20
310.2072459290947108
 30
0.0
 11
4350.7476004581476445
 21
310.2031230946013238
 31
0.0
  0
LINE
  5
1B931
  8
0
 10
4350.8373839503938143
 20
310.2197901617947196
 30
0.0
 11
4350.8373839503938143
 21
310.2074850507946167
 31
0.0
  0
LINE
  5
1B932
  8
0
 10
4350.8099391896939778
 20
310.222705974470216
 30
0.0
 11
4350.8099391896939778
 21
310.2043771999947239
 31
0.0
  0
LINE
  5
1B933
  8
0
 10
4350.7543203078430452
 20
310.203892103568819
 30
0.0
 11
4350.7474002629942333
 21
310.1929775815946186
 31
0.0
  0
LINE
  5
1B934
  8
0
 10
4350.726422640794226
 20
310.1878286056493153
 30
0.0
 11
4350.726422640794226
 21
310.1690815812946198
 31
0.0
  0
LINE
  5
1B935
  8
0
 10
4350.7538674013949276
 20
310.1844945429946279
 30
0.0
 11
4350.7538674013949276
 21
310.1721894319945818
 31
0.0
  0
LINE
  5
1B936
  8
0
 10
4351.0645843299953412
 20
310.2380716556864968
 30
0.0
 11
4351.0645843299953412
 21
310.2202941790947079
 31
0.0
  0
LINE
  5
1B937
  8
0
 10
4351.0920290905942238
 20
310.233918770639491
 30
0.0
 11
4351.0920290905942238
 21
310.2234020298947144
 31
0.0
  0
LINE
  5
1B938
  8
0
 10
4351.1216271937937563
 20
310.2281332158307805
 30
0.0
 11
4351.1216271937937563
 21
310.2138346324946951
 31
0.0
  0
LINE
  5
1B939
  8
0
 10
4351.1490719543935484
 20
310.2215261992924979
 30
0.0
 11
4351.1490719543935484
 21
310.2169424832945879
 31
0.0
  0
LINE
  5
1B93A
  8
0
 10
4351.1786700574948554
 20
310.213017608593816
 30
0.0
 11
4351.1786700574948554
 21
310.2073750859946131
 31
0.0
  0
LINE
  5
1B93B
  8
0
 10
4351.1939546467938271
 20
310.2020000211945785
 30
0.0
 11
4351.1939546467938271
 21
310.1832677300947125
 31
0.0
  0
LINE
  5
1B93C
  8
0
 10
4351.2213994073936192
 20
310.1960194411053067
 30
0.0
 11
4351.2213994073936192
 21
310.186375580894719
 31
0.0
  0
LINE
  5
1B93D
  8
0
 10
4351.2366839966944099
 20
310.1745733358947064
 30
0.0
 11
4351.2366839966944099
 21
310.1622682248946035
 31
0.0
  0
LINE
  5
1B93E
  8
0
 10
4351.2092392360937083
 20
310.1779143528939926
 30
0.0
 11
4351.2092392360937083
 21
310.1591603740947107
 31
0.0
  0
LINE
  5
1B93F
  8
0
 10
4351.2662820997938979
 20
310.1624292205927986
 30
0.0
 11
4351.2662820997938979
 21
310.1527008275945718
 31
0.0
  0
LINE
  5
1B940
  8
0
 10
4351.2519685858942466
 20
310.1504670244897852
 30
0.0
 11
4351.2519685859942911
 21
310.1381608689945892
 31
0.0
  0
LINE
  5
1B941
  8
0
 10
4351.2245238252944546
 20
310.153806997032973
 30
0.0
 11
4351.2245238252944546
 21
310.1350530181945828
 31
0.0
  0
LINE
  5
1B942
  8
0
 10
4351.255093003894217
 20
310.1055705974947045
 30
0.0
 11
4351.255093003894217
 21
310.0868383063947249
 31
0.0
  0
LINE
  5
1B943
  8
0
 10
4351.2844299978942217
 20
310.1014515756946253
 30
0.0
 11
4351.2844299786947886
 21
310.0904806580945774
 31
0.0
  0
LINE
  5
1B944
  8
0
 10
4351.225494900693775
 20
310.1087332561286871
 30
0.0
 11
4351.225494900693775
 21
310.096405703694586
 31
0.0
  0
LINE
  5
1B945
  8
0
 10
4351.1980501400939829
 20
310.1120301440947173
 30
0.0
 11
4351.1980501400939829
 21
310.0932978528946933
 31
0.0
  0
LINE
  5
1B946
  8
0
 10
4351.1684520369935854
 20
310.115170361294588
 30
0.0
 11
4351.1684520369935854
 21
310.1028652501947249
 31
0.0
  0
LINE
  5
1B947
  8
0
 10
4351.1410072763947028
 20
310.1185113782825056
 30
0.0
 11
4351.1410072763947028
 21
310.0997573994947061
 31
0.0
  0
LINE
  5
1B948
  8
0
 10
4351.1114091731942608
 20
310.1216299077946132
 30
0.0
 11
4351.1114091732943052
 21
310.109324796794624
 31
0.0
  0
LINE
  5
1B949
  8
0
 10
4351.0839644125935592
 20
310.124970924782474
 30
0.0
 11
4351.0839644125935592
 21
310.1062169459946176
 31
0.0
  0
LINE
  5
1B94A
  8
0
 10
4351.0543663094940712
 20
310.128089454394626
 30
0.0
 11
4351.0543663094940712
 21
310.11578434339458
 31
0.0
  0
LINE
  5
1B94B
  8
0
 10
4351.0269215488951886
 20
310.1314304713387742
 30
0.0
 11
4351.0269215488951886
 21
310.1126764925945736
 31
0.0
  0
LINE
  5
1B94C
  8
0
 10
4351.0701049392519053
 20
310.1233814476099155
 30
0.0
 11
4351.0631837602941232
 21
310.1124651370946026
 31
0.0
  0
LINE
  5
1B94D
  8
0
 10
4351.1271478030394064
 20
310.11692190109801
 30
0.0
 11
4351.1202266240943572
 21
310.1060055904945898
 31
0.0
  0
LINE
  5
1B94E
  8
0
 10
4351.1841895327133898
 20
310.1104605658766786
 30
0.0
 11
4351.1772694878936818
 21
310.0995460439946214
 31
0.0
  0
LINE
  5
1B94F
  8
0
 10
4351.2412328061309381
 20
310.1040010656838035
 30
0.0
 11
4351.2343082575944209
 21
310.0930901366946273
 31
0.0
  0
LINE
  5
1B950
  8
0
 10
4351.2811234844939463
 20
310.0826801087947047
 30
0.0
 11
4351.2553691445937147
 21
310.0797636815946134
 31
0.0
  0
LINE
  5
1B951
  8
0
 10
4351.2526266099939676
 20
310.0800204777946192
 30
0.0
 11
4351.2506004252936691
 21
310.0804529521947188
 31
0.0
  0
LINE
  5
1B952
  8
0
 10
4351.2506004252936691
 20
310.0804529521947188
 30
0.0
 11
4351.2287033988941403
 21
310.0897070354945981
 31
0.0
  0
LINE
  5
1B953
  8
0
 10
4351.2287033988941403
 20
310.0897070354945981
 30
0.0
 11
4351.1983262808944346
 21
310.0862232280945818
 31
0.0
  0
LINE
  5
1B954
  8
0
 10
4351.1955837462946874
 20
310.0864800243945751
 30
0.0
 11
4351.193557561594389
 21
310.0869124986945735
 31
0.0
  0
LINE
  5
1B955
  8
0
 10
4351.193557561594389
 20
310.0869124986945735
 30
0.0
 11
4351.1716605350939062
 21
310.0961665819946234
 31
0.0
  0
LINE
  5
1B956
  8
0
 10
4351.1716605350939062
 20
310.0961665819946234
 30
0.0
 11
4351.1412834170942006
 21
310.0926827746945946
 31
0.0
  0
LINE
  5
1B957
  8
0
 10
4351.1385408824271508
 20
310.0929395708437255
 30
0.0
 11
4351.1365146977941549
 21
310.0933720452947
 31
0.0
  0
LINE
  5
1B958
  8
0
 10
4351.1365146977941549
 20
310.0933720452947
 30
0.0
 11
4351.1146176712945817
 21
310.1026261285945793
 31
0.0
  0
LINE
  5
1B959
  8
0
 10
4351.1146176712945817
 20
310.1026261285945793
 30
0.0
 11
4351.0842405533949204
 21
310.0991423212946074
 31
0.0
  0
LINE
  5
1B95A
  8
0
 10
4351.0814980186942194
 20
310.0993991173946256
 30
0.0
 11
4351.0794718340939653
 21
310.0998315917947252
 31
0.0
  0
LINE
  5
1B95B
  8
0
 10
4351.0794718340939653
 20
310.0998315917947252
 30
0.0
 11
4351.057574807594392
 21
310.1090856750947182
 31
0.0
  0
LINE
  5
1B95C
  8
0
 10
4351.057574807594392
 20
310.1090856750947182
 30
0.0
 11
4351.0271976895946864
 21
310.1056018677946895
 31
0.0
  0
LINE
  5
1B95D
  8
0
 10
4351.0244551549949392
 20
310.1058586639945815
 30
0.0
 11
4351.0224289702946407
 21
310.1062911383946243
 31
0.0
  0
LINE
  5
1B95E
  8
0
 10
4351.0224289702946407
 20
310.1062911383946243
 30
0.0
 11
4351.000531943794158
 21
310.1155452215945729
 31
0.0
  0
LINE
  5
1B95F
  8
0
 10
4351.000531943794158
 20
310.1155452215945729
 30
0.0
 11
4350.9701548257944523
 21
310.1120614142947147
 31
0.0
  0
LINE
  5
1B960
  8
0
 10
4350.9653861065944511
 20
310.1127506848947064
 30
0.0
 11
4350.9434890799948334
 21
310.1220047681945857
 31
0.0
  0
LINE
  5
1B961
  8
0
 10
4350.9434890799948334
 20
310.1220047681945857
 30
0.0
 11
4350.9131119620942627
 21
310.1185209608947275
 31
0.0
  0
LINE
  5
1B962
  8
0
 10
4350.9103694274936061
 20
310.1187777570946196
 30
0.0
 11
4350.9083432427942171
 21
310.1192102313946179
 31
0.0
  0
LINE
  5
1B963
  8
0
 10
4350.9083432427942171
 20
310.1192102313946179
 30
0.0
 11
4350.8864462161936899
 21
310.1284643147947122
 31
0.0
  0
LINE
  5
1B964
  8
0
 10
4350.8864462161936899
 20
310.1284643147947122
 30
0.0
 11
4350.8560690982949382
 21
310.1249805074946266
 31
0.0
  0
LINE
  5
1B965
  8
0
 10
4350.8533265636942815
 20
310.1252373035947016
 30
0.0
 11
4350.8513003789948925
 21
310.1256697779945739
 31
0.0
  0
LINE
  5
1B966
  8
0
 10
4350.8513003789948925
 20
310.1256697779945739
 30
0.0
 11
4350.8294033524944098
 21
310.1349238612946237
 31
0.0
  0
LINE
  5
1B967
  8
0
 10
4350.8294033524944098
 20
310.1349238612946237
 30
0.0
 11
4350.7990262344937946
 21
310.131440053994595
 31
0.0
  0
LINE
  5
1B968
  8
0
 10
4350.7962836999940919
 20
310.1316968501947144
 30
0.0
 11
4350.7942575152937934
 21
310.1321293244945991
 31
0.0
  0
LINE
  5
1B969
  8
0
 10
4350.7942575152937934
 20
310.1321293244945991
 30
0.0
 11
4350.7723604886941757
 21
310.1413834077947058
 31
0.0
  0
LINE
  5
1B96A
  8
0
 10
4350.7723604886941757
 20
310.1413834077947058
 30
0.0
 11
4350.7419833706953796
 21
310.1378996004946202
 31
0.0
  0
LINE
  5
1B96B
  8
0
 10
4350.7392408361947673
 20
310.138156396694626
 30
0.0
 11
4350.7372141866935635
 21
310.1385909613945842
 31
0.0
  0
LINE
  5
1B96C
  8
0
 10
4350.7372141866935635
 20
310.1385909613945842
 30
0.0
 11
4350.71531762509494
 21
310.1478429543947186
 31
0.0
  0
LINE
  5
1B96D
  8
0
 10
4350.71531762509494
 20
310.1478429543947186
 30
0.0
 11
4350.6849405070943249
 21
310.1443591470946899
 31
0.0
  0
LINE
  5
1B96E
  8
0
 10
4350.6801717877942792
 20
310.1450484176946247
 30
0.0
 11
4350.6746997020782146
 21
310.1473610210239826
 31
0.0
  0
LINE
  5
1B96F
  8
0
 10
4350.6846643662938732
 20
310.1587954744808826
 30
0.0
 11
4350.6846643662938732
 21
310.151433771894574
 31
0.0
  0
LINE
  5
1B970
  8
0
 10
4350.7121091268936652
 20
310.166846733594582
 30
0.0
 11
4350.7121091268936652
 21
310.1545416226945804
 31
0.0
  0
LINE
  5
1B971
  8
0
 10
4350.7834655044944157
 20
310.181376013482577
 30
0.0
 11
4350.7834655044944157
 21
310.1626220346947207
 31
0.0
  0
LINE
  5
1B972
  8
0
 10
4350.8109102651942521
 20
310.1780349964947163
 30
0.0
 11
4350.8109102651942521
 21
310.1657298854946134
 31
0.0
  0
LINE
  5
1B973
  8
0
 10
4350.825223778993859
 20
310.1990238228274279
 30
0.0
 11
4350.825223778993859
 21
310.1802698440947097
 31
0.0
  0
LINE
  5
1B974
  8
0
 10
4350.8526685396936955
 20
310.1956828058947053
 30
0.0
 11
4350.8526685395936511
 21
310.1833776948947161
 31
0.0
  0
LINE
  5
1B975
  8
0
 10
4350.8669820534942119
 20
310.2166716322329876
 30
0.0
 11
4350.8669820534942119
 21
310.1979176533947111
 31
0.0
  0
LINE
  5
1B976
  8
0
 10
4350.8944268140949134
 20
310.2133306152945806
 30
0.0
 11
4350.8944268140949134
 21
310.2010255041947175
 31
0.0
  0
LINE
  5
1B977
  8
0
 10
4350.8791422247941227
 20
310.2365846936791058
 30
0.0
 11
4350.8791422247941227
 21
310.2251328601947193
 31
0.0
  0
LINE
  5
1B978
  8
0
 10
4350.8516974641943307
 20
310.2319789865899793
 30
0.0
 11
4350.8516974641943307
 21
310.2220250093945992
 31
0.0
  0
LINE
  5
1B979
  8
0
 10
4350.7956256758943709
 20
310.2021423523946169
 30
0.0
 11
4350.7956256758943709
 21
310.1898372413946277
 31
0.0
  0
LINE
  5
1B97A
  8
0
 10
4350.8822666427940931
 20
310.1925642762826101
 30
0.0
 11
4350.8822666427940931
 21
310.1738102974945832
 31
0.0
  0
LINE
  5
1B97B
  8
0
 10
4350.9097114033947946
 20
310.1892232592945788
 30
0.0
 11
4350.9097114033947946
 21
310.1769181482945896
 31
0.0
  0
LINE
  5
1B97C
  8
0
 10
4350.8975512320948837
 20
310.1684569203882234
 30
0.0
 11
4350.8975512320948837
 21
310.1497029415946258
 31
0.0
  0
LINE
  5
1B97D
  8
0
 10
4350.9249959926937663
 20
310.1651159033946215
 30
0.0
 11
4350.9249959926937663
 21
310.1528107923945754
 31
0.0
  0
LINE
  5
1B97E
  8
0
 10
4350.9545940957941639
 20
310.1619973738273757
 30
0.0
 11
4350.9545940957941639
 21
310.1432433950947143
 31
0.0
  0
LINE
  5
1B97F
  8
0
 10
4350.9820388563948654
 20
310.1586563568947099
 30
0.0
 11
4350.9820388563948654
 21
310.1463512457946194
 31
0.0
  0
LINE
  5
1B980
  8
0
 10
4350.9501015172936604
 20
310.1368580407946069
 30
0.0
 11
4350.9282044907940872
 21
310.1461121240947136
 31
0.0
  0
LINE
  5
1B981
  8
0
 10
4350.9282044907940872
 20
310.1461121240947136
 30
0.0
 11
4350.8978273727943815
 21
310.1426283167946281
 31
0.0
  0
LINE
  5
1B982
  8
0
 10
4350.8950848381946344
 20
310.142885112994577
 30
0.0
 11
4350.8930586534943359
 21
310.1433175873946197
 31
0.0
  0
LINE
  5
1B983
  8
0
 10
4350.8930586534943359
 20
310.1433175873946197
 30
0.0
 11
4350.8711616269947626
 21
310.1525716706947264
 31
0.0
  0
LINE
  5
1B984
  8
0
 10
4350.8711616269947626
 20
310.1525716706947264
 30
0.0
 11
4350.8407845088941031
 21
310.1490878632945964
 31
0.0
  0
LINE
  5
1B985
  8
0
 10
4350.8380419743944003
 20
310.1493446595945898
 30
0.0
 11
4350.8360157897941463
 21
310.1497771338947018
 31
0.0
  0
LINE
  5
1B986
  8
0
 10
4350.8360157897941463
 20
310.1497771338947018
 30
0.0
 11
4350.8141187631954381
 21
310.1590312171945811
 31
0.0
  0
LINE
  5
1B987
  8
0
 10
4350.8141187631954381
 20
310.1590312171945811
 30
0.0
 11
4350.7837416452948673
 21
310.1555474098947229
 31
0.0
  0
LINE
  5
1B988
  8
0
 10
4350.7789729259939122
 20
310.1562366804947146
 30
0.0
 11
4350.7570758993942945
 21
310.1654907637945939
 31
0.0
  0
LINE
  5
1B989
  8
0
 10
4350.7570758993942945
 20
310.1654907637945939
 30
0.0
 11
4350.7266987816938126
 21
310.162006956494622
 31
0.0
  0
LINE
  5
1B98A
  8
0
 10
4350.7219300622937226
 20
310.1626962269946262
 30
0.0
 11
4350.7000330356941049
 21
310.1719503102946192
 31
0.0
  0
LINE
  5
1B98B
  8
0
 10
4350.7000330356941049
 20
310.1719503102946192
 30
0.0
 11
4350.6980738693782769
 21
310.1717032579394981
 31
0.0
  0
LINE
  5
1B98C
  8
0
 10
4350.7696060311445763
 20
310.1797865363091091
 30
0.0
 11
4350.7626848522941145
 21
310.1688702257947057
 31
0.0
  0
LINE
  5
1B98D
  8
0
 10
4351.1608619742701194
 20
310.2183117104884786
 30
0.0
 11
4351.1578894051936004
 21
310.2136232769947242
 31
0.0
  0
LINE
  5
1B98E
  8
0
 10
4351.1077667996696619
 20
310.2309976820961879
 30
0.0
 11
4351.1008465414943203
 21
310.2200828235946233
 31
0.0
  0
LINE
  5
1B98F
  8
0
 10
4351.0507237225419885
 20
310.2374568920665752
 30
0.0
 11
4351.0438036776931767
 21
310.2265423700945917
 31
0.0
  0
LINE
  5
1B990
  8
0
 10
4351.0606158620412316
 20
310.2385770801136005
 30
0.0
 11
4351.0495758814940928
 21
310.237326910294712
 31
0.0
  0
LINE
  5
1B991
  8
0
 10
4351.0448071621949566
 20
310.2380161807947161
 30
0.0
 11
4351.0376672994552791
 21
310.2410336172090979
 31
0.0
  0
LINE
  5
1B992
  8
0
 10
4350.9934467568100445
 20
310.2435472052150089
 30
0.0
 11
4350.9867608139938966
 21
310.2330019165946169
 31
0.0
  0
LINE
  5
1B993
  8
0
 10
4350.9504986023948732
 20
310.2432128698873726
 30
0.0
 11
4350.9504986023948732
 21
310.2332132721945754
 31
0.0
  0
LINE
  5
1B994
  8
0
 10
4350.9779433630938001
 20
310.2437414486705052
 30
0.0
 11
4350.9779433630938001
 21
310.2363211229945819
 31
0.0
  0
LINE
  5
1B995
  8
0
 10
4350.9361850885952663
 20
310.2309784245945821
 30
0.0
 11
4350.9361850885952663
 21
310.2186733135947065
 31
0.0
  0
LINE
  5
1B996
  8
0
 10
4350.9087403279936552
 20
310.2343194415446987
 30
0.0
 11
4350.9087403279936552
 21
310.2155654627945864
 31
0.0
  0
LINE
  5
1B997
  8
0
 10
4350.9657831916947544
 20
310.2278598950272226
 30
0.0
 11
4350.9657831916947544
 21
310.2091059162946181
 31
0.0
  0
LINE
  5
1B998
  8
0
 10
4350.9932279523936813
 20
310.2245188779946261
 30
0.0
 11
4350.9932279523936813
 21
310.2122137670946245
 31
0.0
  0
LINE
  5
1B999
  8
0
 10
4351.0075414661941977
 20
310.243061632702279
 30
0.0
 11
4351.0075414661941977
 21
310.2267537255946195
 31
0.0
  0
LINE
  5
1B99A
  8
0
 10
4351.0349862268949437
 20
310.2412689984606118
 30
0.0
 11
4351.0349862268949437
 21
310.2298615763946259
 31
0.0
  0
LINE
  5
1B99B
  8
0
 10
4351.0798689192952224
 20
310.2149408019387806
 30
0.0
 11
4351.0798689192952224
 21
310.19618682319458
 31
0.0
  0
LINE
  5
1B99C
  8
0
 10
4351.107313679894105
 20
310.2115997848945881
 30
0.0
 11
4351.107313679894105
 21
310.1992946739945864
 31
0.0
  0
LINE
  5
1B99D
  8
0
 10
4351.1230523096373872
 20
310.2068917782938797
 30
0.0
 11
4351.116131130694157
 21
310.1959754676947227
 31
0.0
  0
LINE
  5
1B99E
  8
0
 10
4351.1369117829935931
 20
310.2084812554330142
 30
0.0
 11
4351.1369117829935931
 21
310.1897272765946241
 31
0.0
  0
LINE
  5
1B99F
  8
0
 10
4351.1643565435942946
 20
310.2051402383946197
 30
0.0
 11
4351.1643565435942946
 21
310.1928351273945736
 31
0.0
  0
LINE
  5
1B9A0
  8
0
 10
4351.1800940393486599
 20
310.2004304429711965
 30
0.0
 11
4351.1731739944943911
 21
310.1895159210945963
 31
0.0
  0
LINE
  5
1B9A1
  8
0
 10
4351.2337910906408069
 20
310.1886937711328187
 30
0.0
 11
4351.2302168582946251
 21
310.1830563745946279
 31
0.0
  0
LINE
  5
1B9A2
  8
0
 10
4351.2524214924642365
 20
310.1698635404956121
 30
0.0
 11
4351.2455014475954158
 21
310.1589490185946261
 31
0.0
  0
LINE
  5
1B9A3
  8
0
 10
4351.2677060816204175
 20
310.1457561845875261
 30
0.0
 11
4351.2607860367943431
 21
310.1348416626946118
 31
0.0
  0
LINE
  5
1B9A4
  8
0
 10
4351.2672531751932183
 20
310.1263586239945766
 30
0.0
 11
4351.2672531751932183
 21
310.114053513094575
 31
0.0
  0
LINE
  5
1B9A5
  8
0
 10
4351.2407794899936562
 20
310.0846034587946178
 30
0.0
 11
4351.2407794899936562
 21
310.0722983477945718
 31
0.0
  0
LINE
  5
1B9A6
  8
0
 10
4351.2133347293938641
 20
310.0879444757766805
 30
0.0
 11
4351.2133347293938641
 21
310.0691904969946222
 31
0.0
  0
LINE
  5
1B9A7
  8
0
 10
4351.1994752560331108
 20
310.0863549985966756
 30
0.0
 11
4351.192554077193563
 21
310.0754386879946196
 31
0.0
  0
LINE
  5
1B9A8
  8
0
 10
4351.183736626294376
 20
310.0910630052945862
 30
0.0
 11
4351.183736626294376
 21
310.078757894294597
 31
0.0
  0
LINE
  5
1B9A9
  8
0
 10
4351.1562918655954491
 20
310.0944040223274101
 30
0.0
 11
4351.1562918655954491
 21
310.0756500434945906
 31
0.0
  0
LINE
  5
1B9AA
  8
0
 10
4351.2569106851942706
 20
310.060138311794617
 30
0.0
 11
4351.2439879881949309
 21
310.06559967949471
 31
0.0
  0
LINE
  5
1B9AB
  8
0
 10
4351.2439879881949309
 20
310.06559967949471
 30
0.0
 11
4351.213610869994227
 21
310.0621158721946244
 31
0.0
  0
LINE
  5
1B9AC
  8
0
 10
4351.2108683354954337
 20
310.0623726683945733
 30
0.0
 11
4351.2088416859942299
 21
310.0628072330945884
 31
0.0
  0
LINE
  5
1B9AD
  8
0
 10
4351.2088416859942299
 20
310.0628072330945884
 30
0.0
 11
4351.186945124293743
 21
310.0720592260947228
 31
0.0
  0
LINE
  5
1B9AE
  8
0
 10
4351.186945124293743
 20
310.0720592260947228
 30
0.0
 11
4351.1565680063940817
 21
310.0685754187945804
 31
0.0
  0
LINE
  5
1B9AF
  8
0
 10
4351.094756423394756
 20
310.0757242358945973
 30
0.0
 11
4351.0728593967942288
 21
310.084978319194704
 31
0.0
  0
LINE
  5
1B9B0
  8
0
 10
4351.0728593967942288
 20
310.084978319194704
 30
0.0
 11
4351.0424822787954326
 21
310.081494511794574
 31
0.0
  0
LINE
  5
1B9B1
  8
0
 10
4351.037713559493568
 20
310.0821837824947238
 30
0.0
 11
4351.0158165329949043
 21
310.0914378656946155
 31
0.0
  0
LINE
  5
1B9B2
  8
0
 10
4351.0397397442948204
 20
310.0817513079945797
 30
0.0
 11
4351.037713559493568
 21
310.0821837824947238
 31
0.0
  0
LINE
  5
1B9B3
  8
0
 10
4351.0158165329949043
 20
310.0914378656946155
 30
0.0
 11
4350.9854394151943779
 21
310.0879540583945868
 31
0.0
  0
LINE
  5
1B9B4
  8
0
 10
4350.9826968804936769
 20
310.0882108545945925
 30
0.0
 11
4350.9806706958952418
 21
310.0886433289946922
 31
0.0
  0
LINE
  5
1B9B5
  8
0
 10
4350.9806706958952418
 20
310.0886433289946922
 30
0.0
 11
4350.9587736692947146
 21
310.0978974122946283
 31
0.0
  0
LINE
  5
1B9B6
  8
0
 10
4350.9587736692947146
 20
310.0978974122946283
 30
0.0
 11
4350.9283965512940995
 21
310.0944136049947133
 31
0.0
  0
LINE
  5
1B9B7
  8
0
 10
4350.9256540166943523
 20
310.0946704011946053
 30
0.0
 11
4350.9236278320940983
 21
310.0951028754947174
 31
0.0
  0
LINE
  5
1B9B8
  8
0
 10
4350.9236278320940983
 20
310.0951028754947174
 30
0.0
 11
4350.9017308054935711
 21
310.1043569587947104
 31
0.0
  0
LINE
  5
1B9B9
  8
0
 10
4350.9017308054935711
 20
310.1043569587947104
 30
0.0
 11
4350.8713536875948193
 21
310.1008731514946248
 31
0.0
  0
LINE
  5
1B9BA
  8
0
 10
4350.8686111529941627
 20
310.1011299476945737
 30
0.0
 11
4350.8665849683948181
 21
310.1015624220946165
 31
0.0
  0
LINE
  5
1B9BB
  8
0
 10
4350.8665849683948181
 20
310.1015624220946165
 30
0.0
 11
4350.8446879416942465
 21
310.1108165053947232
 31
0.0
  0
LINE
  5
1B9BC
  8
0
 10
4350.8446879416942465
 20
310.1108165053947232
 30
0.0
 11
4350.8143108237936758
 21
310.1073326980945808
 31
0.0
  0
LINE
  5
1B9BD
  8
0
 10
4350.75249924079435
 20
310.114481515294699
 30
0.0
 11
4350.7306022143948212
 21
310.1237355984947044
 31
0.0
  0
LINE
  5
1B9BE
  8
0
 10
4350.7306022143948212
 20
310.1237355984947044
 30
0.0
 11
4350.700225096394206
 21
310.1202517910945744
 31
0.0
  0
LINE
  5
1B9BF
  8
0
 10
4350.6974825616944145
 20
310.1205085873946246
 30
0.0
 11
4350.6954563770941604
 21
310.1209410617947242
 31
0.0
  0
LINE
  5
1B9C0
  8
0
 10
4350.6954563770941604
 20
310.1209410617947242
 30
0.0
 11
4350.6735593505936777
 21
310.1301951449946159
 31
0.0
  0
LINE
  5
1B9C1
  8
0
 10
4350.6735593505936777
 20
310.1301951449946159
 30
0.0
 11
4350.6643608652320836
 21
310.1291082578989062
 31
0.0
  0
LINE
  5
1B9C2
  8
0
 10
4350.6999489555937544
 20
310.146080394727278
 30
0.0
 11
4350.6999489555937544
 21
310.1273264159946166
 31
0.0
  0
LINE
  5
1B9C3
  8
0
 10
4350.7273937161935464
 20
310.1427393777947259
 30
0.0
 11
4350.7273937161935464
 21
310.1304342666945786
 31
0.0
  0
LINE
  5
1B9C4
  8
0
 10
4350.686089482236639
 20
310.1444909175933731
 30
0.0
 11
4350.6791683032943183
 21
310.1335746069947277
 31
0.0
  0
LINE
  5
1B9C5
  8
0
 10
4350.6703508523924029
 20
310.1417466379634789
 30
0.0
 11
4350.6703508524942663
 21
310.1368938132945914
 31
0.0
  0
LINE
  5
1B9C6
  8
0
 10
4350.7278477568379458
 20
310.1621387269947832
 30
0.0
 11
4350.7209265778947156
 21
310.1512224163947167
 31
0.0
  0
LINE
  5
1B9C7
  8
0
 10
4350.7417072300941072
 20
310.1637282041328945
 30
0.0
 11
4350.7417072300941072
 21
310.144974225294618
 31
0.0
  0
LINE
  5
1B9C8
  8
0
 10
4350.7691519906948088
 20
310.1603871870947273
 30
0.0
 11
4350.7691519906948088
 21
310.1480820760946244
 31
0.0
  0
LINE
  5
1B9C9
  8
0
 10
4350.7848906204371815
 20
310.1556791803939177
 30
0.0
 11
4350.7779694414939513
 21
310.1447628697945902
 31
0.0
  0
LINE
  5
1B9CA
  8
0
 10
4350.7987500937942968
 20
310.1572686575329953
 30
0.0
 11
4350.7987500937942968
 21
310.1385146787947065
 31
0.0
  0
LINE
  5
1B9CB
  8
0
 10
4350.8261948544932238
 20
310.1539276404947145
 30
0.0
 11
4350.8261948544932238
 21
310.1416225295947129
 31
0.0
  0
LINE
  5
1B9CC
  8
0
 10
4350.8419334841446471
 20
310.1492196338090821
 30
0.0
 11
4350.8350123052941854
 21
310.1383033232946218
 31
0.0
  0
LINE
  5
1B9CD
  8
0
 10
4350.8557929575936214
 20
310.1508091109939755
 30
0.0
 11
4350.8557929575936214
 21
310.1320551321946937
 31
0.0
  0
LINE
  5
1B9CE
  8
0
 10
4350.883237718194323
 20
310.1474680939945756
 30
0.0
 11
4350.883237718194323
 21
310.1351629829947001
 31
0.0
  0
LINE
  5
1B9CF
  8
0
 10
4350.8989763480449255
 20
310.1427600873058168
 30
0.0
 11
4350.8920551690944194
 21
310.1318437766947227
 31
0.0
  0
LINE
  5
1B9D0
  8
0
 10
4350.912835821293811
 20
310.144349564427273
 30
0.0
 11
4350.912835821293811
 21
310.1255955856947253
 31
0.0
  0
LINE
  5
1B9D1
  8
0
 10
4350.9402805819936475
 20
310.1410085473946197
 30
0.0
 11
4350.9402805819936475
 21
310.128703436494618
 31
0.0
  0
LINE
  5
1B9D2
  8
0
 10
4350.9442987737947988
 20
310.1225450990946229
 30
0.0
 11
4350.9434890799948334
 21
310.1220047681945857
 31
0.0
  0
LINE
  5
1B9D3
  8
0
 10
4351.2611164617937902
 20
310.0804145090946236
 30
0.0
 11
4351.2611164572936104
 21
310.0669651017947217
 31
0.0
  0
LINE
  5
1B9D4
  8
0
 10
4351.2565169856416105
 20
310.0798936633711946
 30
0.0
 11
4351.2495969408946621
 21
310.0689791414945944
 31
0.0
  0
LINE
  5
1B9D5
  8
0
 10
4351.2259489413481788
 20
310.1281101640070119
 30
0.0
 11
4351.2190277622948997
 21
310.1171938532946228
 31
0.0
  0
LINE
  5
1B9D6
  8
0
 10
4351.195379762644734
 20
310.1763248757090992
 30
0.0
 11
4351.1884585837942723
 21
310.165408565194582
 31
0.0
  0
LINE
  5
1B9D7
  8
0
 10
4351.1383368989454539
 20
310.182784422305815
 30
0.0
 11
4351.1314157199940382
 21
310.1718681116947209
 31
0.0
  0
LINE
  5
1B9D8
  8
0
 10
4350.951469677894238
 20
310.2068710686946247
 30
0.0
 11
4350.951469677894238
 21
310.1945659576946923
 31
0.0
  0
LINE
  5
1B9D9
  8
0
 10
4350.9240249172944459
 20
310.2102120856824854
 30
0.0
 11
4350.9240249172944459
 21
310.1914581068946859
 31
0.0
  0
LINE
  5
1B9DA
  8
0
 10
4350.9672083076311537
 20
310.2021630619930761
 30
0.0
 11
4350.9602871287952439
 21
310.1912467513947149
 31
0.0
  0
LINE
  5
1B9DB
  8
0
 10
4350.910165443950973
 20
310.208622608509927
 30
0.0
 11
4350.9032442649931909
 21
310.197706297994614
 31
0.0
  0
LINE
  5
1B9DC
  8
0
 10
4350.8531225802462359
 20
310.2150821551063018
 30
0.0
 11
4350.8462014012948202
 21
310.2041658444945824
 31
0.0
  0
LINE
  5
1B9DD
  8
0
 10
4350.8684071693369333
 20
310.1909747990966935
 30
0.0
 11
4350.861485990494657
 21
310.180058488594625
 31
0.0
  0
LINE
  5
1B9DE
  8
0
 10
4350.9254500332399402
 20
310.1845152525979756
 30
0.0
 11
4350.9185288542948911
 21
310.1735989419946122
 31
0.0
  0
LINE
  5
1B9DF
  8
0
 10
4350.8836917587477728
 20
310.1668674432099237
 30
0.0
 11
4350.8767705797936287
 21
310.1559511325946232
 31
0.0
  0
LINE
  5
1B9E0
  8
0
 10
4350.8266488950521307
 20
310.1733269898069807
 30
0.0
 11
4350.8197277159943042
 21
310.1624106791945792
 31
0.0
  0
LINE
  5
1B9E1
  8
0
 10
4350.7385828120941369
 20
310.1988947681796844
 30
0.0
 11
4350.7385828120941369
 21
310.1962967879945836
 31
0.0
  0
LINE
  5
1B9E2
  8
0
 10
4350.7431323459431951
 20
310.1380313710055248
 30
0.0
 11
4350.7362111670936429
 21
310.1271150604945888
 31
0.0
  0
LINE
  5
1B9E3
  8
0
 10
4350.8001752097388817
 20
310.1315718245051016
 30
0.0
 11
4350.7932540308947864
 21
310.120655513894576
 31
0.0
  0
LINE
  5
1B9E4
  8
0
 10
4350.8572180736127848
 20
310.1251122780141145
 30
0.0
 11
4350.8502968945940665
 21
310.11419596729462
 31
0.0
  0
LINE
  5
1B9E5
  8
0
 10
4350.9142613486674236
 20
310.1186527785787916
 30
0.0
 11
4350.9073356642938961
 21
310.1077400600947271
 31
0.0
  0
LINE
  5
1B9E6
  8
0
 10
4350.8985223074942041
 20
310.1233607380946182
 30
0.0
 11
4350.8985223074942041
 21
310.1110556270945722
 31
0.0
  0
LINE
  5
1B9E7
  8
0
 10
4350.8710775468944121
 20
310.1267017551444951
 30
0.0
 11
4350.8710775468944121
 21
310.1079477762946226
 31
0.0
  0
LINE
  5
1B9E8
  8
0
 10
4350.8414794436948796
 20
310.1298202845947003
 30
0.0
 11
4350.8414794436948796
 21
310.1175151735945974
 31
0.0
  0
LINE
  5
1B9E9
  8
0
 10
4350.814034683094178
 20
310.1331613016387792
 30
0.0
 11
4350.814034683094178
 21
310.1144073228946922
 31
0.0
  0
LINE
  5
1B9EA
  8
0
 10
4350.8150707682943903
 20
310.1068508765945921
 30
0.0
 11
4350.8085386200937137
 21
310.0965481579946186
 31
0.0
  0
LINE
  5
1B9EB
  8
0
 10
4350.8029296673939825
 20
310.0931686959946205
 30
0.0
 11
4350.8248266937944209
 21
310.0839146127946151
 31
0.0
  0
LINE
  5
1B9EC
  8
0
 10
4350.8248266937944209
 20
310.0839146127946151
 30
0.0
 11
4350.8268528784938098
 21
310.0834821383945723
 31
0.0
  0
LINE
  5
1B9ED
  8
0
 10
4351.2226235102943974
 20
310.0393330791947051
 30
0.0
 11
4351.2022297136936686
 21
310.047951870094721
 31
0.0
  0
LINE
  5
1B9EE
  8
0
 10
4351.2022297136936686
 20
310.047951870094721
 30
0.0
 11
4351.1718525956948724
 21
310.0444680627945786
 31
0.0
  0
LINE
  5
1B9EF
  8
0
 10
4351.1691100610942158
 20
310.0447248589945843
 30
0.0
 11
4351.1670838763939173
 21
310.0451573333946271
 31
0.0
  0
LINE
  5
1B9F0
  8
0
 10
4351.1670838763939173
 20
310.0451573333946271
 30
0.0
 11
4351.145186849894344
 21
310.0544114166946201
 31
0.0
  0
LINE
  5
1B9F1
  8
0
 10
4351.145186849894344
 20
310.0544114166946201
 30
0.0
 11
4351.114809731794594
 21
310.0509276093945914
 31
0.0
  0
LINE
  5
1B9F2
  8
0
 10
4351.1120671972939817
 20
310.0511844055945971
 30
0.0
 11
4351.1100405477936874
 21
310.0516189702946122
 31
0.0
  0
LINE
  5
1B9F3
  8
0
 10
4351.1100405477936874
 20
310.0516189702946122
 30
0.0
 11
4351.08814398609411
 21
310.0608709632945761
 31
0.0
  0
LINE
  5
1B9F4
  8
0
 10
4351.08814398609411
 20
310.0608709632945761
 30
0.0
 11
4351.0577668681944488
 21
310.0573871559947179
 31
0.0
  0
LINE
  5
1B9F5
  8
0
 10
4351.0550243334937477
 20
310.0576439520946224
 30
0.0
 11
4351.0529976840944073
 21
310.0580785167945805
 31
0.0
  0
LINE
  5
1B9F6
  8
0
 10
4351.0529976840944073
 20
310.0580785167945805
 30
0.0
 11
4351.031101122293876
 21
310.0673305097946013
 31
0.0
  0
LINE
  5
1B9F7
  8
0
 10
4351.031101122293876
 20
310.0673305097946013
 30
0.0
 11
4351.0007240042941703
 21
310.0638467024945726
 31
0.0
  0
LINE
  5
1B9F8
  8
0
 10
4350.9979814697935581
 20
310.0641034986945783
 30
0.0
 11
4350.9959552850941691
 21
310.0645359729945767
 31
0.0
  0
LINE
  5
1B9F9
  8
0
 10
4350.9959552850941691
 20
310.0645359729945767
 30
0.0
 11
4350.9740582585945958
 21
310.0737900562946265
 31
0.0
  0
LINE
  5
1B9FA
  8
0
 10
4350.9740582585945958
 20
310.0737900562946265
 30
0.0
 11
4350.9436811405939807
 21
310.0703062489947115
 31
0.0
  0
LINE
  5
1B9FB
  8
0
 10
4350.9409386059942335
 20
310.0705630451947172
 30
0.0
 11
4350.9389124213939795
 21
310.0709955195945895
 31
0.0
  0
LINE
  5
1B9FC
  8
0
 10
4350.9389124213939795
 20
310.0709955195945895
 30
0.0
 11
4350.9170153947943618
 21
310.0802496028946962
 31
0.0
  0
LINE
  5
1B9FD
  8
0
 10
4350.9170153947943618
 20
310.0802496028946962
 30
0.0
 11
4350.8866382768947005
 21
310.0767657955947243
 31
0.0
  0
LINE
  5
1B9FE
  8
0
 10
4350.883895742194909
 20
310.0770225917946163
 30
0.0
 11
4350.8818695575946549
 21
310.077455066194716
 31
0.0
  0
LINE
  5
1B9FF
  8
0
 10
4350.8818695575946549
 20
310.077455066194716
 30
0.0
 11
4350.8599725310941722
 21
310.086709149494709
 31
0.0
  0
LINE
  5
1BA00
  8
0
 10
4350.8599725310941722
 20
310.086709149494709
 30
0.0
 11
4350.8295954131936014
 21
310.0832253421946234
 31
0.0
  0
LINE
  5
1BA01
  8
0
 10
4350.8029296673939825
 20
310.0931686959946205
 30
0.0
 11
4350.7725525493942769
 21
310.0896848886947055
 31
0.0
  0
LINE
  5
1BA02
  8
0
 10
4350.7677838300942312
 20
310.0903741592945835
 30
0.0
 11
4350.7458868035937485
 21
310.0996282425945765
 31
0.0
  0
LINE
  5
1BA03
  8
0
 10
4350.7458868035937485
 20
310.0996282425945765
 30
0.0
 11
4350.7155096854949079
 21
310.096144435194617
 31
0.0
  0
LINE
  5
1BA04
  8
0
 10
4350.7127671509933862
 20
310.0964012313946228
 30
0.0
 11
4350.7107409662939972
 21
310.0968337058945963
 31
0.0
  0
LINE
  5
1BA05
  8
0
 10
4350.7107409662939972
 20
310.0968337058945963
 30
0.0
 11
4350.6888439397953334
 21
310.1060877890946017
 31
0.0
  0
LINE
  5
1BA06
  8
0
 10
4350.6888439397953334
 20
310.1060877890946017
 30
0.0
 11
4350.6632013478365479
 21
310.1031402273354161
 31
0.0
  0
LINE
  5
1BA07
  8
0
 10
4350.6856354416941031
 20
310.1250915683946232
 30
0.0
 11
4350.6856354416941031
 21
310.1127864573946908
 31
0.0
  0
LINE
  5
1BA08
  8
0
 10
4350.7152335448936356
 20
310.1219730387766731
 30
0.0
 11
4350.7152335448936356
 21
310.1032190599946148
 31
0.0
  0
LINE
  5
1BA09
  8
0
 10
4350.7426783054943371
 20
310.1186320218947117
 30
0.0
 11
4350.7426783054943371
 21
310.1063269107946212
 31
0.0
  0
LINE
  5
1BA0A
  8
0
 10
4350.7013740715428867
 20
310.1203835615979756
 30
0.0
 11
4350.6944528925941995
 21
310.1094672510947134
 31
0.0
  0
LINE
  5
1BA0B
  8
0
 10
4351.1521963722943838
 20
310.1843738994388104
 30
0.0
 11
4351.1521963722943838
 21
310.1656199206947235
 31
0.0
  0
LINE
  5
1BA0C
  8
0
 10
4351.1796411328941758
 20
310.1810339268898247
 30
0.0
 11
4351.1796411328941758
 21
310.1687277714946163
 31
0.0
  0
LINE
  5
1BA0D
  8
0
 10
4351.1225982690948513
 20
310.1874924289945739
 30
0.0
 11
4351.1225982691948957
 21
310.1751873179945846
 31
0.0
  0
LINE
  5
1BA0E
  8
0
 10
4351.0951535085941941
 20
310.1908334460446213
 30
0.0
 11
4351.0951535085941941
 21
310.1720794671945782
 31
0.0
  0
LINE
  5
1BA0F
  8
0
 10
4351.1104380977940309
 20
310.1667260900882184
 30
0.0
 11
4351.1104380977940309
 21
310.1479721112946208
 31
0.0
  0
LINE
  5
1BA10
  8
0
 10
4351.096124583994424
 20
310.145737263794615
 30
0.0
 11
4351.096124583994424
 21
310.1334321526945814
 31
0.0
  0
LINE
  5
1BA11
  8
0
 10
4351.1257226870939121
 20
310.1426187341386935
 30
0.0
 11
4351.1257226870939121
 21
310.1238647553947203
 31
0.0
  0
LINE
  5
1BA12
  8
0
 10
4351.0992490018943499
 20
310.1008635689329935
 30
0.0
 11
4351.0992490018943499
 21
310.0821095900947171
 31
0.0
  0
LINE
  5
1BA13
  8
0
 10
4351.126693762494142
 20
310.0975225518947127
 30
0.0
 11
4351.126693762494142
 21
310.0852174408947235
 31
0.0
  0
LINE
  5
1BA14
  8
0
 10
4351.1424323922310577
 20
310.0928145451927094
 30
0.0
 11
4351.1355112133942384
 21
310.0818982345945756
 31
0.0
  0
LINE
  5
1BA15
  8
0
 10
4351.1573279509939312
 20
310.0680935973945793
 30
0.0
 11
4351.1507958026941196
 21
310.0577908786946182
 31
0.0
  0
LINE
  5
1BA16
  8
0
 10
4351.2147602565537454
 20
310.0622476898759032
 30
0.0
 11
4351.2078345723939492
 21
310.0513349713946241
 31
0.0
  0
LINE
  5
1BA17
  8
0
 10
4351.2278667032951489
 20
310.0637508059560901
 30
0.0
 11
4351.2278667024947936
 21
310.0457214365945902
 31
0.0
  0
LINE
  5
1BA18
  8
0
 10
4351.0655554053937522
 20
310.1939519754945991
 30
0.0
 11
4351.0655554053937522
 21
310.1816468645945974
 31
0.0
  0
LINE
  5
1BA19
  8
0
 10
4351.0381106447948696
 20
310.1972929926445204
 30
0.0
 11
4351.0381106447948696
 21
310.178539013794591
 31
0.0
  0
LINE
  5
1BA1A
  8
0
 10
4351.0242511715177898
 20
310.1957035155144808
 30
0.0
 11
4351.0173299924936146
 21
310.184787204894576
 31
0.0
  0
LINE
  5
1BA1B
  8
0
 10
4351.0085125416935625
 20
310.2004115220946119
 30
0.0
 11
4351.0085125416935625
 21
310.1881064110946227
 31
0.0
  0
LINE
  5
1BA1C
  8
0
 10
4350.9810677809946355
 20
310.2037525391330064
 30
0.0
 11
4350.9810677809946355
 21
310.1849985603946038
 31
0.0
  0
LINE
  5
1BA1D
  8
0
 10
4351.0237971308952183
 20
310.1763041662945852
 30
0.0
 11
4351.0237971308952183
 21
310.1639990551947221
 31
0.0
  0
LINE
  5
1BA1E
  8
0
 10
4350.9963523702936072
 20
310.1796451832332195
 30
0.0
 11
4350.9963523702936072
 21
310.1608912043947157
 31
0.0
  0
LINE
  5
1BA1F
  8
0
 10
4350.9667542671941192
 20
310.1827637127947241
 30
0.0
 11
4350.9667542671941192
 21
310.1704586017946212
 31
0.0
  0
LINE
  5
1BA20
  8
0
 10
4350.9393095064942827
 20
310.1861047297708751
 30
0.0
 11
4350.9393095065943271
 21
310.1673507509946148
 31
0.0
  0
LINE
  5
1BA21
  8
0
 10
4350.9407346225034416
 20
310.1604078967009741
 30
0.0
 11
4350.9338134435947723
 21
310.1494915860947117
 31
0.0
  0
LINE
  5
1BA22
  8
0
 10
4350.8679531288944418
 20
310.1715754498945898
 30
0.0
 11
4350.8679531288944418
 21
310.1592703388947143
 31
0.0
  0
LINE
  5
1BA23
  8
0
 10
4350.8405083682937402
 20
310.1749164669329843
 30
0.0
 11
4350.8405083682937402
 21
310.1561624881945818
 31
0.0
  0
LINE
  5
1BA24
  8
0
 10
4350.756991819293944
 20
310.1396208481388044
 30
0.0
 11
4350.7569918193948979
 21
310.1208668693947175
 31
0.0
  0
LINE
  5
1BA25
  8
0
 10
4350.78443657999469
 20
310.1362798311947131
 30
0.0
 11
4350.78443657999469
 21
310.1239747201947239
 31
0.0
  0
LINE
  5
1BA26
  8
0
 10
4350.8293192723940592
 20
310.1090539457445061
 30
0.0
 11
4350.8293192723940592
 21
310.0902999668945768
 31
0.0
  0
LINE
  5
1BA27
  8
0
 10
4350.8567640329947608
 20
310.1057129286945724
 30
0.0
 11
4350.8567640329947608
 21
310.0934078176945832
 31
0.0
  0
LINE
  5
1BA28
  8
0
 10
4350.8863621361942933
 20
310.1025943991444933
 30
0.0
 11
4350.8863621361942933
 21
310.0838404203947221
 31
0.0
  0
LINE
  5
1BA29
  8
0
 10
4350.9138068967940853
 20
310.0992533820946164
 30
0.0
 11
4350.9138068967940853
 21
310.0869482711946148
 31
0.0
  0
LINE
  5
1BA2A
  8
0
 10
4350.9434049998935734
 20
310.0961348526387837
 30
0.0
 11
4350.9434049998935734
 21
310.0773808737947093
 31
0.0
  0
LINE
  5
1BA2B
  8
0
 10
4350.970849760494275
 20
310.0927938355947049
 30
0.0
 11
4350.970849760494275
 21
310.0804887245947157
 31
0.0
  0
LINE
  5
1BA2C
  8
0
 10
4350.8725030740470174
 20
310.101004969164876
 30
0.0
 11
4350.8655773898935877
 21
310.0900922506946245
 31
0.0
  0
LINE
  5
1BA2D
  8
0
 10
4350.9295459379318345
 20
310.0945454226858828
 30
0.0
 11
4350.9226202535937773
 21
310.0836327041947129
 31
0.0
  0
LINE
  5
1BA2E
  8
0
 10
4350.9861993596941829
 20
310.0874722369946994
 30
0.0
 11
4350.9796631173949208
 21
310.0771731575945864
 31
0.0
  0
LINE
  5
1BA2F
  8
0
 10
4351.0436316653667745
 20
310.0816263294821056
 30
0.0
 11
4351.036705981094201
 21
310.070713611094618
 31
0.0
  0
LINE
  5
1BA30
  8
0
 10
4351.0278926242935995
 20
310.0863342890946228
 30
0.0
 11
4351.0278926242935995
 21
310.0740291779945892
 31
0.0
  0
LINE
  5
1BA31
  8
0
 10
4351.0004478636947169
 20
310.0896753060387141
 30
0.0
 11
4351.0004478636947169
 21
310.0709213272946272
 31
0.0
  0
LINE
  5
1BA32
  8
0
 10
4351.0574907273939971
 20
310.0832157594882119
 30
0.0
 11
4351.0574907273939971
 21
310.0644617806946144
 31
0.0
  0
LINE
  5
1BA33
  8
0
 10
4351.0849354879937891
 20
310.07987474249461
 30
0.0
 11
4351.0849354879937891
 21
310.0675696314946208
 31
0.0
  0
LINE
  5
1BA34
  8
0
 10
4351.1990212155942572
 20
310.0669566938476009
 30
0.0
 11
4351.1990212155942572
 21
310.0546505383945828
 31
0.0
  0
LINE
  5
1BA35
  8
0
 10
4351.1715764548944207
 20
310.0702966664330233
 30
0.0
 11
4351.1715764548944207
 21
310.0515426875945764
 31
0.0
  0
LINE
  5
1BA36
  8
0
 10
4351.1867497156954414
 20
310.0461765426907732
 30
0.0
 11
4351.1867497152943542
 21
310.0278026074946069
 31
0.0
  0
LINE
  5
1BA37
  8
0
 10
4351.1805116518944487
 20
310.0218347008947148
 30
0.0
 11
4351.1604714390941808
 21
310.0303040607947196
 31
0.0
  0
LINE
  5
1BA38
  8
0
 10
4351.1604714390941808
 20
310.0303040607947196
 30
0.0
 11
4351.1300943211936101
 21
310.0268202534945772
 31
0.0
  0
LINE
  5
1BA39
  8
0
 10
4351.173001982153437
 20
310.0445998804652277
 30
0.0
 11
4351.1660762978954153
 21
310.0336871619945782
 31
0.0
  0
LINE
  5
1BA3A
  8
0
 10
4351.1572629410948139
 20
310.049307839994583
 30
0.0
 11
4351.1572629410948139
 21
310.0370027289947075
 31
0.0
  0
LINE
  5
1BA3B
  8
0
 10
4351.1298181803940679
 20
310.0526488570332049
 30
0.0
 11
4351.1298181803940679
 21
310.0338948781947011
 31
0.0
  0
LINE
  5
1BA3C
  8
0
 10
4351.1159591184332385
 20
310.0510594270854199
 30
0.0
 11
4351.1090334340942718
 21
310.040146708594591
 31
0.0
  0
LINE
  5
1BA3D
  8
0
 10
4351.1002200772936703
 20
310.0557673865945958
 30
0.0
 11
4351.1002200772936703
 21
310.0434622755947203
 31
0.0
  0
LINE
  5
1BA3E
  8
0
 10
4351.0727753166938783
 20
310.0591084036329903
 30
0.0
 11
4351.0727753166938783
 21
310.0403544247947139
 31
0.0
  0
LINE
  5
1BA3F
  8
0
 10
4351.0589162547212254
 20
310.0575189736736093
 30
0.0
 11
4351.0519905703940822
 21
310.0466062550946162
 31
0.0
  0
LINE
  5
1BA40
  8
0
 10
4351.0431772135943902
 20
310.062226933094621
 30
0.0
 11
4351.0431772135943902
 21
310.049921822094575
 31
0.0
  0
LINE
  5
1BA41
  8
0
 10
4351.0157324528945537
 20
310.0655679501388136
 30
0.0
 11
4351.0157324528945537
 21
310.0468139712946254
 31
0.0
  0
LINE
  5
1BA42
  8
0
 10
4351.0018729796165644
 20
310.0639784730141173
 30
0.0
 11
4350.9949518005942082
 21
310.0530621623946104
 31
0.0
  0
LINE
  5
1BA43
  8
0
 10
4350.9861343497950656
 20
310.068686479694577
 30
0.0
 11
4350.9861343497950656
 21
310.0563813686945878
 31
0.0
  0
LINE
  5
1BA44
  8
0
 10
4350.9586895891943641
 20
310.0720274966387819
 30
0.0
 11
4350.9586895891943641
 21
310.0532735178945813
 31
0.0
  0
LINE
  5
1BA45
  8
0
 10
4350.9448301158490722
 20
310.0704380195061844
 30
0.0
 11
4350.9379089368940186
 21
310.0595217089946232
 31
0.0
  0
LINE
  5
1BA46
  8
0
 10
4350.9290914859939221
 20
310.0751460261947159
 30
0.0
 11
4350.9290914859939221
 21
310.0628409151947267
 31
0.0
  0
LINE
  5
1BA47
  8
0
 10
4350.90164672539413
 20
310.0784870432329967
 30
0.0
 11
4350.90164672539413
 21
310.0597330643946066
 31
0.0
  0
LINE
  5
1BA48
  8
0
 10
4350.887787663459676
 20
310.0768976132779926
 30
0.0
 11
4350.8808619791943784
 21
310.0659848947947239
 31
0.0
  0
LINE
  5
1BA49
  8
0
 10
4350.872048622294642
 20
310.081605572794615
 30
0.0
 11
4350.872048622294642
 21
310.0693004617946258
 31
0.0
  0
LINE
  5
1BA4A
  8
0
 10
4350.8446038616948499
 20
310.0849465898330095
 30
0.0
 11
4350.8446038616948499
 21
310.0661926109946194
 31
0.0
  0
LINE
  5
1BA4B
  8
0
 10
4350.8307443883368251
 20
310.083357112693875
 30
0.0
 11
4350.8238232093935949
 21
310.072440802094718
 31
0.0
  0
LINE
  5
1BA4C
  8
0
 10
4350.8150057584944079
 20
310.0880651193946278
 30
0.0
 11
4350.8150057584944079
 21
310.0757600082947079
 31
0.0
  0
LINE
  5
1BA4D
  8
0
 10
4350.7875609978937064
 20
310.0914061363272936
 30
0.0
 11
4350.7875609978937064
 21
310.0726521575945753
 31
0.0
  0
LINE
  5
1BA4E
  8
0
 10
4350.7737019359246915
 20
310.0898167063735968
 30
0.0
 11
4350.7667762515948198
 21
310.0789039878947051
 31
0.0
  0
LINE
  5
1BA4F
  8
0
 10
4350.7579628947942183
 20
310.0945246658945962
 30
0.0
 11
4350.7579628947942183
 21
310.0822195548947207
 31
0.0
  0
LINE
  5
1BA50
  8
0
 10
4350.7305181340952913
 20
310.0978656828826274
 30
0.0
 11
4350.7305181340952913
 21
310.0791117040947142
 31
0.0
  0
LINE
  5
1BA51
  8
0
 10
4350.7166590720617023
 20
310.0962762528811822
 30
0.0
 11
4350.7097333877936762
 21
310.0853635343946166
 31
0.0
  0
LINE
  5
1BA52
  8
0
 10
4350.7009200309948938
 20
310.1009842124947227
 30
0.0
 11
4350.7009200309948938
 21
310.0886791013945754
 31
0.0
  0
LINE
  5
1BA53
  8
0
 10
4350.673627347893671
 20
310.1043386740104779
 30
0.0
 11
4350.6736273484939375
 21
310.0859086981947144
 31
0.0
  0
LINE
  5
1BA54
  8
0
 10
4350.9851632743948358
 20
310.1137826619387852
 30
0.0
 11
4350.9851632743948358
 21
310.0950286831945846
 31
0.0
  0
LINE
  5
1BA55
  8
0
 10
4351.0126080349937183
 20
310.1104416449945802
 30
0.0
 11
4351.0126080349937183
 21
310.0981365339947047
 31
0.0
  0
LINE
  5
1BA56
  8
0
 10
4351.0422061380941159
 20
310.1073231154272776
 30
0.0
 11
4351.0422061380941159
 21
310.0885691365945718
 31
0.0
  0
LINE
  5
1BA57
  8
0
 10
4351.0696508987948619
 20
310.1039820983946242
 30
0.0
 11
4351.0696508987948619
 21
310.0916769873946919
 31
0.0
  0
LINE
  5
1BA58
  8
0
 10
4351.1378343851229147
 20
310.0277079246458243
 30
0.0
 11
4351.1378320906942463
 21
310.0128602439946235
 31
0.0
  0
LINE
  5
1BA59
  8
0
 10
4351.1305370146947098
 20
310.0076592763945769
 30
0.0
 11
4351.118713164593828
 21
310.0126562513946169
 31
0.0
  0
LINE
  5
1BA5A
  8
0
 10
4351.118713164593828
 20
310.0126562513946169
 30
0.0
 11
4351.0883360466941667
 21
310.0091724440947019
 31
0.0
  0
LINE
  5
1BA5B
  8
0
 10
4351.0855935120944196
 20
310.0094292402947076
 30
0.0
 11
4351.0835673273941211
 21
310.0098617145945923
 31
0.0
  0
LINE
  5
1BA5C
  8
0
 10
4351.0835673273941211
 20
310.0098617145945923
 30
0.0
 11
4351.0616703007935939
 21
310.0191157979945729
 31
0.0
  0
LINE
  5
1BA5D
  8
0
 10
4351.0616703007935939
 20
310.0191157979945729
 30
0.0
 11
4351.0312931829948866
 21
310.0156319906947147
 31
0.0
  0
LINE
  5
1BA5E
  8
0
 10
4351.0285506482941855
 20
310.0158887867946191
 30
0.0
 11
4351.0265244636939315
 21
310.0163212612947063
 31
0.0
  0
LINE
  5
1BA5F
  8
0
 10
4351.0265244636939315
 20
310.0163212612947063
 30
0.0
 11
4351.0046274371943582
 21
310.0255753444947118
 31
0.0
  0
LINE
  5
1BA60
  8
0
 10
4351.0046274371943582
 20
310.0255753444947118
 30
0.0
 11
4350.9742503190946081
 21
310.0220915371946262
 31
0.0
  0
LINE
  5
1BA61
  8
0
 10
4350.9715077845949054
 20
310.0223483333945751
 30
0.0
 11
4350.969481599793653
 21
310.0227808078947191
 31
0.0
  0
LINE
  5
1BA62
  8
0
 10
4350.969481599793653
 20
310.0227808078947191
 30
0.0
 11
4350.9475845734941686
 21
310.0320348910947246
 31
0.0
  0
LINE
  5
1BA63
  8
0
 10
4350.9475845734941686
 20
310.0320348910947246
 30
0.0
 11
4350.917207455395328
 21
310.0285510836945946
 31
0.0
  0
LINE
  5
1BA64
  8
0
 10
4350.9144649208355986
 20
310.028807879943372
 30
0.0
 11
4350.9124387361944173
 21
310.0292403542947
 31
0.0
  0
LINE
  5
1BA65
  8
0
 10
4350.9124387361944173
 20
310.0292403542947
 30
0.0
 11
4350.8905417095947996
 21
310.0384944375945793
 31
0.0
  0
LINE
  5
1BA66
  8
0
 10
4350.8905417095947996
 20
310.0384944375945793
 30
0.0
 11
4350.8601645916942289
 21
310.0350106302947211
 31
0.0
  0
LINE
  5
1BA67
  8
0
 10
4350.8574220570935722
 20
310.0352674264947268
 30
0.0
 11
4350.8553954075941874
 21
310.035701991194685
 31
0.0
  0
LINE
  5
1BA68
  8
0
 10
4350.8553954075941874
 20
310.035701991194685
 30
0.0
 11
4350.8334988458937005
 21
310.0449539840947182
 31
0.0
  0
LINE
  5
1BA69
  8
0
 10
4350.8334988458937005
 20
310.0449539840947182
 30
0.0
 11
4350.8031217278949043
 21
310.0414701767945758
 31
0.0
  0
LINE
  5
1BA6A
  8
0
 10
4350.8003791932942477
 20
310.0417269729946952
 30
0.0
 11
4350.7983530085939492
 21
310.0421594473946243
 31
0.0
  0
LINE
  5
1BA6B
  8
0
 10
4350.7983530085939492
 20
310.0421594473946243
 30
0.0
 11
4350.7764559820943759
 21
310.0514135306946173
 31
0.0
  0
LINE
  5
1BA6C
  8
0
 10
4350.7764559820943759
 20
310.0514135306946173
 30
0.0
 11
4350.7460788641947147
 21
310.0479297233945886
 31
0.0
  0
LINE
  5
1BA6D
  8
0
 10
4350.7433363294949231
 20
310.048186519594708
 30
0.0
 11
4350.7413101448937596
 21
310.0486189938945927
 31
0.0
  0
LINE
  5
1BA6E
  8
0
 10
4350.7413101448937596
 20
310.0486189938945927
 30
0.0
 11
4350.7194131182941419
 21
310.0578730772945732
 31
0.0
  0
LINE
  5
1BA6F
  8
0
 10
4350.7194131182941419
 20
310.0578730772945732
 30
0.0
 11
4350.7030301530949146
 21
310.0559739708946267
 31
0.0
  0
LINE
  5
1BA70
  8
0
 10
4350.698688658681931
 20
310.0813557385350236
 30
0.0
 11
4350.6986886652939575
 21
310.0629084610947075
 31
0.0
  0
LINE
  5
1BA71
  8
0
 10
4350.7162046202947749
 20
310.0768768564947209
 30
0.0
 11
4350.7162046202947749
 21
310.064571745494618
 31
0.0
  0
LINE
  5
1BA72
  8
0
 10
4350.7319436613561265
 20
310.0721688969697993
 30
0.0
 11
4350.7250179770935574
 21
310.0612561784946024
 31
0.0
  0
LINE
  5
1BA73
  8
0
 10
4350.745802723394263
 20
310.0737583269823858
 30
0.0
 11
4350.745802723394263
 21
310.0550043481947
 31
0.0
  0
LINE
  5
1BA74
  8
0
 10
4350.7732474840940995
 20
310.070417309994582
 30
0.0
 11
4350.7732474839949646
 21
310.0581121989947064
 31
0.0
  0
LINE
  5
1BA75
  8
0
 10
4350.8028455871935876
 20
310.0672987804388185
 30
0.0
 11
4350.8028455871935876
 21
310.0485448015945735
 31
0.0
  0
LINE
  5
1BA76
  8
0
 10
4350.8302903477942891
 20
310.063957763394626
 30
0.0
 11
4350.8302903477942891
 21
310.0516526523945799
 31
0.0
  0
LINE
  5
1BA77
  8
0
 10
4350.8598884508937772
 20
310.0608392338767771
 30
0.0
 11
4350.8598884508937772
 21
310.0420852550947188
 31
0.0
  0
LINE
  5
1BA78
  8
0
 10
4350.8873332114953882
 20
310.0574982168947145
 30
0.0
 11
4350.8873332115936137
 21
310.0451931058947252
 31
0.0
  0
LINE
  5
1BA79
  8
0
 10
4350.9169313146949207
 20
310.0543796872884172
 30
0.0
 11
4350.9169313146949207
 21
310.035625708494706
 31
0.0
  0
LINE
  5
1BA7A
  8
0
 10
4350.9443760752947128
 20
310.051038670294588
 30
0.0
 11
4350.9443760752947128
 21
310.0387335592947124
 31
0.0
  0
LINE
  5
1BA7B
  8
0
 10
4350.9739741783942009
 20
310.0479201407271717
 30
0.0
 11
4350.9739741783942009
 21
310.029166161994624
 31
0.0
  0
LINE
  5
1BA7C
  8
0
 10
4351.0014189390949468
 20
310.0445791236945752
 30
0.0
 11
4351.0014189390949468
 21
310.0322740127945735
 31
0.0
  0
LINE
  5
1BA7D
  8
0
 10
4351.0310170421953444
 20
310.0414605942387993
 30
0.0
 11
4351.0310170421953444
 21
310.0227066153947248
 31
0.0
  0
LINE
  5
1BA7E
  8
0
 10
4351.0584618028942714
 20
310.0381195771947205
 30
0.0
 11
4351.0584618028942714
 21
310.0258144661946176
 31
0.0
  0
LINE
  5
1BA7F
  8
0
 10
4351.131243707763133
 20
310.0269520711784139
 30
0.0
 11
4351.1243180233932435
 21
310.0160393525947029
 31
0.0
  0
LINE
  5
1BA80
  8
0
 10
4351.0880599059937595
 20
310.0350010476387865
 30
0.0
 11
4351.0880599059937595
 21
310.0162470688946996
 31
0.0
  0
LINE
  5
1BA81
  8
0
 10
4351.1155046665935515
 20
310.0316600305947077
 30
0.0
 11
4351.1155046665935515
 21
310.019354919694706
 31
0.0
  0
LINE
  5
1BA82
  8
0
 10
4351.0742008439674464
 20
310.0334116176783255
 30
0.0
 11
4351.0672751595948284
 21
310.0224988991947157
 31
0.0
  0
LINE
  5
1BA83
  8
0
 10
4351.017157980232696
 20
310.0398711642858984
 30
0.0
 11
4351.0102322958946388
 21
310.0289584457946148
 31
0.0
  0
LINE
  5
1BA84
  8
0
 10
4350.9601151164515613
 20
310.0463307107660853
 30
0.0
 11
4350.9531894321944492
 21
310.0354179922946969
 31
0.0
  0
LINE
  5
1BA85
  8
0
 10
4350.9030722525603778
 20
310.0527902572804919
 30
0.0
 11
4350.8961465683942151
 21
310.0418775388947097
 31
0.0
  0
LINE
  5
1BA86
  8
0
 10
4350.8460289776476202
 20
310.0592497567097894
 30
0.0
 11
4350.8391077986943856
 21
310.0483334460947162
 31
0.0
  0
LINE
  5
1BA87
  8
0
 10
4350.7889865251190713
 20
310.0657093504727868
 30
0.0
 11
4350.7820608408937915
 21
310.0547966319945772
 31
0.0
  0
LINE
  5
1BA88
  8
0
 10
4351.1273517865947724
 20
310.0270770496945829
 30
0.0
 11
4351.1253256018935645
 21
310.0275095239945813
 31
0.0
  0
LINE
  5
1BA89
  8
0
 10
4351.1253256018935645
 20
310.0275095239945813
 30
0.0
 11
4351.1034285753939912
 21
310.0367636072945743
 31
0.0
  0
LINE
  5
1BA8A
  8
0
 10
4351.1034285753939912
 20
310.0367636072945743
 30
0.0
 11
4351.0730514573942855
 21
310.0332797999947161
 31
0.0
  0
LINE
  5
1BA8B
  8
0
 10
4351.0703089227936289
 20
310.0335365961947218
 30
0.0
 11
4351.0682827381942843
 21
310.0339690704946065
 31
0.0
  0
LINE
  5
1BA8C
  8
0
 10
4351.0682827381942843
 20
310.0339690704946065
 30
0.0
 11
4351.0463857115937572
 21
310.0432231538945871
 31
0.0
  0
LINE
  5
1BA8D
  8
0
 10
4351.0463857115937572
 20
310.0432231538945871
 30
0.0
 11
4351.016008593594961
 21
310.0397393465946152
 31
0.0
  0
LINE
  5
1BA8E
  8
0
 10
4351.0132660590943487
 20
310.0399961427946209
 30
0.0
 11
4351.0112398743940503
 21
310.0404286170946193
 31
0.0
  0
LINE
  5
1BA8F
  8
0
 10
4351.0112398743940503
 20
310.0404286170946193
 30
0.0
 11
4350.9893428477944326
 21
310.049682700394726
 31
0.0
  0
LINE
  5
1BA90
  8
0
 10
4350.9893428477944326
 20
310.049682700394726
 30
0.0
 11
4350.9589657299939063
 21
310.0461988930946973
 31
0.0
  0
LINE
  5
1BA91
  8
0
 10
4350.9562231952941147
 20
310.0464556892945893
 30
0.0
 11
4350.9541970105947257
 21
310.0468881636945753
 31
0.0
  0
LINE
  5
1BA92
  8
0
 10
4350.9541970105947257
 20
310.0468881636945753
 30
0.0
 11
4350.9322999841942874
 21
310.0561422469946251
 31
0.0
  0
LINE
  5
1BA93
  8
0
 10
4350.9322999841942874
 20
310.0561422469946251
 30
0.0
 11
4350.9019228659935834
 21
310.0526584395947225
 31
0.0
  0
LINE
  5
1BA94
  8
0
 10
4350.8991803314938807
 20
310.0529152357946145
 30
0.0
 11
4350.8971541467935822
 21
310.0533477102945881
 31
0.0
  0
LINE
  5
1BA95
  8
0
 10
4350.8971541467935822
 20
310.0533477102945881
 30
0.0
 11
4350.8752571203949628
 21
310.0626017935946948
 31
0.0
  0
LINE
  5
1BA96
  8
0
 10
4350.8752571203949628
 20
310.0626017935946948
 30
0.0
 11
4350.8448800023934382
 21
310.0591179861946216
 31
0.0
  0
LINE
  5
1BA97
  8
0
 10
4350.842137467793691
 20
310.0593747823946273
 30
0.0
 11
4350.8401112830943021
 21
310.0598072567946133
 31
0.0
  0
LINE
  5
1BA98
  8
0
 10
4350.8401112830943021
 20
310.0598072567946133
 30
0.0
 11
4350.8182142565938193
 21
310.06906134009472
 31
0.0
  0
LINE
  5
1BA99
  8
0
 10
4350.8182142565938193
 20
310.06906134009472
 30
0.0
 11
4350.7878371385941136
 21
310.0655775327945776
 31
0.0
  0
LINE
  5
1BA9A
  8
0
 10
4350.7850946039943665
 20
310.0658343289945833
 30
0.0
 11
4350.783068419294068
 21
310.0662668033946261
 31
0.0
  0
LINE
  5
1BA9B
  8
0
 10
4350.783068419294068
 20
310.0662668033946261
 30
0.0
 11
4350.7611713927935853
 21
310.0755208866946191
 31
0.0
  0
LINE
  5
1BA9C
  8
0
 10
4350.7611713927935853
 20
310.0755208866946191
 30
0.0
 11
4350.7307942748948335
 21
310.0720370792946028
 31
0.0
  0
LINE
  5
1BA9D
  8
0
 10
4350.7280517402932674
 20
310.0722938754947222
 30
0.0
 11
4350.7260255555938784
 21
310.0727263498947082
 31
0.0
  0
LINE
  5
1BA9E
  8
0
 10
4350.7260255555938784
 20
310.0727263498947082
 30
0.0
 11
4350.7041285290943051
 21
310.0819804331945875
 31
0.0
  0
LINE
  5
1BA9F
  8
0
 10
4350.7041285290943051
 20
310.0819804331945875
 30
0.0
 11
4350.6766264974939986
 21
310.0788222012947131
 31
0.0
  0
LINE
  5
1BAA0
  8
0
 10
4350.7591950662936142
 20
310.0494150049946143
 30
0.0
 11
4350.7591950984942741
 21
310.0310029436947161
 31
0.0
  0
LINE
  5
1BAA1
  8
0
 10
4350.7326622203936495
 20
310.0522737647946201
 30
0.0
 11
4350.7326622255950497
 21
310.0426347351947243
 31
0.0
  0
LINE
  5
1BAA2
  8
0
 10
4350.7885320732939363
 20
310.0463099540946246
 30
0.0
 11
4350.7885320732939363
 21
310.0340048429945909
 31
0.0
  0
LINE
  5
1BAA3
  8
0
 10
4350.804270703036309
 20
310.0416019472930884
 30
0.0
 11
4350.7973495241949422
 21
310.0306856367947148
 31
0.0
  0
LINE
  5
1BAA4
  8
0
 10
4350.8181301764943782
 20
310.0431914244388167
 30
0.0
 11
4350.8181301764943782
 21
310.0244374456946161
 31
0.0
  0
LINE
  5
1BAA5
  8
0
 10
4350.8455749370941703
 20
310.0398504074947255
 30
0.0
 11
4350.8455749370941703
 21
310.0275452964946226
 31
0.0
  0
LINE
  5
1BAA6
  8
0
 10
4350.8613135669447729
 20
310.0351424008063077
 30
0.0
 11
4350.8543923879942668
 21
310.0242260901945883
 31
0.0
  0
LINE
  5
1BAA7
  8
0
 10
4350.8751730401936584
 20
310.0367318779329935
 30
0.0
 11
4350.8751730401936584
 21
310.0179778991947046
 31
0.0
  0
LINE
  5
1BAA8
  8
0
 10
4350.9026178007943599
 20
310.0333908609945865
 30
0.0
 11
4350.9026178007943599
 21
310.0210857498947234
 31
0.0
  0
LINE
  5
1BAA9
  8
0
 10
4350.918356430651329
 20
310.028682854209876
 30
0.0
 11
4350.9114352516953659
 21
310.0177665436946199
 31
0.0
  0
LINE
  5
1BAAA
  8
0
 10
4350.9322159039938924
 20
310.0302723313824913
 30
0.0
 11
4350.9322159039938924
 21
310.0115183525946918
 31
0.0
  0
LINE
  5
1BAAB
  8
0
 10
4350.959660664594594
 20
310.0269313143945737
 30
0.0
 11
4350.959660664594594
 21
310.0146262033946982
 31
0.0
  0
LINE
  5
1BAAC
  8
0
 10
4350.9753992944170022
 20
310.0222233077136025
 30
0.0
 11
4350.968478115394646
 21
310.0113069970947208
 31
0.0
  0
LINE
  5
1BAAD
  8
0
 10
4351.0894850218382999
 20
310.0093042145938966
 30
0.0
 11
4351.0837798282946096
 21
310.0003057960947217
 31
0.0
  0
LINE
  5
1BAAE
  8
0
 10
4351.0732393687949298
 20
310.0142264985947236
 30
0.0
 11
4351.0732393747948663
 21
310.0012276521947001
 31
0.0
  0
LINE
  5
1BAAF
  8
0
 10
4351.0476868529249259
 20
310.0175121028025274
 30
0.0
 11
4351.0476868283949443
 21
309.9983340761946238
 31
0.0
  0
LINE
  5
1BAB0
  8
0
 10
4351.0383279757943455
 20
309.9936850720947064
 30
0.0
 11
4351.0199120264942394
 21
310.0014679885945839
 31
0.0
  0
LINE
  5
1BAB1
  8
0
 10
4351.0199120264942394
 20
310.0014679885945839
 30
0.0
 11
4350.9895349083953988
 21
309.9979841812947257
 31
0.0
  0
LINE
  5
1BAB2
  8
0
 10
4350.9867923738947866
 20
309.9982409774946177
 30
0.0
 11
4350.9847661891953976
 21
309.9986734518946037
 31
0.0
  0
LINE
  5
1BAB3
  8
0
 10
4350.9847661891953976
 20
309.9986734518946037
 30
0.0
 11
4350.9628691625948704
 21
310.0079275351947103
 31
0.0
  0
LINE
  5
1BAB4
  8
0
 10
4350.9628691625948704
 20
310.0079275351947103
 30
0.0
 11
4350.9324920447943441
 21
310.0044437278946248
 31
0.0
  0
LINE
  5
1BAB5
  8
0
 10
4350.9336410199366583
 20
310.0045754983942174
 30
0.0
 11
4350.9271205770946835
 21
309.9942912418947003
 31
0.0
  0
LINE
  5
1BAB6
  8
0
 10
4350.929749510093643
 20
310.0047005239946998
 30
0.0
 11
4350.9277233254942985
 21
310.005132998394572
 31
0.0
  0
LINE
  5
1BAB7
  8
0
 10
4350.9277233254942985
 20
310.005132998394572
 30
0.0
 11
4350.9058262989938157
 21
310.0143870816946219
 31
0.0
  0
LINE
  5
1BAB8
  8
0
 10
4350.9058262989938157
 20
310.0143870816946219
 30
0.0
 11
4350.8754491808940656
 21
310.0109032742947193
 31
0.0
  0
LINE
  5
1BAB9
  8
0
 10
4350.872706646295228
 20
310.0111600705947126
 30
0.0
 11
4350.8706804615949295
 21
310.0115925449946985
 31
0.0
  0
LINE
  5
1BABA
  8
0
 10
4350.8706804615949295
 20
310.0115925449946985
 30
0.0
 11
4350.8487834351935817
 21
310.020846628194704
 31
0.0
  0
LINE
  5
1BABB
  8
0
 10
4350.8487834351935817
 20
310.020846628194704
 30
0.0
 11
4350.818406317193876
 21
310.0173628208946184
 31
0.0
  0
LINE
  5
1BABC
  8
0
 10
4350.819555292451696
 20
310.0174945914064892
 30
0.0
 11
4350.8154816296937497
 21
310.0110694768947042
 31
0.0
  0
LINE
  5
1BABD
  8
0
 10
4350.8156637825941289
 20
310.0176196170946241
 30
0.0
 11
4350.8136371330947441
 21
310.0180541817945823
 31
0.0
  0
LINE
  5
1BABE
  8
0
 10
4350.8136371330947441
 20
310.0180541817945823
 30
0.0
 11
4350.7917405712951222
 21
310.0273061747947168
 31
0.0
  0
LINE
  5
1BABF
  8
0
 10
4350.7917405712951222
 20
310.0273061747947168
 30
0.0
 11
4350.7661565150947354
 21
310.024365134794607
 31
0.0
  0
LINE
  5
1BAC0
  8
0
 10
4350.7472278393397573
 20
310.0480614938941244
 30
0.0
 11
4350.7400525390939947
 21
310.0367443748946243
 31
0.0
  0
LINE
  5
1BAC1
  8
0
 10
4350.9179431391949038
 20
310.0092662836946147
 30
0.0
 11
4350.9179431392949482
 21
309.9973628911947117
 31
0.0
  0
LINE
  5
1BAC2
  8
0
 10
4350.8611350027931621
 20
310.0156266301946175
 30
0.0
 11
4350.8611350029941605
 21
310.004192657594615
 31
0.0
  0
LINE
  5
1BAC3
  8
0
 10
4350.8072064729949489
 20
310.0207700022946256
 30
0.0
 11
4350.8072064669249812
 21
310.0155642239236045
 31
0.0
  0
ARC
  5
1BAC4
  8
0
 10
4351.1632290988045497
 20
310.2071752024785951
 30
0.0
 40
0.0154422523832267
 50
334.7793611918132797
 51
0.741653575484081
  0
ARC
  5
1BAC5
  8
0
 10
4351.1786418832707568
 20
310.2038213017506791
 30
0.0
 40
0.0035339674381654
 50
245.9078230260114992
 51
274.939940006323809
  0
ARC
  5
1BAC6
  8
0
 10
4351.1764513079360768
 20
310.206635531507402
 30
0.0
 40
0.0060864893371198
 50
248.0630364498929055
 51
277.0591174667806058
  0
ARC
  5
1BAC7
  8
0
 10
4351.1524780001536783
 20
310.2172948081193908
 30
0.0
 40
0.0065393765233236
 50
275.3712783974881972
 51
325.8438849846239123
  0
ARC
  5
1BAC8
  8
0
 10
4351.1562417012082733
 20
310.2172305359662801
 30
0.0
 40
0.0071755309014245
 50
182.3006852900234094
 51
243.9466014306186992
  0
LINE
  5
1BAC9
  8
0
 10
4351.1530901462183465
 20
310.2107841459019824
 30
0.0
 11
4351.1522804523947343
 21
310.2102438150946
 31
0.0
  0
ARC
  5
1BACA
  8
0
 10
4351.1061862368696893
 20
310.2136347488017805
 30
0.0
 40
0.0154422506210126
 50
334.7793588370898874
 51
0.7416543159703344
  0
ARC
  5
1BACB
  8
0
 10
4351.121594293274029
 20
310.2102528354704987
 30
0.0
 40
0.0035064728216507
 50
245.7914742499035015
 51
275.0562951603777719
  0
ARC
  5
1BACC
  8
0
 10
4351.1194084442640815
 20
310.2130950789907047
 30
0.0
 40
0.0060864902971816
 50
248.063038786832891
 51
277.0591151297970214
  0
ARC
  5
1BACD
  8
0
 10
4351.0954351363279784
 20
310.2237543549558154
 30
0.0
 40
0.006539376759897
 50
275.3712786715410061
 51
325.8438838875600254
  0
ARC
  5
1BACE
  8
0
 10
4351.0991988372416017
 20
310.223690082476196
 30
0.0
 40
0.0071755307318423
 50
182.3006846241760002
 51
243.9466024922083136
  0
ARC
  5
1BACF
  8
0
 10
4351.0489841542139402
 20
310.2201288344238037
 30
0.0
 40
0.01560105199106
 50
334.913765386247178
 51
0.6072493810545546
  0
ARC
  5
1BAD0
  8
0
 10
4351.0645561555620588
 20
310.2167403937115751
 30
0.0
 40
0.0035339663127818
 50
245.9078185895540969
 51
274.9399433667305743
  0
ARC
  5
1BAD1
  8
0
 10
4351.0383322337547725
 20
310.2303153910219748
 30
0.0
 40
0.0066462309396709
 50
275.8046917723390834
 51
325.4104697203496244
  0
ARC
  5
1BAD2
  8
0
 10
4351.0421552422621971
 20
310.2301491518971943
 30
0.0
 40
0.0071747809036584
 50
182.2971123083223119
 51
243.950174889595786
  0
ARC
  5
1BAD3
  8
0
 10
4350.9916040474763577
 20
310.2266615385706245
 30
0.0
 40
0.015937685335124
 50
335.1896033344614807
 51
0.3314130470318434
  0
ARC
  5
1BAD4
  8
0
 10
4351.0727251509197231
 20
310.1819349164567825
 30
0.0
 40
0.0071755295813301
 50
182.3006792443206052
 51
243.9466084071966918
  0
ARC
  5
1BAD5
  8
0
 10
4351.0689014121317086
 20
310.1821006791594755
 30
0.0
 40
0.0066462310055746
 50
275.8046932617820062
 51
325.4104707665273963
  0
LINE
  5
1BAD6
  8
0
 10
4351.0812944465333203
 20
310.1892440160855244
 30
0.0
 11
4351.0743687621943536
 21
310.1783312975946956
 31
0.0
  0
ARC
  5
1BAD7
  8
0
 10
4351.0118188706428555
 20
310.1886272970161826
 30
0.0
 40
0.0067170508083796
 50
276.083544039625906
 51
325.1316192217556136
  0
ARC
  5
1BAD8
  8
0
 10
4351.0156822881199332
 20
310.188394463607608
 30
0.0
 40
0.007175530506844
 50
182.3006841481557103
 51
243.946603194528592
  0
ARC
  5
1BAD9
  8
0
 10
4351.1063144299751002
 20
310.2343882027024051
 30
0.0
 40
0.0035339659038653
 50
245.9078171605941918
 51
274.9399437194197731
  0
ARC
  5
1BADA
  8
0
 10
4351.1041238551224524
 20
310.2372024344787746
 30
0.0
 40
0.0060864898812181
 50
248.0630356084066079
 51
277.0591150664197926
  0
LINE
  5
1BADB
  8
0
 10
4351.1078172541338063
 20
310.2310033895856236
 30
0.0
 11
4351.1066169448940855
 21
310.230867608694723
 31
0.0
  0
LINE
  5
1BADC
  8
0
 10
4351.1050732344619973
 20
310.2315379823484136
 30
0.0
 11
4351.1048718441943493
 21
310.2311620809945794
 31
0.0
  0
LINE
  5
1BADD
  8
0
 10
4351.101851388493742
 20
310.2315557833945832
 30
0.0
 11
4351.0993412085972523
 21
310.2326167631305793
 31
0.0
  0
LINE
  5
1BADE
  8
0
 10
4351.0481011570936971
 20
310.2381296538947026
 30
0.0
 11
4351.0478289803932057
 21
310.2376216274947183
 31
0.0
  0
ARC
  5
1BADF
  8
0
 10
4351.0492715663831405
 20
310.2408477514185847
 30
0.0
 40
0.0035339680116543
 50
245.9078287616260923
 51
274.9399406485707118
  0
ARC
  5
1BAE0
  8
0
 10
4351.0470809911348624
 20
310.2436619805075111
 30
0.0
 40
0.0060864893371751
 50
248.0630364500053986
 51
277.0591174666233769
  0
ARC
  5
1BAE1
  8
0
 10
4350.9813494091076791
 20
310.2366734476718761
 30
0.0
 40
0.0065393763684733
 50
275.3712766199162729
 51
325.8438845662689118
  0
ARC
  5
1BAE2
  8
0
 10
4350.9851131098876067
 20
310.2366091756603055
 30
0.0
 40
0.007175530881423
 50
182.3006852481327087
 51
243.9466018701673988
  0
ARC
  5
1BAE3
  8
0
 10
4350.9350576454344264
 20
310.2330133880973904
 30
0.0
 40
0.0154422506618652
 50
334.7793605669784256
 51
0.7416558145117212
  0
ARC
  5
1BAE4
  8
0
 10
4350.9504704281798695
 20
310.2296594874036941
 30
0.0
 40
0.0035339669011971
 50
245.9078207718814042
 51
274.9399422603858056
  0
ARC
  5
1BAE5
  8
0
 10
4350.9482798527342311
 20
310.2324737161659982
 30
0.0
 40
0.0060864878320395
 50
248.0630327862068896
 51
277.0591211303328123
  0
LINE
  5
1BAE6
  8
0
 10
4350.9519237184367739
 20
310.2262704178943977
 30
0.0
 11
4350.9450025394953627
 21
310.2153541072946155
 31
0.0
  0
ARC
  5
1BAE7
  8
0
 10
4350.9395911345418426
 20
310.2190256382924076
 30
0.0
 40
0.0065393763795921
 50
275.3712767611295931
 51
325.8438854745764957
  0
ARC
  5
1BAE8
  8
0
 10
4350.943354835619175
 20
310.2189613663965133
 30
0.0
 40
0.0071755311174823
 50
182.3006862610818075
 51
243.9466002933206141
  0
ARC
  5
1BAE9
  8
0
 10
4350.8931401552563329
 20
310.2154001174639006
 30
0.0
 40
0.0156010489561676
 50
334.9137628444236725
 51
0.6072519228987777
  0
ARC
  5
1BAEA
  8
0
 10
4350.9087121536404084
 20
310.2120116778737042
 30
0.0
 40
0.0035339667664442
 50
245.9078204938840884
 51
274.9399414622715767
  0
ARC
  5
1BAEB
  8
0
 10
4350.906521578538559
 20
310.214825909680826
 30
0.0
 40
0.0060864906873093
 50
248.0630394978138042
 51
277.059114905639376
  0
LINE
  5
1BAEC
  8
0
 10
4350.8948808545419524
 20
310.2327299644051095
 30
0.0
 11
4350.8879596756942192
 21
310.2218136538946283
 31
0.0
  0
ARC
  5
1BAED
  8
0
 10
4350.8781071310286279
 20
310.2394239521132135
 30
0.0
 40
0.015337833712413
 50
334.7978987932373229
 51
356.6361929979423735
  0
ARC
  5
1BAEE
  8
0
 10
4350.893427564369631
 20
310.2361190340582766
 30
0.0
 40
0.0035339670387357
 50
245.9078219246086121
 51
274.9399389555790094
  0
ARC
  5
1BAEF
  8
0
 10
4350.8912369893341747
 20
310.2389332648734808
 30
0.0
 40
0.0060864899737548
 50
248.0630358336777874
 51
277.0591148411597828
  0
ARC
  5
1BAF0
  8
0
 10
4350.882448554115399
 20
310.2256537455670014
 30
0.0
 40
0.006717050327171
 50
276.0835425206047944
 51
325.1316210317033892
  0
ARC
  5
1BAF1
  8
0
 10
4350.8863119712850676
 20
310.2254209127206082
 30
0.0
 40
0.0071755305722962
 50
182.3006842316235918
 51
243.9466041016023041
  0
ARC
  5
1BAF2
  8
0
 10
4350.8360972914351805
 20
310.2218596639709176
 30
0.0
 40
0.015601048978356
 50
334.9137628540166816
 51
0.6072522634449409
  0
ARC
  5
1BAF3
  8
0
 10
4350.8516692900284397
 20
310.2184712265743087
 30
0.0
 40
0.0035339688517743
 50
245.9078322884238048
 51
274.9399371220969215
  0
ARC
  5
1BAF4
  8
0
 10
4350.849478715060286
 20
310.2212854566283227
 30
0.0
 40
0.0060864910920109
 50
248.0630387943056974
 51
277.0591113936793022
  0
ARC
  5
1BAF5
  8
0
 10
4350.8253642379049779
 20
310.2322716510406053
 30
0.0
 40
0.006878953961617
 50
276.2870762101579203
 51
317.2152021353319924
  0
LINE
  5
1BAF6
  8
0
 10
4350.8261175529078173
 20
310.2254340693014001
 30
0.0
 11
4350.8248660554736489
 21
310.2263399629376863
 31
0.0
  0
LINE
  5
1BAF7
  8
0
 10
4350.8261175529078173
 20
310.2254340693014001
 30
0.0
 11
4350.825307859194254
 21
310.2248937384945862
 31
0.0
  0
LINE
  5
1BAF8
  8
0
 10
4350.7941262133381315
 20
310.2184605725378219
 30
0.0
 11
4350.7891585374936767
 21
310.2106253910945952
 31
0.0
  0
ARC
  5
1BAF9
  8
0
 10
4350.8407899965141041
 20
310.2078373751563163
 30
0.0
 40
0.006539376047849
 50
275.3712754413235189
 51
325.8438870608014213
  0
ARC
  5
1BAFA
  8
0
 10
4350.8445536971839829
 20
310.20777310344738
 30
0.0
 40
0.0071755308759784
 50
182.3006851468074956
 51
243.9466015111837009
  0
ARC
  5
1BAFB
  8
0
 10
4350.7837471327784442
 20
310.2142969216940855
 30
0.0
 40
0.0065393759601273
 50
275.3712750919011114
 51
325.8438871976891278
  0
ARC
  5
1BAFC
  8
0
 10
4350.7875108217367597
 20
310.2142326424537941
 30
0.0
 40
0.0071755189379454
 50
178.5012338285536089
 51
243.9466584273802994
  0
ARC
  5
1BAFD
  8
0
 10
4350.7990317218191194
 20
310.1901895659411252
 30
0.0
 40
0.0065393762306952
 50
275.371277252288678
 51
325.8438861914016229
  0
ARC
  5
1BAFE
  8
0
 10
4350.8028315255996858
 20
310.1901488504843201
 30
0.0
 40
0.0072125841549517
 50
182.4761505947975877
 51
243.7711362282952052
  0
ARC
  5
1BAFF
  8
0
 10
4350.7525807387237364
 20
310.1865640460950999
 30
0.0
 40
0.0156010527790736
 50
334.9137660462345139
 51
0.6072487210548596
  0
ARC
  5
1BB00
  8
0
 10
4350.7681621851097589
 20
310.183231584943087
 30
0.0
 40
0.0035889530507436
 50
246.1349889530187056
 51
274.7127719270238231
  0
ARC
  5
1BB01
  8
0
 10
4350.7659621657239768
 20
310.1859898366039943
 30
0.0
 40
0.0060864898312168
 50
248.0630374139061871
 51
277.0591169894811969
  0
ARC
  5
1BB02
  8
0
 10
4350.757273447578882
 20
310.1725417563923202
 30
0.0
 40
0.0065393759574048
 50
275.3712750699182834
 51
325.8438872017524091
  0
ARC
  5
1BB03
  8
0
 10
4350.7610732507710054
 20
310.17250104096928
 30
0.0
 40
0.0072125838228132
 50
182.4761497944724908
 51
243.7711377206117902
  0
ARC
  5
1BB04
  8
0
 10
4350.7108224650137345
 20
310.1689162366237724
 30
0.0
 40
0.0156010519911043
 50
334.9137653862737238
 51
0.6072493810122176
  0
ARC
  5
1BB05
  8
0
 10
4350.7264039102892639
 20
310.1655837734467127
 30
0.0
 40
0.003588950912701
 50
246.1349794371766961
 51
274.7127846711399002
  0
ARC
  5
1BB06
  8
0
 10
4350.7242038913382203
 20
310.1683420274895866
 30
0.0
 40
0.0060864901007876
 50
248.0630383087058988
 51
277.0591156077799155
  0
ARC
  5
1BB07
  8
0
 10
4350.700130866888685
 20
310.1791698640017216
 30
0.0
 40
0.0067170503702771
 50
276.0835423347228925
 51
325.1316209266972237
  0
ARC
  5
1BB08
  8
0
 10
4350.7155151731067235
 20
310.1548939471006179
 30
0.0
 40
0.0065393760783251
 50
275.3712754417418864
 51
325.8438867733382267
  0
ARC
  5
1BB09
  8
0
 10
4350.719314976448004
 20
310.1548532317312947
 30
0.0
 40
0.0072125840017667
 50
182.4761502256820904
 51
243.771137764990101
  0
ARC
  5
1BB0A
  8
0
 10
4350.669064193534723
 20
310.1512684264708923
 30
0.0
 40
0.015601048978301
 50
334.913762853981325
 51
0.6072522634970482
  0
ARC
  5
1BB0B
  8
0
 10
4350.6846456358516662
 20
310.1479359656318024
 30
0.0
 40
0.0035889524790551
 50
246.1349894063116892
 51
274.7127800041603791
  0
ARC
  5
1BB0C
  8
0
 10
4350.682445617158919
 20
310.1506942191186909
 30
0.0
 40
0.0060864910825723
 50
248.0630387713804055
 51
277.0591114166259104
  0
ARC
  5
1BB0D
  8
0
 10
4350.6736968592886114
 20
310.1373476277993859
 30
0.0
 40
0.0066462309237587
 50
275.804692351543622
 51
325.4104709098538137
  0
ARC
  5
1BB0E
  8
0
 10
4350.6775567017921276
 20
310.1372054220940981
 30
0.0
 40
0.0072125837360285
 50
182.4761484318399027
 51
243.7711379145237061
  0
ARC
  5
1BB0F
  8
0
 10
4350.6843487837768407
 20
310.1271610704798718
 30
0.0
 40
0.015601048037699
 50
334.9137620127247033
 51
0.6072526342785182
  0
ARC
  5
1BB10
  8
0
 10
4350.699930225386197
 20
310.1238286088208724
 30
0.0
 40
0.0035889516517091
 50
246.1349793580234007
 51
274.7127773527396926
  0
ARC
  5
1BB11
  8
0
 10
4350.6977276858051482
 20
310.1271621127111757
 30
0.0
 40
0.0066580391233167
 50
267.8901067707419088
 51
276.4722682198267876
  0
ARC
  5
1BB12
  8
0
 10
4350.692841291309378
 20
310.1130980664527783
 30
0.0
 40
0.0072125840639164
 50
182.4761503754461955
 51
243.7711372760392976
  0
ARC
  5
1BB13
  8
0
 10
4350.6889814483593
 20
310.1132402722884081
 30
0.0
 40
0.0066462313340381
 50
275.8046939860237217
 51
325.4104692753542167
  0
ARC
  5
1BB14
  8
0
 10
4350.6996333683237026
 20
310.1030537154950935
 30
0.0
 40
0.0156010527790293
 50
334.9137660461769883
 51
0.6072487210874266
  0
ARC
  5
1BB15
  8
0
 10
4350.715214814709725
 20
310.0997212543430805
 30
0.0
 40
0.0035889530507285
 50
246.1349889530704047
 51
274.712771927232609
  0
ARC
  5
1BB16
  8
0
 10
4350.7130122750668306
 20
310.1030547402547768
 30
0.0
 40
0.0066580226767155
 50
267.8901018810007031
 51
276.4722846022704061
  0
ARC
  5
1BB17
  8
0
 10
4350.7042754443236845
 20
310.089104344662303
 30
0.0
 40
0.00661685789432
 50
275.7486798207650054
 51
325.5737190665232106
  0
ARC
  5
1BB18
  8
0
 10
4350.7081258807902486
 20
310.0889907106242731
 30
0.0
 40
0.0072125842523435
 50
182.47615167449311
 51
243.7711355234197868
  0
ARC
  5
1BB19
  8
0
 10
4350.6835312738776338
 20
310.0859223412389269
 30
0.0
 40
0.0099039347803307
 50
180.0789271254494111
 51
225.7992037418713949
  0
ARC
  5
1BB1A
  8
0
 10
4350.7307397232889343
 20
310.1308880809867787
 30
0.0
 40
0.0066462305825567
 50
275.8046900603904987
 51
325.4104721546958103
  0
ARC
  5
1BB1B
  8
0
 10
4350.7345995659907203
 20
310.1307458759242763
 30
0.0
 40
0.0072125842523396
 50
182.4761516744802066
 51
243.7711355234197868
  0
ARC
  5
1BB1C
  8
0
 10
4350.7419888583026477
 20
310.1966491123789069
 30
0.0
 40
0.006539376043032
 50
275.3712749742409756
 51
325.8438857346508826
  0
ARC
  5
1BB1D
  8
0
 10
4350.7457886617839904
 20
310.1966083970789896
 30
0.0
 40
0.0072125841398003
 50
182.4761505582804091
 51
243.771136373291796
  0
LINE
  5
1BB1E
  8
0
 10
4350.8113643056367437
 20
310.1974343456934093
 30
0.0
 11
4350.804443126694423
 21
310.1865180350947071
 31
0.0
  0
ARC
  5
1BB1F
  8
0
 10
4350.7943390136970265
 20
310.2042118551626118
 30
0.0
 40
0.0156010522105912
 50
334.9137664171261122
 51
0.6072499643500088
  0
ARC
  5
1BB20
  8
0
 10
4350.8099110154389564
 20
310.2008234150736143
 30
0.0
 40
0.0035339667663433
 50
245.9078204934318137
 51
274.9399414627421834
  0
ARC
  5
1BB21
  8
0
 10
4350.8077204402115967
 20
310.2036376459071221
 30
0.0
 40
0.0060864897365573
 50
248.063037183516002
 51
277.0591172198876961
  0
ARC
  5
1BB22
  8
0
 10
4350.8513818807568896
 20
310.1977523080639116
 30
0.0
 40
0.0156010489561454
 50
334.9137628444000825
 51
0.6072519228987777
  0
ARC
  5
1BB23
  8
0
 10
4350.8669538795993503
 20
310.1943638711936728
 30
0.0
 40
0.0035339694367821
 50
245.9078317033790029
 51
274.9399302527913278
  0
ARC
  5
1BB24
  8
0
 10
4350.8647633041327936
 20
310.1971780995730228
 30
0.0
 40
0.0060864899731671
 50
248.0630358322227096
 51
277.0591148426299242
  0
ARC
  5
1BB25
  8
0
 10
4350.856074585353781
 20
310.1837300196631872
 30
0.0
 40
0.0065393765747626
 50
275.3712793498673932
 51
325.8438858854732985
  0
ARC
  5
1BB26
  8
0
 10
4350.8598382746931748
 20
310.1836657397627164
 30
0.0
 40
0.0071755187837517
 50
182.300626816010606
 51
243.9466592429124034
  0
ARC
  5
1BB27
  8
0
 10
4350.8666664700558613
 20
310.1736449521638974
 30
0.0
 40
0.0156010489561675
 50
334.9137628444029815
 51
0.6072519228727242
  0
ARC
  5
1BB28
  8
0
 10
4350.8822384688292004
 20
310.1702565148788722
 30
0.0
 40
0.003533969029613
 50
245.9078299941587034
 51
274.9399319619976154
  0
ARC
  5
1BB29
  8
0
 10
4350.8800478933399063
 20
310.1730707443808797
 30
0.0
 40
0.0060864906873474
 50
248.0630394978767015
 51
277.0591149055343863
  0
ARC
  5
1BB2A
  8
0
 10
4350.9131174493541039
 20
310.177270472971486
 30
0.0
 40
0.0065393763575401
 50
275.3712767038697962
 51
325.8438855647410719
  0
ARC
  5
1BB2B
  8
0
 10
4350.916881150644258
 20
310.1772062012457241
 30
0.0
 40
0.0071755313481391
 50
182.300687379191487
 51
243.9465992299305981
  0
ARC
  5
1BB2C
  8
0
 10
4350.9238685484679081
 20
310.1671508673566109
 30
0.0
 40
0.0154422518224973
 50
334.7793607121996047
 51
0.7416540550748746
  0
ARC
  5
1BB2D
  8
0
 10
4350.93928133211557
 20
310.1637969653331197
 30
0.0
 40
0.0035339660393665
 50
245.9078174417871878
 51
274.9399445144479728
  0
ARC
  5
1BB2E
  8
0
 10
4350.9370882367529703
 20
310.1671864490676853
 30
0.0
 40
0.0066580404769531
 50
267.8901076448057097
 51
276.4722673457873725
  0
LINE
  5
1BB2F
  8
0
 10
4350.9824933083318683
 20
310.1780557532853777
 30
0.0
 11
4350.9755676239938111
 21
310.1671430347947194
 31
0.0
  0
ARC
  5
1BB30
  8
0
 10
4350.9739240136877925
 20
310.1707466542372913
 30
0.0
 40
0.0071755305718815
 50
182.3006835650548965
 51
243.9466027813006122
  0
ARC
  5
1BB31
  8
0
 10
4350.9701096801245512
 20
310.1708838455014074
 30
0.0
 40
0.0066168584703982
 50
275.748682778302225
 51
325.5737178772818083
  0
ARC
  5
1BB32
  8
0
 10
4350.9809114109057191
 20
310.1606913209939762
 30
0.0
 40
0.0154422530803558
 50
334.7793619448258937
 51
0.7416531136054582
  0
ARC
  5
1BB33
  8
0
 10
4350.996324196004025
 20
310.157337419740486
 30
0.0
 40
0.0035339670267064
 50
245.9078215728044086
 51
274.9399400566931035
  0
ARC
  5
1BB34
  8
0
 10
4350.994131100517734
 20
310.1607268833391231
 30
0.0
 40
0.0066580213637092
 50
267.8901010280555965
 51
276.4722856048517201
  0
LINE
  5
1BB35
  8
0
 10
4351.0656204152937789
 20
310.2127377328947091
 30
0.0
 11
4351.0590882669948769
 21
310.2024350141945774
 31
0.0
  0
ARC
  5
1BB36
  8
0
 10
4351.0536768621477677
 20
310.2061065449781836
 30
0.0
 40
0.0065393761704405
 50
275.3712767621241255
 51
325.8438864992485833
  0
ARC
  5
1BB37
  8
0
 10
4351.0380824703615872
 20
310.1749852284115718
 30
0.0
 40
0.0035339663127939
 50
245.907818589605597
 51
274.9399433666781079
  0
ARC
  5
1BB38
  8
0
 10
4351.0358893750180869
 20
310.1783746927241054
 30
0.0
 40
0.0066580213486786
 50
267.8901010234146725
 51
276.4722854596851107
  0
ARC
  5
1BB39
  8
0
 10
4351.022669686077279
 20
310.1783391302845985
 30
0.0
 40
0.0154422524110251
 50
334.7793612155821279
 51
0.7416535517132563
  0
LINE
  5
1BB3A
  8
0
 10
4351.0656204151937345
 20
310.2127377328947091
 30
0.0
 11
4351.0590841728935629
 21
310.2024386535945837
 31
0.0
  0
ARC
  5
1BB3B
  8
0
 10
4351.0053227168127705
 20
310.2260141722795197
 30
0.0
 40
0.0060864904906932
 50
248.0630390191811898
 51
277.0591153841991741
  0
ARC
  5
1BB3C
  8
0
 10
4351.2247454140469927
 20
310.186829395833513
 30
0.0
 40
0.0066462313700683
 50
275.8046931977228837
 51
325.4104690173242034
  0
ARC
  5
1BB3D
  8
0
 10
4351.2285691539191248
 20
310.1866636333576253
 30
0.0
 40
0.0071755306037478
 50
182.3006837168994991
 51
243.9466026294502967
  0
ARC
  5
1BB3E
  8
0
 10
4351.2355565528587249
 20
310.1766082997497165
 30
0.0
 40
0.0154422513315833
 50
334.7793602923366052
 51
358.6570214942360053
  0
ARC
  5
1BB3F
  8
0
 10
4351.2509693362690086
 20
310.1732543992337128
 30
0.0
 40
0.0035339674215751
 50
245.9078229563700972
 51
274.939940075941081
  0
ARC
  5
1BB40
  8
0
 10
4351.2487762421105799
 20
310.1766438440341176
 30
0.0
 40
0.0066580029189189
 50
267.8900840432036716
 51
276.4722913848082158
  0
ARC
  5
1BB41
  8
0
 10
4351.240030003411448
 20
310.1627220399565203
 30
0.0
 40
0.0066462313864774
 50
275.8046926205087743
 51
325.4104678258526064
  0
ARC
  5
1BB42
  8
0
 10
4351.2438537435000399
 20
310.162556277632973
 30
0.0
 40
0.0071755308950226
 50
182.3006858244899888
 51
243.9466013537534934
  0
ARC
  5
1BB43
  8
0
 10
4351.2508411424441874
 20
310.1525009437877998
 30
0.0
 40
0.0154422510468597
 50
334.779360048785918
 51
0.7416547184870284
  0
ARC
  5
1BB44
  8
0
 10
4351.2662539253469731
 20
310.1491470422229781
 30
0.0
 40
0.0035339663168894
 50
245.9078188944812098
 51
274.9399419857348903
  0
ARC
  5
1BB45
  8
0
 10
4351.2640608313749908
 20
310.1525364708766119
 30
0.0
 40
0.0066579857753952
 50
267.8900780534517025
 51
276.4723084298357776
  0
ARC
  5
1BB46
  8
0
 10
4351.2653843633215729
 20
310.1285544122163742
 30
0.0
 40
0.016182372912479
 50
335.3827204269052231
 51
0.1382952571618647
  0
ARC
  5
1BB47
  8
0
 10
4351.2815385146614062
 20
310.1250396871733983
 30
0.0
 40
0.0035339671714397
 50
245.9078254714976026
 51
274.9399421777447969
  0
ARC
  5
1BB48
  8
0
 10
4351.2793454206621391
 20
310.1284291326653033
 30
0.0
 40
0.0066580034516107
 50
267.8900837689702144
 51
276.4722915979426148
  0
ARC
  5
1BB49
  8
0
 10
4351.2705991818584152
 20
310.1145073279922144
 30
0.0
 40
0.0066462313381068
 50
275.8046940022607032
 51
325.4104692591279218
  0
ARC
  5
1BB4A
  8
0
 10
4351.2744229218542387
 20
310.1143415656968045
 30
0.0
 40
0.0071755307442758
 50
182.3006847849258065
 51
243.9466028665731869
  0
ARC
  5
1BB4B
  8
0
 10
4351.2243674578594437
 20
310.1107457783547829
 30
0.0
 40
0.0154422504354318
 50
334.7793595258278856
 51
0.7416552414470724
  0
ARC
  5
1BB4C
  8
0
 10
4351.2397802400746514
 20
310.1073918765023905
 30
0.0
 40
0.0035339659038727
 50
245.9078171607092997
 51
274.9399437195239102
  0
ARC
  5
1BB4D
  8
0
 10
4351.2375871448048201
 20
310.1107813589849798
 30
0.0
 40
0.0066580390972102
 50
267.8901067539511018
 51
276.4722682367665811
  0
ARC
  5
1BB4E
  8
0
 10
4351.2553105483166291
 20
310.1386215202476819
 30
0.0
 40
0.0066534425063625
 50
275.8333877370835125
 51
325.3817752730968778
  0
ARC
  5
1BB4F
  8
0
 10
4351.2591383326180221
 20
310.1384489216385987
 30
0.0
 40
0.0071755308099259
 50
182.300685097686312
 51
243.9466025538100098
  0
ARC
  5
1BB50
  8
0
 10
4351.2088120148300732
 20
310.1349118903021918
 30
0.0
 40
0.0157124442772257
 50
335.0063822416411767
 51
0.5146329365914228
  0
ARC
  5
1BB51
  8
0
 10
4351.22449565097304
 20
310.1314992340737717
 30
0.0
 40
0.0035339674696318
 50
245.9078267741240893
 51
274.9399415602380827
  0
ARC
  5
1BB52
  8
0
 10
4351.2223025569091988
 20
310.1348886807718941
 30
0.0
 40
0.0066580049551801
 50
267.8900847080075778
 51
276.4722902823206141
  0
ARC
  5
1BB53
  8
0
 10
4351.1982717286609841
 20
310.1450742307881114
 30
0.0
 40
0.0066462316422029
 50
275.804694571146797
 51
325.4104669215088848
  0
ARC
  5
1BB54
  8
0
 10
4351.2020954687513949
 20
310.1449084680789952
 30
0.0
 40
0.0071755306374714
 50
182.3006838775908136
 51
243.9466024688358914
  0
ARC
  5
1BB55
  8
0
 10
4351.1520400046256327
 20
310.141312681019599
 30
0.0
 40
0.0154422506661293
 50
334.7793592773982141
 51
0.7416546188535649
  0
ARC
  5
1BB56
  8
0
 10
4351.1674527875311469
 20
310.1379587805081997
 30
0.0
 40
0.0035339674645498
 50
245.9078203837161993
 51
274.9399341183546994
  0
ARC
  5
1BB57
  8
0
 10
4351.1652596917529081
 20
310.1413482628420866
 30
0.0
 40
0.0066580404514462
 50
267.8901076283278258
 51
276.4722673622031834
  0
ARC
  5
1BB58
  8
0
 10
4351.1829871395466398
 20
310.1691815864331261
 30
0.0
 40
0.0066462313696462
 50
275.8046931960467987
 51
325.4104690189907956
  0
ARC
  5
1BB59
  8
0
 10
4351.1868108796834349
 20
310.1690158241303834
 30
0.0
 40
0.007175530875405
 50
182.3006850111389099
 51
243.9466013352009099
  0
ARC
  5
1BB5A
  8
0
 10
4351.1367554141479559
 20
310.1654200370605281
 30
0.0
 40
0.0154422518406976
 50
334.7793607277966998
 51
0.7416540395218393
  0
ARC
  5
1BB5B
  8
0
 10
4351.1677025502585821
 20
310.1932889422889161
 30
0.0
 40
0.0066462313346096
 50
275.8046939883282107
 51
325.4104692730701913
  0
ARC
  5
1BB5C
  8
0
 10
4351.1715262907391661
 20
310.19312318031308
 30
0.0
 40
0.0071755312413593
 50
182.3006871531879085
 51
243.9466004983154903
  0
ARC
  5
1BB5D
  8
0
 10
4351.1214708254119614
 20
310.1895273928382721
 30
0.0
 40
0.0154422512791915
 50
334.7793602475134094
 51
0.7416545197776571
  0
ARC
  5
1BB5E
  8
0
 10
4351.1368836087322052
 20
310.1861734922205187
 30
0.0
 40
0.0035339673032136
 50
245.907822747112192
 51
274.9399392090463152
  0
ARC
  5
1BB5F
  8
0
 10
4351.1346905132168104
 20
310.1895629555496043
 30
0.0
 40
0.0066580213741335
 50
267.8901010399449092
 51
276.4722854433225052
  0
ARC
  5
1BB60
  8
0
 10
4351.1107197260889734
 20
310.1996469980715005
 30
0.0
 40
0.0065393757430444
 50
275.3712749971135167
 51
325.8438882642830094
  0
ARC
  5
1BB61
  8
0
 10
4351.1144834151364194
 20
310.1995827190950763
 30
0.0
 40
0.0071755190335695
 50
182.3006285931764978
 51
243.9466577531939038
  0
ARC
  5
1BB62
  8
0
 10
4351.0644279602665847
 20
310.1959869396546878
 30
0.0
 40
0.0154422527211016
 50
334.7793614698214242
 51
0.7416536476335038
  0
ARC
  5
1BB63
  8
0
 10
4351.0798407447764475
 20
310.1926330374024019
 30
0.0
 40
0.0035339659038968
 50
245.9078171607675074
 51
274.9399437193151812
  0
ARC
  5
1BB64
  8
0
 10
4351.0776501698210268
 20
310.1954472684083726
 30
0.0
 40
0.006086489129057
 50
248.0630337774634881
 51
277.0591168972773062
  0
ARC
  5
1BB65
  8
0
 10
4351.0797125506469456
 20
310.1718795836226263
 30
0.0
 40
0.0154422516420595
 50
334.7793601526873886
 51
0.7416538188269434
  0
ARC
  5
1BB66
  8
0
 10
4351.0951253343446297
 20
310.1685256831619881
 30
0.0
 40
0.0035339676337537
 50
245.9078240694265105
 51
274.9399369138207021
  0
ARC
  5
1BB67
  8
0
 10
4351.0929322400634192
 20
310.1719151282657094
 30
0.0
 40
0.0066580034520203
 50
267.8900837692308983
 51
276.4722917361337977
  0
ARC
  5
1BB68
  8
0
 10
4351.0003976985262852
 20
310.2125018194060999
 30
0.0
 40
0.0071755302054651
 50
182.3006826344922899
 51
243.9466045634237048
  0
ARC
  5
1BB69
  8
0
 10
4350.9503422353600399
 20
310.2089060320615772
 30
0.0
 40
0.0154422500379254
 50
334.779360033309672
 51
0.7416563481815396
  0
ARC
  5
1BB6A
  8
0
 10
4350.9657550173151321
 20
310.2055521306326114
 30
0.0
 40
0.00353396603877
 50
245.9078174392807057
 51
274.9399445169585192
  0
ARC
  5
1BB6B
  8
0
 10
4350.9635644426352883
 20
310.2083663639182873
 30
0.0
 40
0.0060864914820691
 50
248.0630395051209121
 51
277.0591111696793973
  0
ARC
  5
1BB6C
  8
0
 10
4350.9548757238535472
 20
310.1949182823706792
 30
0.0
 40
0.0065393763563199
 50
275.3712768192269778
 51
325.843885566606275
  0
ARC
  5
1BB6D
  8
0
 10
4350.9586394246643977
 20
310.1948540103414871
 30
0.0
 40
0.0071755308567171
 50
182.3006851061533951
 51
243.9466016976132039
  0
ARC
  5
1BB6E
  8
0
 10
4350.9085839585723079
 20
310.1912582233856028
 30
0.0
 40
0.0154422524156303
 50
334.7793612195353035
 51
0.7416535477688209
  0
ARC
  5
1BB6F
  8
0
 10
4350.9239967429793978
 20
310.1879043221038046
 30
0.0
 40
0.003533966901267
 50
245.9078207722174056
 51
274.9399422601243259
  0
ARC
  5
1BB70
  8
0
 10
4350.9218061677347578
 20
310.1907185524074748
 30
0.0
 40
0.0060864893371991
 50
248.0630364500597977
 51
277.059117466518785
  0
ARC
  5
1BB71
  8
0
 10
4350.8978328601124304
 20
310.2013778286437855
 30
0.0
 40
0.0065393761247921
 50
275.3712763440317985
 51
325.8438876503576012
  0
ARC
  5
1BB72
  8
0
 10
4350.9015965496773788
 20
310.201313549531676
 30
0.0
 40
0.0071755193850665
 50
182.3006303705734865
 51
243.9466561917780041
  0
ARC
  5
1BB73
  8
0
 10
4350.8252050484106803
 20
310.1767720353818163
 30
0.0
 40
0.0035889500490719
 50
246.1349764741030128
 51
274.7127854822155086
  0
ARC
  5
1BB74
  8
0
 10
4350.8096236053133907
 20
310.1801044987598743
 30
0.0
 40
0.0156010498987329
 50
334.9137644808503183
 51
0.6072519006136403
  0
ARC
  5
1BB75
  8
0
 10
4350.8230050293086606
 20
310.1795302884519856
 30
0.0
 40
0.0060864882181983
 50
248.0630334874772984
 51
277.0591209157839785
  0
ARC
  5
1BB76
  8
0
 10
4350.8142165943881992
 20
310.1662507709017973
 30
0.0
 40
0.0067170503702813
 50
276.0835423347231767
 51
325.1316209266892088
  0
ARC
  5
1BB77
  8
0
 10
4350.8181161144921134
 20
310.166041494294177
 30
0.0
 40
0.0072125837360217
 50
182.4761484318138969
 51
243.771137914576201
  0
ARC
  5
1BB78
  8
0
 10
4350.7678653308139474
 20
310.1624566893598853
 30
0.0
 40
0.0156010498987896
 50
334.9137644809225094
 51
0.6072519005745597
  0
ARC
  5
1BB79
  8
0
 10
4350.7834467744451103
 20
310.1591242291565891
 30
0.0
 40
0.0035889531690796
 50
246.1349891599788009
 51
274.712772796189995
  0
ARC
  5
1BB7A
  8
0
 10
4350.7812467548110362
 20
310.1618824790622284
 30
0.0
 40
0.0060864882282002
 50
248.0630335119132894
 51
277.0591208915773791
  0
ARC
  5
1BB7B
  8
0
 10
4354.6130618354827675
 20
307.7017446610262823
 30
0.0
 40
4.6245597351715011
 50
147.5881918034179989
 51
147.6642358567341091
  0
ARC
  5
1BB7C
  8
0
 10
4350.7255980287236525
 20
310.1449193031672849
 30
0.0
 40
0.0161092949954895
 50
335.3256733699050187
 51
0.1953413973750088
  0
ARC
  5
1BB7D
  8
0
 10
4350.7416884999101967
 20
310.1414764196431975
 30
0.0
 40
0.0035889530507336
 50
246.1349889530704047
 51
274.7127719271804267
  0
ARC
  5
1BB7E
  8
0
 10
4350.7394859603173245
 20
310.1448099042237914
 30
0.0
 40
0.0066580213484124
 50
267.8901010233104216
 51
276.4722854599477273
  0
ARC
  5
1BB7F
  8
0
 10
4350.7724979974773305
 20
310.1485358908552143
 30
0.0
 40
0.0066462310802167
 50
275.8046923322680186
 51
325.4104691604305231
  0
ARC
  5
1BB80
  8
0
 10
4350.7763578401327322
 20
310.1483936850906957
 30
0.0
 40
0.007212583884497
 50
182.4761499430858009
 51
243.7711372548378108
  0
ARC
  5
1BB81
  8
0
 10
4350.8295502673790907
 20
310.1420477733802272
 30
0.0
 40
0.0066168585536049
 50
275.7486831129170923
 51
325.5737175426557997
  0
ARC
  5
1BB82
  8
0
 10
4350.8334007037929041
 20
310.141934138394106
 30
0.0
 40
0.0072125837360297
 50
182.4761484318235887
 51
243.7711379145237061
  0
ARC
  5
1BB83
  8
0
 10
4350.8401927810236884
 20
310.1318897876951155
 30
0.0
 40
0.0156010527790727
 50
334.9137660462286021
 51
0.6072487210548596
  0
ARC
  5
1BB84
  8
0
 10
4350.8557742270086237
 20
310.128557325280326
 30
0.0
 40
0.0035889517337214
 50
246.1349866499176073
 51
274.7127816844027279
  0
ARC
  5
1BB85
  8
0
 10
4350.8535716883925488
 20
310.1318908042047156
 30
0.0
 40
0.0066580144085839
 50
267.8900934458825986
 51
276.4722872512401182
  0
ARC
  5
1BB86
  8
0
 10
4350.8712991357760984
 20
310.1597241536553042
 30
0.0
 40
0.0066462310802606
 50
275.8046923324251907
 51
325.410469160245384
  0
ARC
  5
1BB87
  8
0
 10
4350.8751589785188116
 20
310.1595819480638738
 30
0.0
 40
0.0072125840780947
 50
182.4761512546045026
 51
243.7711372484407093
  0
ARC
  5
1BB88
  8
0
 10
4350.8820249648269964
 20
310.1495215640049992
 30
0.0
 40
0.0155273266562477
 50
334.851716892428783
 51
0.6692978748633707
  0
ARC
  5
1BB89
  8
0
 10
4350.8975325019464435
 20
310.1462051360566079
 30
0.0
 40
0.0035889531690849
 50
246.1349891599801083
 51
274.712772796138097
  0
ARC
  5
1BB8A
  8
0
 10
4350.8953299623153725
 20
310.1495386205756972
 30
0.0
 40
0.0066580214003068
 50
267.8901010568400238
 51
276.472285426435576
  0
ARC
  5
1BB8B
  8
0
 10
4350.9283514058079163
 20
310.1532360357944071
 30
0.0
 40
0.0066168581468515
 50
275.7486814770800265
 51
325.5737191784920128
  0
ARC
  5
1BB8C
  8
0
 10
4350.9321657279870124
 20
310.1530988375292281
 30
0.0
 40
0.007175519087159
 50
182.3006288484799029
 51
243.9466574979103939
  0
ARC
  5
1BB8D
  8
0
 10
4350.9386566789380595
 20
310.1431512077811021
 30
0.0
 40
0.015937683473905
 50
335.1896009913530747
 51
0.3314141260927806
  0
ARC
  5
1BB8E
  8
0
 10
4350.9523773662003805
 20
310.1425193110853797
 30
0.0
 40
0.0061015956560652
 50
248.0997138648806128
 51
277.022440051625324
  0
ARC
  5
1BB8F
  8
0
 10
4351.1259442756581848
 20
310.1756411332925154
 30
0.0
 40
0.0066462316469061
 50
275.8046945898985882
 51
325.4104669027919954
  0
ARC
  5
1BB90
  8
0
 10
4351.1297680043353466
 20
310.1754753631349217
 30
0.0
 40
0.0071755189357271
 50
182.3006289421579993
 51
243.9466582557425909
  0
ARC
  5
1BB91
  8
0
 10
4351.1412288649753464
 20
310.1515337771298846
 30
0.0
 40
0.0066462314833685
 50
275.8046945809418844
 51
325.4104686804329845
  0
ARC
  5
1BB92
  8
0
 10
4351.1450525942282184
 20
310.151368007633323
 30
0.0
 40
0.0071755196438486
 50
182.3006318992229922
 51
243.9466557522717949
  0
ARC
  5
1BB93
  8
0
 10
4351.0949971397712943
 20
310.1477722275955102
 30
0.0
 40
0.0154422517192863
 50
334.7793607907913724
 51
0.741654286362981
  0
ARC
  5
1BB94
  8
0
 10
4351.1104099235617468
 20
310.1444183268761776
 30
0.0
 40
0.0035339672650969
 50
245.9078222846810888
 51
274.9399403992874795
  0
ARC
  5
1BB95
  8
0
 10
4351.1082168280181577
 20
310.1478077902394261
 30
0.0
 40
0.0066580213640794
 50
267.8901010283685196
 51
276.4722856150257826
  0
LINE
  5
1BB96
  8
0
 10
4351.1118632137422537
 20
310.1410292569947842
 30
0.0
 11
4351.1049420347935666
 21
310.1301129464947053
 31
0.0
  0
ARC
  5
1BB97
  8
0
 10
4351.0994705911816709
 20
310.1338859666342955
 30
0.0
 40
0.0066462302223294
 50
275.8046895571350774
 51
325.4104737042687816
  0
ARC
  5
1BB98
  8
0
 10
4351.1032943304489891
 20
310.1337202052166049
 30
0.0
 40
0.0071755305361847
 50
182.3006842101326868
 51
243.9466029877447966
  0
ARC
  5
1BB99
  8
0
 10
4351.1102817284054254
 20
310.123664871878475
 30
0.0
 40
0.015442252383224
 50
334.7793611918074248
 51
0.741653575484081
  0
LINE
  5
1BB9A
  8
0
 10
4351.156375945794025
 20
310.1202739379946252
 30
0.0
 11
4351.1259988278943638
 21
310.1167901305946089
 31
0.0
  0
LINE
  5
1BB9B
  8
0
 10
4351.1212301085943182
 20
310.1174794011947142
 30
0.0
 11
4351.0993330820938354
 21
310.1267334844945935
 31
0.0
  0
ARC
  5
1BB9C
  8
0
 10
4351.125694512870723
 20
310.1203109711506727
 30
0.0
 40
0.0035339674381621
 50
245.9078230260114992
 51
274.9399400063758776
  0
ARC
  5
1BB9D
  8
0
 10
4351.1235189481158159
 20
310.1232401644575134
 30
0.0
 40
0.0061988047017666
 50
248.331317114931295
 51
276.7908368015663996
  0
ARC
  5
1BB9E
  8
0
 10
4351.1147551798585482
 20
310.1097786116889097
 30
0.0
 40
0.0066462313345374
 50
275.8046939880661057
 51
325.4104692733600928
  0
ARC
  5
1BB9F
  8
0
 10
4351.1185789087339799
 20
310.1096128420251716
 30
0.0
 40
0.0071755192379079
 50
182.3006295667036909
 51
243.9466567796517893
  0
ARC
  5
1BBA0
  8
0
 10
4351.1255663189940606
 20
310.0995575157622852
 30
0.0
 40
0.0154422510964524
 50
334.7793594302070801
 51
0.7416544396351511
  0
ARC
  5
1BBA1
  8
0
 10
4351.1409791019723343
 20
310.0962036152731116
 30
0.0
 40
0.0035339674689622
 50
245.9078267713250909
 51
274.9399415631144166
  0
ARC
  5
1BBA2
  8
0
 10
4351.1387860071927207
 20
310.099593071391098
 30
0.0
 40
0.0066580143950853
 50
267.8900932797989753
 51
276.4722872638798208
  0
ARC
  5
1BBA3
  8
0
 10
4351.171798044044408
 20
310.1033190645594004
 30
0.0
 40
0.0066462306590626
 50
275.8046903651826938
 51
325.4104718499028763
  0
ARC
  5
1BBA4
  8
0
 10
4351.1756217721876965
 20
310.1031532953692818
 30
0.0
 40
0.0071755189898189
 50
182.3006291998563029
 51
243.9466579980322081
  0
ARC
  5
1BBA5
  8
0
 10
4351.1826091827979326
 20
310.0930979688703246
 30
0.0
 40
0.0154422509971616
 50
334.7793608537596128
 51
0.7416555277384073
  0
ARC
  5
1BBA6
  8
0
 10
4351.19802196584169
 20
310.0897440679896135
 30
0.0
 40
0.0035339667820596
 50
245.9078205594157964
 51
274.9399413967340138
  0
ARC
  5
1BBA7
  8
0
 10
4351.1958288717123651
 20
310.0931335153945838
 30
0.0
 40
0.0066580048780937
 50
267.8900846583127873
 51
276.4722903321952003
  0
ARC
  5
1BBA8
  8
0
 10
4351.228850313725161
 20
310.096830947401827
 30
0.0
 40
0.0066168584709353
 50
275.7486827804494851
 51
325.5737178751429042
  0
ARC
  5
1BBA9
  8
0
 10
4351.2326646474930385
 20
310.0966937563882198
 30
0.0
 40
0.0071755308878941
 50
182.3006854691371075
 51
243.9466021823450887
  0
ARC
  5
1BBAA
  8
0
 10
4351.2396520455440623
 20
310.0866384227746266
 30
0.0
 40
0.0154422520459084
 50
334.7793610356632144
 51
0.7416539775220523
  0
ARC
  5
1BBAB
  8
0
 10
4351.2550648294109124
 20
310.0832845206136881
 30
0.0
 40
0.0035339659207039
 50
245.9078169326060959
 51
274.9399447485628798
  0
ARC
  5
1BBAC
  8
0
 10
4351.2528717341174342
 20
310.0866739853399281
 30
0.0
 40
0.0066580213645616
 50
267.8901010286292035
 51
276.4722855794682914
  0
ARC
  5
1BBAD
  8
0
 10
4351.2721528713036605
 20
310.0910836217523752
 30
0.0
 40
0.0122919051017743
 50
316.8694993788993202
 51
357.1883005503053141
  0
ARC
  5
1BBAE
  8
0
 10
4351.2543483446588652
 20
310.0664258071860786
 30
0.0
 40
0.0067895645895228
 50
292.1723504708650125
 51
4.5557985891291306
  0
ARC
  5
1BBAF
  8
0
 10
4351.2220399025563893
 20
310.0451579027866842
 30
0.0
 40
0.005853987348033
 50
275.7215530962802177
 51
5.5241299070629566
  0
ARC
  5
1BBB0
  8
0
 10
4351.1807100538162558
 20
310.0278709137592728
 30
0.0
 40
0.0060400477238462
 50
268.1146660910346782
 51
359.3520342411146089
  0
ARC
  5
1BBB1
  8
0
 10
4351.2023766284783051
 20
310.0550757821807792
 30
0.0
 40
0.0066168585541353
 50
275.7486831150644093
 51
325.5737175405275252
  0
ARC
  5
1BBB2
  8
0
 10
4351.206227064891209
 20
310.0549621471940895
 30
0.0
 40
0.0072125837360249
 50
182.4761484317976112
 51
243.771137914519386
  0
ARC
  5
1BBB3
  8
0
 10
4351.1561354991163171
 20
310.0513428033859782
 30
0.0
 40
0.0154422494813003
 50
334.7793589777003831
 51
0.7416562846081332
  0
ARC
  5
1BBB4
  8
0
 10
4351.171548280515708
 20
310.0479889019384245
 30
0.0
 40
0.0035339660445755
 50
245.9078174635968139
 51
274.9399444925326179
  0
ARC
  5
1BBB5
  8
0
 10
4351.1693551857943021
 20
310.0513783596049961
 30
0.0
 40
0.0066580144088295
 50
267.8900932851699963
 51
276.4722872509786953
  0
ARC
  5
1BBB6
  8
0
 10
4351.1606089477318164
 20
310.0374565441898085
 30
0.0
 40
0.0066462315270096
 50
275.8046931804374253
 51
325.4104672659980793
  0
ARC
  5
1BBB7
  8
0
 10
4351.1644326878940774
 20
310.0372907817417172
 30
0.0
 40
0.0071755308900798
 50
182.3006858961890089
 51
243.9466013017301123
  0
ARC
  5
1BBB8
  8
0
 10
4351.1978937720941758
 20
310.0689906131772773
 30
0.0
 40
0.0154422509984841
 50
334.7793600074234064
 51
0.7416547598723254
  0
ARC
  5
1BBB9
  8
0
 10
4351.2133065550251558
 20
310.065636712084995
 30
0.0
 40
0.0035339667704617
 50
245.9078207984805999
 51
274.9399400817467836
  0
ARC
  5
1BBBA
  8
0
 10
4351.2111134596179909
 20
310.069026175923625
 30
0.0
 40
0.0066580213482545
 50
267.890101023206114
 51
276.4722854600523192
  0
ARC
  5
1BBBB
  8
0
 10
4351.2441254966579436
 20
310.0727521626889143
 30
0.0
 40
0.006646231334557
 50
275.8046939881189132
 51
325.4104692732850026
  0
ARC
  5
1BBBC
  8
0
 10
4351.247949236905697
 20
310.0725864005618178
 30
0.0
 40
0.0071755310035101
 50
182.3006860199652124
 51
243.9466016314858905
  0
ARC
  5
1BBBD
  8
0
 10
4351.1870826328649855
 20
310.0792117093711227
 30
0.0
 40
0.0066462315152694
 50
275.8046937761943127
 51
325.4104684388707938
  0
ARC
  5
1BBBE
  8
0
 10
4351.1909063618177242
 20
310.0790459395802259
 30
0.0
 40
0.0071755193243608
 50
182.3006299785776037
 51
243.9466563677638078
  0
ARC
  5
1BBBF
  8
0
 10
4351.1300491756073825
 20
310.0856426842943847
 30
0.0
 40
0.0066168581468364
 50
275.7486814770275032
 51
325.5737191785216282
  0
ARC
  5
1BBC0
  8
0
 10
4351.1339142726374121
 20
310.0855386156017062
 30
0.0
 40
0.0072276496811679
 50
182.5468883543809113
 51
243.7003979919986136
  0
ARC
  5
1BBC1
  8
0
 10
4351.1408509083003082
 20
310.075450159469824
 30
0.0
 40
0.0154422509945623
 50
334.7793608515227106
 51
0.74165552996335
  0
LINE
  5
1BBC2
  8
0
 10
4351.096578624452377
 20
310.1651366129103167
 30
0.0
 11
4351.0896574454936854
 21
310.1542203023947195
 31
0.0
  0
ARC
  5
1BBC3
  8
0
 10
4351.0841860018890657
 20
310.1579933225245895
 30
0.0
 40
0.0066462302121347
 50
275.804689516541373
 51
325.4104737449179083
  0
ARC
  5
1BBC4
  8
0
 10
4351.088009741219139
 20
310.1578275611573758
 30
0.0
 40
0.0071755306036012
 50
182.3006837161802878
 51
243.9466026301977024
  0
ARC
  5
1BBC5
  8
0
 10
4351.0379542757927993
 20
310.15423177426959
 30
0.0
 40
0.0154422519972538
 50
334.7793605796338738
 51
0.741653997993251
  0
ARC
  5
1BBC6
  8
0
 10
4351.0533670597978926
 20
310.1508778744142774
 30
0.0
 40
0.0035339681967014
 50
245.9078298262195972
 51
274.9399385082182903
  0
ARC
  5
1BBC7
  8
0
 10
4351.051173965613998
 20
310.1542673202425817
 30
0.0
 40
0.0066580048261622
 50
267.8900846247310028
 51
276.4722903656025892
  0
ARC
  5
1BBC8
  8
0
 10
4351.0271431375585962
 20
310.1644528700887804
 30
0.0
 40
0.0066462313345468
 50
275.8046939880663899
 51
325.4104692733359911
  0
ARC
  5
1BBC9
  8
0
 10
4351.0309668780082575
 20
310.1642871080932196
 30
0.0
 40
0.0071755312099385
 50
182.3006870034855069
 51
243.9466006480741953
  0
LINE
  5
1BBCA
  8
0
 10
4351.0395357607458209
 20
310.1715961595061799
 30
0.0
 11
4351.0326145817944052
 21
310.1606798488945742
 31
0.0
  0
LINE
  5
1BBCB
  8
0
 10
4351.0548192158403253
 20
310.147487014867977
 30
0.0
 11
4351.0478991710951959
 21
310.1365724929946168
 31
0.0
  0
ARC
  5
1BBCC
  8
0
 10
4351.0424277268493825
 20
310.1403455142296934
 30
0.0
 40
0.0066462313660286
 50
275.8046931816426763
 51
325.4104690334190195
  0
ARC
  5
1BBCD
  8
0
 10
4351.0462514554546942
 20
310.1401797444087265
 30
0.0
 40
0.007175519054846
 50
182.3006286945212082
 51
243.9466576518026102
  0
ARC
  5
1BBCE
  8
0
 10
4351.0532388680821896
 20
310.1301244176244722
 30
0.0
 40
0.0154422489172836
 50
334.779358227362593
 51
0.741656539939945
  0
ARC
  5
1BBCF
  8
0
 10
4351.0686516494151874
 20
310.1267705196750057
 30
0.0
 40
0.0035339694167881
 50
245.9078316055405082
 51
274.9399300177349232
  0
ARC
  5
1BBD0
  8
0
 10
4351.0664585548629475
 20
310.130159963052904
 30
0.0
 40
0.0066580035391465
 50
267.8900837885768738
 51
276.4722913545479059
  0
ARC
  5
1BBD1
  8
0
 10
4351.0114805898701889
 20
310.1124766090541129
 30
0.0
 40
0.0154422527183251
 50
334.7793614674429818
 51
0.7416536499952244
  0
ARC
  5
1BBD2
  8
0
 10
4351.0268933744164315
 20
310.1091227069384217
 30
0.0
 40
0.0035339660445376
 50
245.9078174635359062
 51
274.9399444927938134
  0
ARC
  5
1BBD3
  8
0
 10
4351.0247002790647457
 20
310.1125121728804857
 30
0.0
 40
0.0066580227023516
 50
267.8901018975828947
 51
276.472284585698219
  0
LINE
  5
1BBD4
  8
0
 10
4351.0283466647370005
 20
310.1057336382933727
 30
0.0
 11
4351.0214254857946798
 21
310.0948173276946136
 31
0.0
  0
ARC
  5
1BBD5
  8
0
 10
4351.0159540417898825
 20
310.0985903484989876
 30
0.0
 40
0.0066462309233491
 50
275.8046923499196055
 51
325.4104709114722027
  0
ARC
  5
1BBD6
  8
0
 10
4351.0197777702351232
 20
310.0984245790950808
 30
0.0
 40
0.0071755190336082
 50
182.3006285933327035
 51
243.9466577530118911
  0
ARC
  5
1BBD7
  8
0
 10
4351.026765180458824
 20
310.0883692528497022
 30
0.0
 40
0.0154422513314726
 50
334.7793602922317859
 51
0.7416544750601682
  0
ARC
  5
1BBD8
  8
0
 10
4351.0421779642210822
 20
310.0850153545255807
 30
0.0
 40
0.0035339695663563
 50
245.9078322473762057
 51
274.9399297089291281
  0
ARC
  5
1BBD9
  8
0
 10
4351.0399848683673554
 20
310.0884048148943748
 30
0.0
 40
0.0066580207175776
 50
267.8901012659957814
 51
276.4722856549881271
  0
ARC
  5
1BBDA
  8
0
 10
4351.031238630858752
 20
310.0744829929884077
 30
0.0
 40
0.006646231334112
 50
275.8046939863377247
 51
325.4104692750295271
  0
ARC
  5
1BBDB
  8
0
 10
4351.0350984735923703
 20
310.0743407868941972
 30
0.0
 40
0.0072125837360427
 50
182.4761484318887028
 51
243.7711379144597004
  0
ARC
  5
1BBDC
  8
0
 10
4351.0419644602052358
 20
310.0642804029877766
 30
0.0
 40
0.0155273265794432
 50
334.8517172632776919
 51
0.6692983107951728
  0
ARC
  5
1BBDD
  8
0
 10
4351.0574719969517901
 20
310.0609639745317736
 30
0.0
 40
0.0035889524790306
 50
246.1349894061941086
 51
274.7127800042648005
  0
ARC
  5
1BBDE
  8
0
 10
4351.0552694576163049
 20
310.0642974595511987
 30
0.0
 40
0.0066580212758568
 50
267.8901010080838887
 51
276.4722859834479891
  0
ARC
  5
1BBDF
  8
0
 10
4351.0465326266939883
 20
310.0503470657487242
 30
0.0
 40
0.006616858301686
 50
275.7486814591156872
 51
325.5737174282152182
  0
ARC
  5
1BBE0
  8
0
 10
4351.0501894013987112
 20
310.0501070707516078
 30
0.0
 40
0.0070146343358411
 50
181.5132934702660918
 51
244.7339937276304909
  0
ARC
  5
1BBE1
  8
0
 10
4351.0572490504955567
 20
310.0401730469731092
 30
0.0
 40
0.015527325589924
 50
334.8517159906310781
 51
0.6692987766762777
  0
ARC
  5
1BBE2
  8
0
 10
4351.0727565860106552
 20
310.0368566160818204
 30
0.0
 40
0.0035889500490579
 50
246.1349764740486989
 51
274.7127854822676909
  0
ARC
  5
1BBE3
  8
0
 10
4351.070554047605583
 20
310.0401900769717827
 30
0.0
 40
0.0066579946894475
 50
267.8900868278288954
 51
276.472305530600579
  0
ARC
  5
1BBE4
  8
0
 10
4351.1035754903687121
 20
310.0438875190351951
 30
0.0
 40
0.0066168582011945
 50
275.7486826303994008
 51
325.5737190734287196
  0
ARC
  5
1BBE5
  8
0
 10
4351.1074259269098548
 20
310.0437738846526941
 30
0.0
 40
0.0072125840639164
 50
182.4761503754332068
 51
243.7711372760379049
  0
ARC
  5
1BBE6
  8
0
 10
4351.1143772251953123
 20
310.0336949939224951
 30
0.0
 40
0.0154422489027646
 50
334.7793586454251908
 51
0.7416565479265144
  0
ARC
  5
1BBE7
  8
0
 10
4351.1297994498263506
 20
310.0303970698572016
 30
0.0
 40
0.0035889503222026
 50
246.1349772410239041
 51
274.7127848664840144
  0
ARC
  5
1BBE8
  8
0
 10
4351.1275969106527555
 20
310.033730576342009
 30
0.0
 40
0.0066580404512991
 50
267.8901076282234044
 51
276.4722673623077753
  0
ARC
  5
1BBE9
  8
0
 10
4351.1317576460587588
 20
310.0136638321920941
 30
0.0
 40
0.0061273673998437
 50
258.5092484770926262
 51
352.4641000508606226
  0
ARC
  5
1BBEA
  8
0
 10
4351.1188600795603634
 20
310.0197801634740813
 30
0.0
 40
0.0066168585393686
 50
275.7486824149863764
 51
325.5737164723233832
  0
ARC
  5
1BBEB
  8
0
 10
4351.1226751619378774
 20
310.01964346074692
 30
0.0
 40
0.0071762984474998
 50
182.3043414814538892
 51
243.9429448648762957
  0
ARC
  5
1BBEC
  8
0
 10
4351.072533639615358
 20
310.0160656911587012
 30
0.0
 40
0.0155273257698874
 50
334.8517155661078846
 51
0.6692984531667695
  0
ARC
  5
1BBED
  8
0
 10
4351.0880411758462287
 20
310.0127492633566249
 30
0.0
 40
0.0035889531690625
 50
246.1349891599788009
 51
274.7127727962949848
  0
ARC
  5
1BBEE
  8
0
 10
4351.0858386375211921
 20
310.0160827136111834
 30
0.0
 40
0.006657987207029
 50
267.8900789777837872
 51
276.4723075052926902
  0
ARC
  5
1BBEF
  8
0
 10
4351.0783401177586711
 20
310.0042310634649994
 30
0.0
 40
0.0067080678764434
 50
275.9841848160044719
 51
324.1859758578527249
  0
ARC
  5
1BBF0
  8
0
 10
4351.0776290179946955
 20
310.001748990521719
 30
0.0
 40
0.004420493307738
 50
186.7730377259090062
 51
288.6066302023924095
  0
ARC
  5
1BBF1
  8
0
 10
4351.041102291338575
 20
309.9998447290205945
 30
0.0
 40
0.0067556050942261
 50
245.7531517428614904
 51
347.0785671801335184
  0
LINE
  5
1BBF2
  8
0
 10
4351.0324421581381102
 20
310.0157637611943073
 30
0.0
 11
4351.0255209791939706
 21
310.0048474505946956
 31
0.0
  0
ARC
  5
1BBF3
  8
0
 10
4351.0155760845591431
 20
310.0225067316496848
 30
0.0
 40
0.015442251331501
 50
334.7793602922495211
 51
0.7416544750341153
  0
ARC
  5
1BBF4
  8
0
 10
4351.0309983117522279
 20
310.0192088092318272
 30
0.0
 40
0.0035889524790063
 50
246.1349894061345083
 51
274.7127800043695061
  0
ARC
  5
1BBF5
  8
0
 10
4351.0287957724176522
 20
310.0225422942980913
 30
0.0
 40
0.0066580213228663
 50
267.890101006832424
 51
276.4722854764669933
  0
ARC
  5
1BBF6
  8
0
 10
4351.0200495355829844
 20
310.0086204707337174
 30
0.0
 40
0.0066462302216862
 50
275.8046895545684833
 51
325.4104737067862061
  0
ARC
  5
1BBF7
  8
0
 10
4351.0239093773434433
 20
310.0084782654716946
 30
0.0
 40
0.0072125833823556
 50
182.476147579601502
 51
243.7711396183489114
  0
LINE
  5
1BBF8
  8
0
 10
4351.0167035282938741
 20
310.0204717678947191
 30
0.0
 11
4351.0167035282938741
 21
310.0081666567945717
 31
0.0
  0
LINE
  5
1BBF9
  8
0
 10
4350.9892587676940821
 20
310.023812784833126
 30
0.0
 11
4350.9892587676940821
 21
310.0050588060947234
 31
0.0
  0
ARC
  5
1BBFA
  8
0
 10
4351.0002914943797805
 20
310.0466140876533814
 30
0.0
 40
0.0154422522088531
 50
334.7793614260555159
 51
0.7416540480620332
  0
ARC
  5
1BBFB
  8
0
 10
4351.0157137223895916
 20
310.0433161645717064
 30
0.0
 40
0.0035889519176612
 50
246.1349873115304092
 51
274.7127801338843938
  0
ARC
  5
1BBFC
  8
0
 10
4351.0135111845102074
 20
310.0466496316223015
 30
0.0
 40
0.0066580027071919
 50
267.8900839751016747
 51
276.4722919816264834
  0
ARC
  5
1BBFD
  8
0
 10
4351.0047743522072778
 20
310.03269925619378
 30
0.0
 40
0.0066168581460981
 50
275.7486814740424279
 51
325.5737191815354095
  0
ARC
  5
1BBFE
  8
0
 10
4351.0086247883918986
 20
310.032585621594194
 30
0.0
 40
0.0072125837360344
 50
182.4761484318366911
 51
243.7711379144683121
  0
ARC
  5
1BBFF
  8
0
 10
4350.9738178099642028
 20
310.0048589222661235
 30
0.0
 40
0.0154422514287104
 50
334.7793608269902279
 51
0.741654780766884
  0
ARC
  5
1BC00
  8
0
 10
4350.9892400370890755
 20
310.0015609975296798
 30
0.0
 40
0.0035889501899621
 50
246.1349770162912876
 51
274.7127840287416802
  0
ARC
  5
1BC01
  8
0
 10
4350.9870374979573171
 20
310.0048945020778888
 30
0.0
 40
0.0066580383887883
 50
267.8901069464723719
 51
276.4722684817870118
  0
ARC
  5
1BC02
  8
0
 10
4350.9831108545831739
 20
309.9956715635890987
 30
0.0
 40
0.0050955876101264
 50
267.7047159651535253
 51
324.2895894323185075
  0
ARC
  5
1BC03
  8
0
 10
4350.982365298968034
 20
309.9953502700357149
 30
0.0
 40
0.0048008399214771
 50
187.5887404767015028
 51
276.4760866077526771
  0
LINE
  5
1BC04
  8
0
 10
4350.9776056686951051
 20
310.0016996185946141
 30
0.0
 11
4350.9776065071473568
 21
309.9947162634426832
 31
0.0
  0
LINE
  5
1BC05
  8
0
 10
4350.9906839105642575
 20
309.998115954892512
 30
0.0
 11
4350.9872482486953231
 21
309.9926974638946149
 31
0.0
  0
ARC
  5
1BC06
  8
0
 10
4350.9235654535641515
 20
309.9968530331235002
 30
0.0
 40
0.0043819718869522
 50
262.4711767694400919
 51
324.2238051925089053
  0
ARC
  5
1BC07
  8
0
 10
4350.9229844304809376
 20
309.9975537353200821
 30
0.0
 40
0.0050449022106422
 50
182.167965230111605
 51
270.0780863468502844
  0
ARC
  5
1BC08
  8
0
 10
4350.8668123824973009
 20
310.0026516984797809
 30
0.0
 40
0.0037832783828572
 50
256.7996065861410102
 51
323.9805077401327935
  0
ARC
  5
1BC09
  8
0
 10
4350.8665472637503626
 20
310.0043497080420138
 30
0.0
 40
0.0054145388847198
 50
181.6621156859627035
 51
263.6503785398627997
  0
LINE
  5
1BC0A
  8
0
 10
4350.8765981794458639
 20
310.0110350474815277
 30
0.0
 11
4350.8698722008939512
 21
310.0004272051946259
 31
0.0
  0
ARC
  5
1BC0B
  8
0
 10
4350.8128843407921522
 20
310.012999897262489
 30
0.0
 40
0.0032361137866071
 50
250.0124857646900978
 51
323.3786307231324031
  0
ARC
  5
1BC0C
  8
0
 10
4350.81312166259886
 20
310.0157214507336789
 30
0.0
 40
0.0059172779138917
 50
181.5224715194520115
 51
256.8769701133833223
  0
ARC
  5
1BC0D
  8
0
 10
4350.8026892177767877
 20
310.0242375621846236
 30
0.0
 40
0.015442252410863
 50
334.7793612154302991
 51
0.7416535518272378
  0
ARC
  5
1BC0E
  8
0
 10
4350.8181114458102456
 20
310.0209396369817796
 30
0.0
 40
0.0035889500490278
 50
246.1349764738224906
 51
274.7127854822679183
  0
ARC
  5
1BC0F
  8
0
 10
4350.8159089066648448
 20
310.0242731260058804
 30
0.0
 40
0.0066580227276848
 50
267.8901019139565847
 51
276.4722845693356135
  0
ARC
  5
1BC10
  8
0
 10
4350.8489209435629164
 20
310.0279991117437817
 30
0.0
 40
0.0066462316973851
 50
275.8046945017449048
 51
325.4104677133228734
  0
ARC
  5
1BC11
  8
0
 10
4350.8527807863920316
 20
310.0278569052940725
 30
0.0
 40
0.0072125837360142
 50
182.4761484317716054
 51
243.7711379145806063
  0
ARC
  5
1BC12
  8
0
 10
4350.859732081967195
 20
310.0177780154247102
 30
0.0
 40
0.0154422519247197
 50
334.7793610373913111
 51
0.7416545394347022
  0
ARC
  5
1BC13
  8
0
 10
4350.8751543101370771
 20
310.014480093908503
 30
0.0
 40
0.0035889535123966
 50
246.1349905073221009
 51
274.7127708863555995
  0
ARC
  5
1BC14
  8
0
 10
4350.8729517717629278
 20
310.0178135601653935
 30
0.0
 40
0.0066580034517796
 50
267.890083768970328
 51
276.4722915387329181
  0
ARC
  5
1BC15
  8
0
 10
4350.9059638074759278
 20
310.0215395646263232
 30
0.0
 40
0.0066462311711161
 50
275.8046939795808044
 51
325.4104710505528146
  0
ARC
  5
1BC16
  8
0
 10
4350.9098236507679758
 20
310.0213973591864942
 30
0.0
 40
0.0072125844317566
 50
182.4761521068168122
 51
243.7711355446809876
  0
ARC
  5
1BC17
  8
0
 10
4350.9167749458638355
 20
310.0113184689486161
 30
0.0
 40
0.0154422518262248
 50
334.7793607558695044
 51
0.7416540844614526
  0
ARC
  5
1BC18
  8
0
 10
4350.9321971734407271
 20
310.0080205457393845
 30
0.0
 40
0.0035889517981336
 50
246.1349866143580982
 51
274.7127826750839859
  0
ARC
  5
1BC19
  8
0
 10
4350.9299946342171097
 20
310.0113540314515035
 30
0.0
 40
0.0066580212761741
 50
267.8901010082923904
 51
276.4722855796779868
  0
ARC
  5
1BC1A
  8
0
 10
4350.9630160775668628
 20
310.0150514472226746
 30
0.0
 40
0.0066168585869328
 50
275.7486823121773227
 51
325.5737172951086791
  0
ARC
  5
1BC1B
  8
0
 10
4350.9668665138915458
 20
310.0149378121940913
 30
0.0
 40
0.0072125837360277
 50
182.4761484318106
 51
243.7711379145237061
  0
ARC
  5
1BC1C
  8
0
 10
4350.9585332237029434
 20
310.0289662775757051
 30
0.0
 40
0.0154422483964345
 50
334.7793579354972167
 51
0.7416571171385877
  0
ARC
  5
1BC1D
  8
0
 10
4350.9739554483103348
 20
310.0256683563430897
 30
0.0
 40
0.0035889530507353
 50
246.1349889530715984
 51
274.7127719271804267
  0
ARC
  5
1BC1E
  8
0
 10
4350.9717529086656214
 20
310.0290018422807066
 30
0.0
 40
0.0066580227024845
 50
267.890101897635077
 51
276.4722845855935134
  0
ARC
  5
1BC1F
  8
0
 10
4350.98948035673493
 20
310.0568351831843188
 30
0.0
 40
0.0066462307944836
 50
275.8046911939201209
 51
325.41047029876529
  0
ARC
  5
1BC20
  8
0
 10
4350.9933401992329891
 20
310.0566929776907159
 30
0.0
 40
0.007212583884501
 50
182.4761499430987897
 51
243.7711372548378108
  0
ARC
  5
1BC21
  8
0
 10
4350.9850069060530586
 20
310.0707214435907986
 30
0.0
 40
0.0154422513373654
 50
334.7793597425427947
 51
0.7416543220876065
  0
ARC
  5
1BC22
  8
0
 10
4351.0004291336326787
 20
310.0674235237459015
 30
0.0
 40
0.0035889551363783
 50
246.1350004298977012
 51
274.7127672254301274
  0
ARC
  5
1BC23
  8
0
 10
4350.9982265952121452
 20
310.070756987610082
 30
0.0
 40
0.0066580027950286
 50
267.8900839949690749
 51
276.4722918066710804
  0
ARC
  5
1BC24
  8
0
 10
4350.9741957671585624
 20
310.0809425394888876
 30
0.0
 40
0.0066462313345893
 50
275.8046939882235051
 51
325.4104692731455089
  0
ARC
  5
1BC25
  8
0
 10
4350.9780556101086404
 20
310.0808003336528031
 30
0.0
 40
0.0072125840639017
 50
182.4761503753680927
 51
243.7711372760932989
  0
ARC
  5
1BC26
  8
0
 10
4350.9279640412942172
 20
310.077180990199281
 30
0.0
 40
0.0154422522947527
 50
334.7793613840693752
 51
0.741653873481714
  0
ARC
  5
1BC27
  8
0
 10
4350.9433862698342637
 20
310.0738830685655785
 30
0.0
 40
0.0035889534697363
 50
246.1349902888514976
 51
274.7127709825114152
  0
ARC
  5
1BC28
  8
0
 10
4350.9411837301149717
 20
310.0772165524759885
 30
0.0
 40
0.0066580211007247
 50
267.8901009685574763
 51
276.4722859988668233
  0
ARC
  5
1BC29
  8
0
 10
4350.9432486304749546
 20
310.0530736343849867
 30
0.0
 40
0.0154422524128822
 50
334.7793612171641939
 51
0.7416535501142583
  0
ARC
  5
1BC2A
  8
0
 10
4350.9586708585457018
 20
310.0497757092953179
 30
0.0
 40
0.0035889501673531
 50
246.134976680725714
 51
274.7127863514342039
  0
ARC
  5
1BC2B
  8
0
 10
4350.9564683194175814
 20
310.0531091967977773
 30
0.0
 40
0.0066580213224942
 50
267.8901010065716832
 51
276.4722854766774276
  0
ARC
  5
1BC2C
  8
0
 10
4350.9477314883133658
 20
310.0391588030465186
 30
0.0
 40
0.0066168585065448
 50
275.7486819888748073
 51
325.5737176184143777
  0
ARC
  5
1BC2D
  8
0
 10
4350.9515465709782802
 20
310.0390221005695253
 30
0.0
 40
0.007176298797369
 50
182.3043431479217134
 51
243.9429431984241887
  0
ARC
  5
1BC2E
  8
0
 10
4350.9014903560600942
 20
310.0354258249034274
 30
0.0
 40
0.015442252328583
 50
334.7793614220198037
 51
0.7416538570135699
  0
ARC
  5
1BC2F
  8
0
 10
4350.916912584635611
 20
310.0321279032772281
 30
0.0
 40
0.003588953481243
 50
246.1349903772243977
 51
274.7127709565249916
  0
ARC
  5
1BC30
  8
0
 10
4350.9147100449172285
 20
310.035461387351404
 30
0.0
 40
0.0066580212760886
 50
267.8901010082923904
 51
276.4722858210798222
  0
ARC
  5
1BC31
  8
0
 10
4350.8906792181587662
 20
310.0456469207883856
 30
0.0
 40
0.0066462313341187
 50
275.804693986389907
 51
325.4104692750187269
  0
ARC
  5
1BC32
  8
0
 10
4350.8945390611088442
 20
310.0455047149528127
 30
0.0
 40
0.007212584063914
 50
182.476150375407201
 51
243.7711372760392976
  0
ARC
  5
1BC33
  8
0
 10
4350.8444474964189794
 20
310.0418853706424898
 30
0.0
 40
0.0154422481817713
 50
334.7793576962786233
 51
0.7416572507993057
  0
ARC
  5
1BC34
  8
0
 10
4350.8598697203469783
 20
310.0385874470148906
 30
0.0
 40
0.003588950676968
 50
246.1349787226156138
 51
274.7127840667023975
  0
ARC
  5
1BC35
  8
0
 10
4350.8576671811551932
 20
310.0419209511296117
 30
0.0
 40
0.0066580384403533
 50
267.8901069797411765
 51
276.4722684484846127
  0
ARC
  5
1BC36
  8
0
 10
4350.7667347146161774
 20
310.03194082769852
 30
0.0
 40
0.0075977258216182
 50
187.09083418787759
 51
265.635476501899177
  0
ARC
  5
1BC37
  8
0
 10
4350.7399544707577661
 20
310.0428878328024211
 30
0.0
 40
0.0072966360691975
 50
181.9878111145470996
 51
244.2307835588815124
  0
ARC
  5
1BC38
  8
0
 10
4350.738186746507381
 20
310.0382949154450785
 30
0.0
 40
0.0024259756750394
 50
234.624720420511494
 51
320.2722032153566829
  0
ARC
  5
1BC39
  8
0
 10
4350.7302025514463821
 20
310.0548390026925176
 30
0.0
 40
0.0156010481681867
 50
334.9137621844392925
 51
0.6072525828431089
  0
ARC
  5
1BC3A
  8
0
 10
4350.7457839928538306
 20
310.0515065402332766
 30
0.0
 40
0.0035889507943897
 50
246.1349792303344088
 51
274.7127838019735009
  0
ARC
  5
1BC3B
  8
0
 10
4350.7435814536156613
 20
310.0548400271492255
 30
0.0
 40
0.0066580213738025
 50
267.8901010396318725
 51
276.4722854434792794
  0
ARC
  5
1BC3C
  8
0
 10
4350.7766028969790568
 20
310.0585374427803913
 30
0.0
 40
0.006616858553673
 50
275.7486831132310954
 51
325.5737175423980716
  0
ARC
  5
1BC3D
  8
0
 10
4350.78045333360933
 20
310.0584238080527939
 30
0.0
 40
0.0072125840639223
 50
182.4761503754461955
 51
243.7711372760321922
  0
ARC
  5
1BC3E
  8
0
 10
4350.7872454106236546
 20
310.048379457095109
 30
0.0
 40
0.0156010527790727
 50
334.9137660462375266
 51
0.607248721061373
  0
ARC
  5
1BC3F
  8
0
 10
4350.8028268570460568
 20
310.0450469960564988
 30
0.0
 40
0.0035889531690537
 50
246.1349891599219006
 51
274.7127727962949848
  0
ARC
  5
1BC40
  8
0
 10
4350.8006243174168048
 20
310.0483804804517831
 30
0.0
 40
0.0066580212764239
 50
267.8901010085010057
 51
276.4722858191390742
  0
ARC
  5
1BC41
  8
0
 10
4350.833636354376722
 20
310.0521064674265972
 30
0.0
 40
0.0066462314797964
 50
275.8046945667471164
 51
325.4104686946786273
  0
ARC
  5
1BC42
  8
0
 10
4350.8374961974086546
 20
310.0519642614527811
 30
0.0
 40
0.0072125840639199
 50
182.4761503754332068
 51
243.7711372760336133
  0
ARC
  5
1BC43
  8
0
 10
4350.7918780803538539
 20
310.0344586573223182
 30
0.0
 40
0.0066462306315803
 50
275.8046911875297837
 51
325.410472073859296
  0
ARC
  5
1BC44
  8
0
 10
4350.7957379229183061
 20
310.0343164521639778
 30
0.0
 40
0.0072125840780952
 50
182.4761512546174913
 51
243.771137248445001
  0
ARC
  5
1BC45
  8
0
 10
4350.7195600333261609
 20
310.0649969890316129
 30
0.0
 40
0.0066168582913911
 50
275.7486820583748113
 51
325.5737185972232055
  0
ARC
  5
1BC46
  8
0
 10
4350.7234104695917267
 20
310.0648833542941816
 30
0.0
 40
0.0072125837360372
 50
182.4761484318659939
 51
243.7711379145179933
  0
ARC
  5
1BC47
  8
0
 10
4350.7065314696110363
 20
310.0629923322828176
 30
0.0
 40
0.0078432527642118
 50
180.6126994546519029
 51
243.4863324531079058
  0
ARC
  5
1BC48
  8
0
 10
4350.7149179585621823
 20
310.0789463591615913
 30
0.0
 40
0.0156010517462827
 50
334.9137660282810884
 51
0.6072503532447771
  0
ARC
  5
1BC49
  8
0
 10
4350.7304923205829255
 20
310.0755915871919797
 30
0.0
 40
0.0035656844607172
 50
246.0940306416183887
 51
274.8789121212503233
  0
ARC
  5
1BC4A
  8
0
 10
4350.7282968643648928
 20
310.0789473844064901
 30
0.0
 40
0.0066580227282804
 50
267.8901019143215763
 51
276.472284568968405
  0
ARC
  5
1BC4B
  8
0
 10
4350.7613183077246504
 20
310.0826447986017911
 30
0.0
 40
0.0066168584708738
 50
275.7486827801880054
 51
325.5737178753602734
  0
ARC
  5
1BC4C
  8
0
 10
4350.7651687440920796
 20
310.0825311636942274
 30
0.0
 40
0.0072125837360225
 50
182.4761484317976112
 51
243.7711379145733872
  0
ARC
  5
1BC4D
  8
0
 10
4350.7719608251345562
 20
310.0724868121708937
 30
0.0
 40
0.0156010489783542
 50
334.9137628540137257
 51
0.6072522634514544
  0
ARC
  5
1BC4E
  8
0
 10
4350.7875422673087087
 20
310.069154350580277
 30
0.0
 40
0.0035889517337338
 50
246.1349866500816006
 51
274.7127816844025006
  0
ARC
  5
1BC4F
  8
0
 10
4350.7853397294647948
 20
310.072487818741422
 30
0.0
 40
0.0066580036276598
 50
267.890083808965926
 51
276.472291519747273
  0
ARC
  5
1BC50
  8
0
 10
4350.81835176547429
 20
310.0762138227555056
 30
0.0
 40
0.0066462307720452
 50
275.8046917471447159
 51
325.4104715142865984
  0
ARC
  5
1BC51
  8
0
 10
4350.8222116081178683
 20
310.0760716174639811
 30
0.0
 40
0.0072125840780947
 50
182.4761512545881885
 51
243.7711372484407093
  0
ARC
  5
1BC52
  8
0
 10
4350.8291629029772594
 20
310.0659927274846268
 30
0.0
 40
0.0154422524111518
 50
334.7793612156955874
 51
0.7416535516025313
  0
ARC
  5
1BC53
  8
0
 10
4350.8445851315464097
 20
310.0626948054566014
 30
0.0
 40
0.0035889531690778
 50
246.1349891599774935
 51
274.712772796138097
  0
ARC
  5
1BC54
  8
0
 10
4350.8423825919162482
 20
310.0660282899752929
 30
0.0
 40
0.0066580213998796
 50
267.8901010565272145
 51
276.4722854266977947
  0
ARC
  5
1BC55
  8
0
 10
4350.8754040352669108
 20
310.0697257056224885
 30
0.0
 40
0.0066168585867829
 50
275.7486823116008168
 51
325.5737172957258849
  0
ARC
  5
1BC56
  8
0
 10
4350.8792544715915938
 20
310.0696120705941894
 30
0.0
 40
0.0072125837360248
 50
182.476148431826914
 51
243.7711379145748083
  0
ARC
  5
1BC57
  8
0
 10
4350.8862057672104129
 20
310.0595331807144817
 30
0.0
 40
0.0154422518801742
 50
334.7793609949716256
 51
0.7416542080734893
  0
ARC
  5
1BC58
  8
0
 10
4350.9016279953184494
 20
310.0562352593810829
 30
0.0
 40
0.0035889536777714
 50
246.134991502622313
 51
274.712769377666973
  0
ARC
  5
1BC59
  8
0
 10
4350.8994254556191663
 20
310.0595687432985983
 30
0.0
 40
0.0066580213233171
 50
267.8901010070409825
 51
276.4722854760480004
  0
ARC
  5
1BC5A
  8
0
 10
4350.9324374927236931
 20
310.0632947298473141
 30
0.0
 40
0.0066462310877429
 50
275.8046936474469248
 51
325.4104713826803277
  0
ARC
  5
1BC5B
  8
0
 10
4350.9362973359684474
 20
310.0631525244863838
 30
0.0
 40
0.0072125844317602
 50
182.4761521068298009
 51
243.7711355446766959
  0
ARC
  5
1BC5C
  8
0
 10
4351.0618078096276804
 20
310.026268281035982
 30
0.0
 40
0.006646231165441
 50
275.8046926717875067
 51
325.410468820909216
  0
ARC
  5
1BC5D
  8
0
 10
4351.0656676520602559
 20
310.0261260751303212
 30
0.0
 40
0.0072125837102644
 50
182.4761495232752111
 51
243.7711389797509014
  0
ARC
  5
1BC5E
  8
0
 10
4351.0729969056546906
 20
310.092130802021984
 30
0.0
 40
0.0066462309397418
 50
275.8046917726530864
 51
325.4104697200784813
  0
ARC
  5
1BC5F
  8
0
 10
4351.0768206453631137
 20
310.0919650399902139
 30
0.0
 40
0.0071755306519008
 50
182.3006847614250034
 51
243.9466024364677992
  0
LINE
  5
1BC60
  8
0
 10
4351.0853899398489375
 20
310.0992741389651997
 30
0.0
 11
4351.0784642555945538
 21
310.0883614203946195
 31
0.0
  0
ARC
  5
1BC61
  8
0
 10
4351.0577123161056079
 20
310.1162381582088869
 30
0.0
 40
0.0066462312501523
 50
275.8046936518468897
 51
325.4104696095212717
  0
ARC
  5
1BC62
  8
0
 10
4351.0615721587928419
 20
310.1160959521942004
 30
0.0
 40
0.0072125837360304
 50
182.4761484318366911
 51
243.7711379145208923
  0
ARC
  5
1BC63
  8
0
 10
4350.9853848632756126
 20
310.1468050605553231
 30
0.0
 40
0.0066462310802626
 50
275.8046923324251907
 51
325.4104691602292974
  0
ARC
  5
1BC64
  8
0
 10
4350.9892078721049984
 20
310.1466388215720826
 30
0.0
 40
0.0071747812571915
 50
182.2971143915704033
 51
243.9501741114960964
  0
LINE
  5
1BC65
  8
0
 10
4350.9977774861308717
 20
310.1539483500922074
 30
0.0
 11
4350.9908563072940524
 21
310.1430320394946989
 31
0.0
  0
LINE
  5
1BC66
  8
0
 10
4351.1299022605935534
 20
310.0785187726946219
 30
0.0
 11
4351.1517992870940361
 21
310.0692646893945721
 31
0.0
  0
LINE
  5
1BC67
  8
0
 10
4351.1419783517949327
 20
310.0734151959945848
 30
0.0
 11
4351.1419783517949327
 21
310.0611100848947217
 31
0.0
  0
LINE
  5
1BC68
  8
0
 10
4351.1145335911942311
 20
310.0767562129825023
 30
0.0
 11
4351.1145335911942311
 21
310.0580022341945892
 31
0.0
  0
LINE
  5
1BC69
  8
0
 10
4351.1006741178398443
 20
310.0751667357978931
 30
0.0
 11
4351.0937529388938856
 21
310.0642504251945866
 31
0.0
  0
LINE
  5
1BC6A
  8
0
 10
4351.1577158475120086
 20
310.0687054005767891
 30
0.0
 11
4351.1507958026941196
 21
310.0577908786946182
 31
0.0
  0
LINE
  5
1BC6B
  8
0
 10
4351.145186849894344
 20
310.0544114166946201
 30
0.0
 11
4351.1148097318937289
 21
310.0509276093945914
 31
0.0
  0
LINE
  5
1BC6C
  8
0
 10
4351.1120671972257696
 20
310.0511844055437223
 30
0.0
 11
4351.1100410125945928
 21
310.0516168799945831
 31
0.0
  0
LINE
  5
1BC6D
  8
0
 10
4351.1100410125945928
 20
310.0516168799945831
 30
0.0
 11
4351.08814398609411
 21
310.0608709632945761
 31
0.0
  0
LINE
  5
1BC6E
  8
0
 10
4351.1299022605935534
 20
310.0785187726946219
 30
0.0
 11
4351.0995251426948016
 21
310.0750349652947193
 31
0.0
  0
ARC
  5
1BC6F
  8
0
 10
4351.088281494658986
 20
310.0680234463887928
 30
0.0
 40
0.0066462313345374
 50
275.8046939880661057
 51
325.4104692733600928
  0
ARC
  5
1BC70
  8
0
 10
4351.0990926337935889
 20
310.057802350462282
 30
0.0
 40
0.0154422510964524
 50
334.7793594302070801
 51
0.7416544396351511
  0
ARC
  5
1BC71
  8
0
 10
4351.1145054167727722
 20
310.0544484499731084
 30
0.0
 40
0.0035339674689622
 50
245.9078267713250909
 51
274.9399415631144166
  0
ARC
  5
1BC72
  8
0
 10
4351.1123123219931585
 20
310.0578379060912084
 30
0.0
 40
0.0066580143950853
 50
267.8900932797989753
 51
276.4722872638798208
  0
ARC
  5
1BC73
  8
0
 10
4351.1453243588448458
 20
310.0615638992592835
 30
0.0
 40
0.0066462306590626
 50
275.8046903651826938
 51
325.4104718499028763
  0
ARC
  5
1BC74
  8
0
 10
4351.1491480869881343
 20
310.0613981300692785
 30
0.0
 40
0.0071755189898189
 50
182.3006291998563029
 51
243.9466579980322081
  0
ARC
  5
1BC75
  8
0
 10
4351.1562731351086768
 20
310.0721522365803935
 30
0.0
 40
0.0035889517337057
 50
246.1349866499110135
 51
274.7127816844549102
  0
ARC
  5
1BC76
  8
0
 10
4351.1541286647589004
 20
310.0753359257478792
 30
0.0
 40
0.006502761810578
 50
249.0094729498017045
 51
276.1126777250253213
  0
ARC
  5
1BC77
  8
0
 10
4351.0990715573798298
 20
310.0776710242735135
 30
0.0
 40
0.0026747984180817
 50
241.0845149280056887
 51
279.7632481045127975
  0
ARC
  5
1BC78
  8
0
 10
4351.0970322718703756
 20
310.0813855028860075
 30
0.0
 40
0.006101592433964
 50
248.0997060617299894
 51
277.0224478546762157
  0
ARC
  5
1BC79
  8
0
 10
4351.0833115823415937
 20
310.0820174034648176
 30
0.0
 40
0.0159376861663782
 50
335.1896031546834251
 51
0.3314116125930195
  0
ARC
  5
1BC7A
  8
0
 10
4351.092105223669023
 20
310.0678576769292931
 30
0.0
 40
0.0071755194802082
 50
182.300631119597
 51
243.9466565318579967
  0
ARC
  5
1BC7B
  8
0
 10
4351.2135563182755504
 20
310.1209668743551902
 30
0.0
 40
0.0066462310802091
 50
275.8046923322680186
 51
325.4104691605057269
  0
ARC
  5
1BC7C
  8
0
 10
4351.2173800582631884
 20
310.1208011123217148
 30
0.0
 40
0.0071755308586085
 50
182.3006857462459038
 51
243.9466014516679024
  0
ARC
  5
1BC7D
  8
0
 10
4351.1673245953115838
 20
310.1172053245559255
 30
0.0
 40
0.0154422491850882
 50
334.7793585726191736
 51
0.7416564105851468
  0
ARC
  5
1BC7E
  8
0
 10
4351.1827373764735967
 20
310.1138514246737259
 30
0.0
 40
0.0035339674695653
 50
245.907826773781494
 51
274.9399415604993919
  0
ARC
  5
1BC7F
  8
0
 10
4351.1805442824115744
 20
310.1172408712944844
 30
0.0
 40
0.0066580048779518
 50
267.890084658260605
 51
276.4722903322997922
  0
ARC
  5
1BC80
  8
0
 10
4351.1565134543943714
 20
310.1274264210529168
 30
0.0
 40
0.0066462312850501
 50
275.8046928590417224
 51
325.4104693560483952
  0
ARC
  5
1BC81
  8
0
 10
4351.1603371829878597
 20
310.1272606513293226
 30
0.0
 40
0.0071755190873214
 50
182.3006288492532008
 51
243.946657497104809
  0
ARC
  5
1BC82
  8
0
 10
4351.1939264727898262
 20
310.1797139472488993
 30
0.0
 40
0.0035339688948815
 50
245.9078297163347031
 51
274.9399311638832728
  0
ARC
  5
1BC83
  8
0
 10
4351.1917333769551988
 20
310.183103428115885
 30
0.0
 40
0.0066580404253367
 50
267.8901076114325974
 51
276.4722673790897147
  0
ARC
  5
1BC84
  8
0
 10
4351.1521681980721041
 20
310.1620661364506759
 30
0.0
 40
0.0035339674381758
 50
245.9078230260168993
 51
274.9399400062716268
  0
ARC
  5
1BC85
  8
0
 10
4351.1499751025139631
 20
310.1654555997013745
 30
0.0
 40
0.0066580214258546
 50
267.8901010733180215
 51
276.4722854099676965
  0
ARC
  5
1BC86
  8
0
 10
4351.2092110616740683
 20
310.1556065899736723
 30
0.0
 40
0.0035339674695813
 50
245.9078267738925945
 51
274.9399415604991077
  0
ARC
  5
1BC87
  8
0
 10
4351.2070179676102271
 20
310.1589960366461014
 30
0.0
 40
0.0066580049294336
 50
267.8900846915294096
 51
276.4722902990504281
  0
ARC
  5
1BC88
  8
0
 10
4350.9697223157254484
 20
310.094828799674076
 30
0.0
 40
0.0154422523629223
 50
334.7793611744409077
 51
0.741653592847794
  0
ARC
  5
1BC89
  8
0
 10
4350.9851445442809563
 20
310.091530877770083
 30
0.0
 40
0.0035889532874455
 50
246.1349893671068116
 51
274.7127736652000181
  0
ARC
  5
1BC8A
  8
0
 10
4350.9829420046171435
 20
310.0948643621492806
 30
0.0
 40
0.0066580213739335
 50
267.8901010396841116
 51
276.4722854433746875
  0
ARC
  5
1BC8B
  8
0
 10
4350.9589205842175943
 20
310.1050213242526752
 30
0.0
 40
0.0066168584227378
 50
275.7486828806926269
 51
325.5737170548831045
  0
ARC
  5
1BC8C
  8
0
 10
4350.9627710204604227
 20
310.1049076894303198
 30
0.0
 40
0.0072125837102569
 50
182.4761495232654056
 51
243.7711389798091943
  0
LINE
  5
1BC8D
  8
0
 10
4350.9555651711943938
 20
310.1169011914947191
 30
0.0
 11
4350.9555651711943938
 21
310.1045960804946162
 31
0.0
  0
LINE
  5
1BC8E
  8
0
 10
4350.9713042123667037
 20
310.1121932319783241
 30
0.0
 11
4350.9643785279940857
 21
310.1012805134947143
 31
0.0
  0
LINE
  5
1BC8F
  8
0
 10
4350.9281204105936922
 20
310.1202422085329999
 30
0.0
 11
4350.9281204105936922
 21
310.1014882296947235
 31
0.0
  0
ARC
  5
1BC90
  8
0
 10
4350.9126794547000827
 20
310.1012883455048836
 30
0.0
 40
0.0154422495976533
 50
334.7793591048546773
 51
0.7416562087226976
  0
ARC
  5
1BC91
  8
0
 10
4350.928101680096006
 20
310.0979904230800912
 30
0.0
 40
0.0035889520253099
 50
246.1349877812399995
 51
274.7127798912202934
  0
ARC
  5
1BC92
  8
0
 10
4350.9258991421629617
 20
310.1013238907656842
 30
0.0
 40
0.0066580034520169
 50
267.8900837691787729
 51
276.4722915864571178
  0
ARC
  5
1BC93
  8
0
 10
4350.9018777203791615
 20
310.1114808708808255
 30
0.0
 40
0.006616858554134
 50
275.7486831150644093
 51
325.5737175405488983
  0
ARC
  5
1BC94
  8
0
 10
4350.9057281572822831
 20
310.1113672362130842
 30
0.0
 40
0.0072125842381604
 50
182.4761507952958937
 51
243.771135551066493
  0
ARC
  5
1BC95
  8
0
 10
4350.8973948666744036
 20
310.1253957012593219
 30
0.0
 40
0.0154422483263313
 50
334.7793578886099226
 51
0.7416571811386108
  0
ARC
  5
1BC96
  8
0
 10
4350.9128170907097228
 20
310.122097776981775
 30
0.0
 40
0.0035889500490194
 50
246.134976473875497
 51
274.7127854823726238
  0
ARC
  5
1BC97
  8
0
 10
4350.9106145515515891
 20
310.1254312837937732
 30
0.0
 40
0.0066580405029881
 50
267.8901076615965735
 51
276.4722673289529098
  0
ARC
  5
1BC98
  8
0
 10
4350.8865837251069024
 20
310.1356167977028235
 30
0.0
 40
0.0066462310249277
 50
275.8046921120155162
 51
325.4104693807128115
  0
ARC
  5
1BC99
  8
0
 10
4350.8904435674612614
 20
310.13547459193029
 30
0.0
 40
0.0072125837102633
 50
182.4761495232621087
 51
243.7711389798020036
  0
ARC
  5
1BC9A
  8
0
 10
4350.8448254502545751
 20
310.1179689888962798
 30
0.0
 40
0.0066462316509184
 50
275.80469460587409
 51
325.4104668868313865
  0
ARC
  5
1BC9B
  8
0
 10
4350.8486852933192495
 20
310.1178267827639843
 30
0.0
 40
0.0072125840781015
 50
182.4761512546305084
 51
243.7711372484378956
  0
ARC
  5
1BC9C
  8
0
 10
4350.9961960008768074
 20
310.1365839649845952
 30
0.0
 40
0.0154422524111269
 50
334.7793612156661993
 51
0.7416535516155579
  0
ARC
  5
1BC9D
  8
0
 10
4351.1785136895168762
 20
310.1830678463559821
 30
0.0
 40
0.015442250973919
 50
334.7793596704594279
 51
0.7416544689787186
  0
ARC
  5
1BC9E
  8
0
 10
4351.1937982788931549
 20
310.1589604904351063
 30
0.0
 40
0.0154422508974251
 50
334.7793591952158749
 51
0.7416541791988744
  0
ARC
  5
1BC9F
  8
0
 10
4351.0685234543543629
 20
310.1060170623213139
 30
0.0
 40
0.0154422519371163
 50
334.7793610736653136
 51
0.7416541802507611
  0
ARC
  5
1BCA0
  8
0
 10
4350.7831499213516508
 20
310.1383493333402157
 30
0.0
 40
0.0156010486610875
 50
334.9137628602611017
 51
0.6072523885553033
  0
ARC
  5
1BCA1
  8
0
 10
4350.7984345103350279
 20
310.1142419774708969
 30
0.0
 40
0.0156010489783506
 50
334.9137628540108267
 51
0.6072522634514544
  0
ARC
  5
1BCA2
  8
0
 10
4350.7877825866489729
 20
310.1244285351301073
 30
0.0
 40
0.0066462313665642
 50
275.8046931837899933
 51
325.4104690312908019
  0
ARC
  5
1BCA3
  8
0
 10
4350.7916570901370505
 20
310.1242958949018202
 30
0.0
 40
0.0072276496813704
 50
182.5468883553267858
 51
243.7003979910622036
  0
ARC
  5
1BCA4
  8
0
 10
4350.7415129674436685
 20
310.1206752060352869
 30
0.0
 40
0.0154800385181036
 50
334.8115990798538064
 51
0.7094156874428523
  0
ARC
  5
1BCA5
  8
0
 10
4350.7547750893518241
 20
310.1201427811981262
 30
0.0
 40
0.0061015914556033
 50
248.099701528057409
 51
277.0224491468014207
  0
ARC
  5
1BCA6
  8
0
 10
4350.7498841544438619
 20
310.1066385194716872
 30
0.0
 40
0.0072125833823698
 50
182.4761475796406103
 51
243.7711396182891974
  0
ARC
  5
1BCA7
  8
0
 10
4350.8137190996567369
 20
310.090134621563891
 30
0.0
 40
0.0156010489561312
 50
334.9137628443853032
 51
0.6072519229118046
  0
ARC
  5
1BCA8
  8
0
 10
4350.8639698826091262
 20
310.0937194267527843
 30
0.0
 40
0.0072125840639046
 50
182.4761503753942122
 51
243.7711372760975905
  0
ARC
  5
1BCA9
  8
0
 10
4350.860119445978853
 20
310.0938330614808933
 30
0.0
 40
0.0066168585541861
 50
275.7486831152738205
 51
325.5737175402886123
  0
ARC
  5
1BCAA
  8
0
 10
4350.8709211787390814
 20
310.0836405366695203
 30
0.0
 40
0.0154422511518269
 50
334.7793594959636039
 51
0.7416544103592982
  0
ARC
  5
1BCAB
  8
0
 10
4350.8863434056529513
 20
310.08034261413178
 30
0.0
 40
0.00358895247902
 50
246.1349894061370946
 51
274.7127800042648005
  0
ARC
  5
1BCAC
  8
0
 10
4350.8841408676644278
 20
310.0836760815412276
 30
0.0
 40
0.006658003627521
 50
267.89008380907012
 51
276.4722913179937791
  0
ARC
  5
1BCAD
  8
0
 10
4350.9171623096790427
 20
310.0873735149802997
 30
0.0
 40
0.0066168585536788
 50
275.7486831132310954
 51
325.5737175423283247
  0
ARC
  5
1BCAE
  8
0
 10
4350.9210127460928561
 20
310.0872598799941784
 30
0.0
 40
0.0072125837360253
 50
182.4761484318106
 51
243.7711379145237061
  0
ARC
  5
1BCAF
  8
0
 10
4350.8556365881677266
 20
310.1077478927865059
 30
0.0
 40
0.0154422524198484
 50
334.7793612231344014
 51
0.7416535441565603
  0
ARC
  5
1BCB0
  8
0
 10
4350.8710588167450624
 20
310.1044499707566047
 30
0.0
 40
0.0035889531690796
 50
246.1349891599788009
 51
274.712772796189995
  0
ARC
  5
1BCB1
  8
0
 10
4350.8688562771149009
 20
310.1077834553009893
 30
0.0
 40
0.0066580214255478
 50
267.8901010731095198
 51
276.4722854101254939
  0
ARC
  5
1BCB2
  8
0
 10
4350.8293005418454413
 20
310.0868021600937823
 30
0.0
 40
0.0035889518520821
 50
246.1349868570455897
 51
274.7127825534644785
  0
ARC
  5
1BCB3
  8
0
 10
4350.8270980039633287
 20
310.0901356280371033
 30
0.0
 40
0.0066580035234331
 50
267.8900837835187758
 51
276.4722912068115761
  0
LINE
  5
1BCB4
  8
0
 10
4351.271271367017107
 20
310.1078951756728088
 30
0.0
 11
4351.270631956894249
 21
310.107330231994581
 31
0.0
  0
LINE
  5
1BCB5
  8
0
 10
4351.2559867777517866
 20
310.1320025315833959
 30
0.0
 11
4351.2551770838954326
 21
310.131462200794715
 31
0.0
  0
LINE
  5
1BCB6
  8
0
 10
4351.2407021884937421
 20
310.1561098875947096
 30
0.0
 11
4351.2398924946946863
 21
310.1555695566946156
 31
0.0
  0
LINE
  5
1BCB7
  8
0
 10
4351.225417599193861
 20
310.1802172434947238
 30
0.0
 11
4351.2246079054948495
 21
310.179676912594573
 31
0.0
  0
LINE
  5
1BCB8
  8
0
 10
4351.1683747354936713
 20
310.1866767899945785
 30
0.0
 11
4351.167565041693706
 21
310.1861364590947119
 31
0.0
  0
LINE
  5
1BCB9
  8
0
 10
4351.1113318716943468
 20
310.193136336594705
 30
0.0
 11
4351.1105221779944259
 21
310.1925960056947247
 31
0.0
  0
LINE
  5
1BCBA
  8
0
 10
4351.0960472824399403
 20
310.2172436924884096
 30
0.0
 11
4351.0952375886936352
 21
310.2167033615946252
 31
0.0
  0
LINE
  5
1BCBB
  8
0
 10
4351.0486936653378507
 20
310.239952245401696
 30
0.0
 11
4351.0481011570936971
 21
310.2381296538947026
 31
0.0
  0
LINE
  5
1BCBC
  8
0
 10
4351.0542890079932477
 20
310.1995958830946165
 30
0.0
 11
4351.0534793140941474
 21
310.1990555522946238
 31
0.0
  0
LINE
  5
1BCBD
  8
0
 10
4351.0381947248943106
 20
310.2231629081945812
 30
0.0
 11
4351.0078176067936511
 21
310.2196791007946217
 31
0.0
  0
LINE
  5
1BCBE
  8
0
 10
4351.050270815994736
 20
310.2180593314947146
 30
0.0
 11
4351.050270816093871
 21
310.2057542204947254
 31
0.0
  0
LINE
  5
1BCBF
  8
0
 10
4351.022826055394944
 20
310.2214003484825753
 30
0.0
 11
4351.022826055394944
 21
310.2026463696947189
 31
0.0
  0
LINE
  5
1BCC0
  8
0
 10
4351.0089665820505616
 20
310.2198108713097895
 30
0.0
 11
4351.0020454030936889
 21
310.2088945607945902
 31
0.0
  0
LINE
  5
1BCC1
  8
0
 10
4351.0660094458371532
 20
310.2133513247933934
 30
0.0
 11
4351.0590882668948325
 21
310.2024350141945774
 31
0.0
  0
LINE
  5
1BCC2
  8
0
 10
4351.0534793140941474
 20
310.1990555522946238
 30
0.0
 11
4351.0231021961935767
 21
310.1955717449947088
 31
0.0
  0
LINE
  5
1BCC3
  8
0
 10
4351.0183334768944405
 20
310.1962610154945992
 30
0.0
 11
4350.9964364503948673
 21
310.2055150987947059
 31
0.0
  0
LINE
  5
1BCC4
  8
0
 10
4351.0600917513947934
 20
310.2139088248947019
 30
0.0
 11
4351.0381947248943106
 21
310.2231629081945812
 31
0.0
  0
ARC
  5
1BCC5
  8
0
 10
4351.0645561556721077
 20
310.2167403948507172
 30
0.0
 40
0.0035339674381621
 50
245.9078230260114992
 51
274.9399400063758776
  0
ARC
  5
1BCC6
  8
0
 10
4351.0623805909162911
 20
310.219669588157501
 30
0.0
 40
0.0061988047017666
 50
248.331317114931295
 51
276.7908368015663996
  0
ARC
  5
1BCC7
  8
0
 10
4351.0536168226590235
 20
310.2062080353887836
 30
0.0
 40
0.0066462313345374
 50
275.8046939880661057
 51
325.4104692733600928
  0
ARC
  5
1BCC8
  8
0
 10
4351.0574405515335457
 20
310.2060422657252161
 30
0.0
 40
0.0071755192379079
 50
182.3006295667036909
 51
243.9466567796517893
  0
ARC
  5
1BCC9
  8
0
 10
4350.9965739589060831
 20
310.2126675819088177
 30
0.0
 40
0.0066462312501523
 50
275.8046936518468897
 51
325.4104696095212717
  0
ARC
  5
1BCCA
  8
0
 10
4351.0073850971530192
 20
310.2024464860213016
 30
0.0
 40
0.0154422519371163
 50
334.7793610736653136
 51
0.7416541802507611
  0
LINE
  5
1BCCB
  8
0
 10
4350.9852473545943212
 20
310.1396525774945871
 30
0.0
 11
4350.9548702364945711
 21
310.1361687700946277
 31
0.0
  0
LINE
  5
1BCCC
  8
0
 10
4350.9973234456947466
 20
310.1345490007947205
 30
0.0
 11
4350.997323445794791
 21
310.1222438897946176
 31
0.0
  0
LINE
  5
1BCCD
  8
0
 10
4350.9698786850940451
 20
310.1378900177825813
 30
0.0
 11
4350.9698786850940451
 21
310.1191360389946112
 31
0.0
  0
LINE
  5
1BCCE
  8
0
 10
4350.9560192117523911
 20
310.1363005406099091
 30
0.0
 11
4350.949098032794609
 21
310.1253842300947099
 31
0.0
  0
LINE
  5
1BCCF
  8
0
 10
4351.0130620756135613
 20
310.1298409942136232
 30
0.0
 11
4351.0061408965939336
 21
310.1189246834945834
 31
0.0
  0
LINE
  5
1BCD0
  8
0
 10
4351.000531943794158
 20
310.1155452215945729
 30
0.0
 11
4350.9701548258935873
 21
310.1120614142947147
 31
0.0
  0
LINE
  5
1BCD1
  8
0
 10
4350.9653861065944511
 20
310.1127506847947188
 30
0.0
 11
4350.9434890800939684
 21
310.1220047680947118
 31
0.0
  0
LINE
  5
1BCD2
  8
0
 10
4351.007144381094804
 20
310.1303984941945942
 30
0.0
 11
4350.9852473545943212
 21
310.1396525774945871
 31
0.0
  0
ARC
  5
1BCD3
  8
0
 10
4351.0116087853721183
 20
310.1332300641507231
 30
0.0
 40
0.0035339674381621
 50
245.9078230260114992
 51
274.9399400063758776
  0
ARC
  5
1BCD4
  8
0
 10
4351.0094332206172112
 20
310.136159257457507
 30
0.0
 40
0.0061988047017666
 50
248.331317114931295
 51
276.7908368015663996
  0
ARC
  5
1BCD5
  8
0
 10
4351.000669452359034
 20
310.1226977046887896
 30
0.0
 40
0.0066462313345374
 50
275.8046939880661057
 51
325.4104692733600928
  0
ARC
  5
1BCD6
  8
0
 10
4351.0044931812353752
 20
310.1225319350252221
 30
0.0
 40
0.0071755192379079
 50
182.3006295667036909
 51
243.9466567796517893
  0
ARC
  5
1BCD7
  8
0
 10
4350.9436265886051842
 20
310.1291572512088237
 30
0.0
 40
0.0066462312501523
 50
275.8046936518468897
 51
325.4104696095212717
  0
ARC
  5
1BCD8
  8
0
 10
4350.9544377268530297
 20
310.1189361553213075
 30
0.0
 40
0.0154422519371163
 50
334.7793610736653136
 51
0.7416541802507611
  0
LINE
  5
1BCD9
  8
0
 10
4350.7876450781941458
 20
310.1172760518945779
 30
0.0
 11
4350.7572679600943957
 21
310.1137922444946184
 31
0.0
  0
LINE
  5
1BCDA
  8
0
 10
4350.7997211692936617
 20
310.1121724751945976
 30
0.0
 11
4350.7997211693937061
 21
310.0998673641947221
 31
0.0
  0
LINE
  5
1BCDB
  8
0
 10
4350.7722764086947791
 20
310.115513492182572
 30
0.0
 11
4350.7722764086947791
 21
310.0967595133947157
 31
0.0
  0
LINE
  5
1BCDC
  8
0
 10
4350.7584169353513062
 20
310.1139240150097862
 30
0.0
 11
4350.7514957563944336
 21
310.1030077044947006
 31
0.0
  0
LINE
  5
1BCDD
  8
0
 10
4350.8154597992206618
 20
310.1074644686264037
 30
0.0
 11
4350.8085386201946676
 21
310.0965481578945742
 31
0.0
  0
LINE
  5
1BCDE
  8
0
 10
4350.8029296673939825
 20
310.0931686959946205
 30
0.0
 11
4350.7725525494943213
 21
310.0896848886947055
 31
0.0
  0
LINE
  5
1BCDF
  8
0
 10
4350.7677838301942757
 20
310.0903741591947096
 30
0.0
 11
4350.7458868036947024
 21
310.0996282424945889
 31
0.0
  0
LINE
  5
1BCE0
  8
0
 10
4350.809542104693719
 20
310.1080219685945849
 30
0.0
 11
4350.7876450781941458
 21
310.1172760518945779
 31
0.0
  0
ARC
  5
1BCE1
  8
0
 10
4350.8140065089710333
 20
310.1108535385507139
 30
0.0
 40
0.0035339674381621
 50
245.9078230260114992
 51
274.9399400063758776
  0
ARC
  5
1BCE2
  8
0
 10
4350.8118309442170357
 20
310.1137827318574978
 30
0.0
 40
0.0061988047017666
 50
248.331317114931295
 51
276.7908368015663996
  0
ARC
  5
1BCE3
  8
0
 10
4350.8030671759579491
 20
310.1003211790887804
 30
0.0
 40
0.0066462313345374
 50
275.8046939880661057
 51
325.4104692733600928
  0
ARC
  5
1BCE4
  8
0
 10
4350.8068909048333808
 20
310.1001554094250992
 30
0.0
 40
0.0071755192379079
 50
182.3006295667036909
 51
243.9466567796517893
  0
ARC
  5
1BCE5
  8
0
 10
4350.7460243122068277
 20
310.1067807256088145
 30
0.0
 40
0.0066462312501523
 50
275.8046936518468897
 51
325.4104696095212717
  0
ARC
  5
1BCE6
  8
0
 10
4350.7568354504528543
 20
310.0965596297212983
 30
0.0
 40
0.0154422519371163
 50
334.7793610736653136
 51
0.7416541802507611
  0
ARC
  5
1BCE7
  8
0
 10
4350.7722576781279713
 20
310.0932617062914005
 30
0.0
 40
0.0035889515521374
 50
246.1349855870249996
 51
274.7127832296399106
  0
ARC
  5
1BCE8
  8
0
 10
4350.7700538540630077
 20
310.0959908156416986
 30
0.0
 40
0.0060580390670305
 50
247.9934450533858126
 51
277.1287059244609736
  0
ARC
  5
1BCE9
  8
0
 10
4350.8404896381098297
 20
310.1526646824431737
 30
0.0
 40
0.0035889530507754
 50
246.1349889532409918
 51
274.712771926971584
  0
ARC
  5
1BCEA
  8
0
 10
4350.8382674281683649
 20
310.1565146387894742
 30
0.0
 40
0.0071735229183275
 50
268.198977351268411
 51
276.1633976390672274
  0
ARC
  5
1BCEB
  8
0
 10
4350.82490819553459
 20
310.1559971427709002
 30
0.0
 40
0.0156010489783578
 50
334.9137628540196943
 51
0.6072522634579677
  0
ARC
  5
1BCEC
  8
0
 10
4350.7987313631747384
 20
310.1350168699684104
 30
0.0
 40
0.0035889499307395
 50
246.1349762671495114
 51
274.7127846131011779
  0
ARC
  5
1BCED
  8
0
 10
4350.7964910562468503
 20
310.1393419882829221
 30
0.0
 40
0.0076479495947814
 50
268.4463686586011022
 51
275.9160063319652068
  0
LINE
  5
1BCEE
  8
0
 10
4350.7884547717940222
 20
310.117816382794615
 30
0.0
 11
4350.7876450781941458
 21
310.1172760518945779
 31
0.0
  0
ARC
  5
1BCEF
  8
0
 10
4350.7568709005881828
 20
310.1167633519921765
 30
0.0
 40
0.0029975216451733
 50
243.2358358476807894
 51
277.6119197304037129
  0
LINE
  5
1BCF0
  8
0
 10
4350.700842729524993
 20
310.1724906412027281
 30
0.0
 11
4350.6997849943509209
 21
310.173180521729023
 31
0.0
  0
LINE
  5
1BCF1
  8
0
 10
4350.7008427294931607
 20
310.1724906411947131
 30
0.0
 11
4350.7000330356941049
 21
310.1719503102946192
 31
0.0
  0
LINE
  5
1BCF2
  8
0
 10
4350.7161273188157793
 20
310.1483832853016906
 30
0.0
 11
4350.71531762509494
 21
310.1478429543947186
 31
0.0
  0
LINE
  5
1BCF3
  8
0
 10
4351.1836593246953271
 20
310.1625694340946211
 30
0.0
 11
4351.1828496308944523
 21
310.1620291031946977
 31
0.0
  0
LINE
  5
1BCF4
  8
0
 10
4351.21422850329418
 20
310.1143547222945926
 30
0.0
 11
4351.213589093094015
 21
310.1137897785945938
 31
0.0
  0
LINE
  5
1BCF5
  8
0
 10
4351.1989439139952083
 20
310.1384620781947206
 30
0.0
 11
4351.1981342202943779
 21
310.1379217472946266
 31
0.0
  0
LINE
  5
1BCF6
  8
0
 10
4351.126616460994228
 20
310.1690289806945771
 30
0.0
 11
4351.1258067671942626
 21
310.1684886497947105
 31
0.0
  0
LINE
  5
1BCF7
  8
0
 10
4351.0695735972949478
 20
310.1754885271946023
 30
0.0
 11
4351.0687639033949381
 21
310.174948196294622
 31
0.0
  0
LINE
  5
1BCF8
  8
0
 10
4351.0390044186933665
 20
310.2237032390946183
 30
0.0
 11
4351.0381947248943106
 21
310.2231629081945812
 31
0.0
  0
ARC
  5
1BCF9
  8
0
 10
4351.0074228840167052
 20
310.2226640589598219
 30
0.0
 40
0.0030109435926808
 50
243.314827038350586
 51
277.532932765809619
  0
LINE
  5
1BCFA
  8
0
 10
4350.9972461441948326
 20
310.2060554296945725
 30
0.0
 11
4350.9964364503948673
 21
310.2055150987947059
 31
0.0
  0
LINE
  5
1BCFB
  8
0
 10
4350.9819615549558876
 20
310.2301627855896982
 30
0.0
 11
4350.9811518610940766
 21
310.2296224546947201
 31
0.0
  0
ARC
  5
1BCFC
  8
0
 10
4350.9242068277717408
 20
310.2433015562806986
 30
0.0
 40
0.0067170518279032
 50
276.0835480072336168
 51
325.131615254154724
  0
ARC
  5
1BCFD
  8
0
 10
4350.9280911662490325
 20
310.2431046674552135
 30
0.0
 40
0.0072170125187492
 50
193.6247375574938019
 51
243.9227305571419038
  0
LINE
  5
1BCFE
  8
0
 10
4350.9297172123942801
 20
310.2394602130946168
 30
0.0
 11
4350.9314473066688151
 21
310.2421890587207258
 31
0.0
  0
LINE
  5
1BCFF
  8
0
 10
4350.9249186911947618
 20
310.2366223320947256
 30
0.0
 11
4350.9241089973947965
 21
310.2360820011945748
 31
0.0
  0
LINE
  5
1BD00
  8
0
 10
4350.8831604167389742
 20
310.2189745228051265
 30
0.0
 11
4350.8823507228944436
 21
310.2184341918945734
 31
0.0
  0
LINE
  5
1BD01
  8
0
 10
4350.8984450059060691
 20
310.1948671668012025
 30
0.0
 11
4350.8976353122952787
 21
310.194326835994616
 31
0.0
  0
LINE
  5
1BD02
  8
0
 10
4350.9137295952114073
 20
310.1707598109010746
 30
0.0
 11
4350.912919901494206
 21
310.1702194800946017
 31
0.0
  0
LINE
  5
1BD03
  8
0
 10
4350.9290141844949176
 20
310.1466524549945802
 30
0.0
 11
4350.9282044907940872
 21
310.1461121240947136
 31
0.0
  0
ARC
  5
1BD04
  8
0
 10
4350.9545616893374245
 20
310.1396645236039831
 30
0.0
 40
0.0035093438057477
 50
245.8037054975274032
 51
275.044050080463478
  0
LINE
  5
1BD05
  8
0
 10
4350.9707724589943609
 20
310.1643002643946261
 30
0.0
 11
4350.96996276529444
 21
310.1637599334945889
 31
0.0
  0
LINE
  5
1BD06
  8
0
 10
4351.0278153227936855
 20
310.1578407177946133
 30
0.0
 11
4351.0270056290937646
 21
310.1573003868945761
 31
0.0
  0
LINE
  5
1BD07
  8
0
 10
4350.9860570482942421
 20
310.1401929084947255
 30
0.0
 11
4350.9852473545943212
 21
310.1396525774945871
 31
0.0
  0
LINE
  5
1BD08
  8
0
 10
4351.0430999119944317
 20
310.1337333618947127
 30
0.0
 11
4351.0422902182936014
 21
310.1331930309946188
 31
0.0
  0
LINE
  5
1BD09
  8
0
 10
4351.0583845012943129
 20
310.1096260059945848
 30
0.0
 11
4351.057574807594392
 21
310.1090856750947182
 31
0.0
  0
ARC
  5
1BD0A
  8
0
 10
4351.0839456821349813
 20
310.1027191395294267
 30
0.0
 40
0.0035889521791176
 50
246.134988136346692
 51
274.7127806803358112
  0
ARC
  5
1BD0B
  8
0
 10
4351.0817431428240525
 20
310.106052624668223
 30
0.0
 40
0.0066580210932353
 50
267.8901008902349759
 51
276.4722859253395768
  0
LINE
  5
1BD0C
  8
0
 10
4351.1154273650936375
 20
310.103166459394572
 30
0.0
 11
4351.1146176712945817
 21
310.1026261285945793
 31
0.0
  0
LINE
  5
1BD0D
  8
0
 10
4351.0736690905941941
 20
310.0855186500946274
 30
0.0
 11
4351.0728593967942288
 21
310.084978319194704
 31
0.0
  0
LINE
  5
1BD0E
  8
0
 10
4351.0889536798940753
 20
310.0614112940946256
 30
0.0
 11
4351.08814398609411
 21
310.0608709632945761
 31
0.0
  0
LINE
  5
1BD0F
  8
0
 10
4351.1042382691939565
 20
310.0373039381947251
 30
0.0
 11
4351.1034285753939912
 21
310.0367636072945743
 31
0.0
  0
LINE
  5
1BD10
  8
0
 10
4351.1195228583947028
 20
310.0131965822947109
 30
0.0
 11
4351.118713164593828
 21
310.0126562513946169
 31
0.0
  0
LINE
  5
1BD11
  8
0
 10
4351.0624799946936037
 20
310.0196561288947237
 30
0.0
 11
4351.0616703007935939
 21
310.0191157979945729
 31
0.0
  0
LINE
  5
1BD12
  8
0
 10
4351.1612811328950556
 20
310.0308443916945862
 30
0.0
 11
4351.1604714390941808
 21
310.0303040607947196
 31
0.0
  0
LINE
  5
1BD13
  8
0
 10
4351.2295130925940612
 20
310.0902473662947045
 30
0.0
 11
4351.2287033988941403
 21
310.0897070354945981
 31
0.0
  0
LINE
  5
1BD14
  8
0
 10
4351.1724702287947366
 20
310.0967069128947173
 30
0.0
 11
4351.1716605350939062
 21
310.0961665819946234
 31
0.0
  0
LINE
  5
1BD15
  8
0
 10
4351.1571856394948554
 20
310.1208142687946179
 30
0.0
 11
4351.156375945794025
 21
310.1202739379946252
 31
0.0
  0
LINE
  5
1BD16
  8
0
 10
4351.1419010502941092
 20
310.1449216246945753
 30
0.0
 11
4351.1410913563940994
 21
310.144381293794595
 31
0.0
  0
LINE
  5
1BD17
  8
0
 10
4351.0848581864947846
 20
310.1513811712945881
 30
0.0
 11
4351.084218776394664
 21
310.1508162275945892
 31
0.0
  0
ARC
  5
1BD18
  8
0
 10
4351.0228015984630474
 20
310.1991146201509082
 30
0.0
 40
0.0035556045095384
 50
245.998082675468595
 51
274.8496872172402163
  0
ARC
  5
1BD19
  8
0
 10
4351.0206038820815593
 20
310.2018805930500207
 30
0.0
 40
0.0060608903315861
 50
248.0004516063534936
 51
277.1217027971259199
  0
LINE
  5
1BD1A
  8
0
 10
4351.0125307335019897
 20
310.1819480738006973
 30
0.0
 11
4351.0117210397947929
 21
310.181407742894578
 31
0.0
  0
ARC
  5
1BD1B
  8
0
 10
4350.9651055284293761
 20
310.1849117606734012
 30
0.0
 40
0.0159624885646108
 50
335.2094545373378196
 51
0.3115605801458606
  0
ARC
  5
1BD1C
  8
0
 10
4350.9810365887469743
 20
310.1814268883669001
 30
0.0
 40
0.00351640891612
 50
245.8337393106899071
 51
275.0140290237641807
  0
ARC
  5
1BD1D
  8
0
 10
4350.9788451352469565
 20
310.1842291641303859
 30
0.0
 40
0.0060573573646055
 50
247.9917695599478122
 51
277.1303806280196227
  0
LINE
  5
1BD1E
  8
0
 10
4350.9554878697235836
 20
310.1884076203027121
 30
0.0
 11
4350.9546781759936493
 21
310.1878672894947044
 31
0.0
  0
LINE
  5
1BD1F
  8
0
 10
4350.9402032804073315
 20
310.2125149762006231
 30
0.0
 11
4350.9393935867938126
 21
310.2119746453947187
 31
0.0
  0
LINE
  5
1BD20
  8
0
 10
4350.841402142214065
 20
310.2013267134013859
 30
0.0
 11
4350.8405924484941352
 21
310.200786382494698
 31
0.0
  0
LINE
  5
1BD21
  8
0
 10
4350.7843592784147404
 20
310.2077862600021945
 30
0.0
 11
4350.7835495846939011
 21
310.2072459290947108
 31
0.0
  0
LINE
  5
1BD22
  8
0
 10
4350.799643867724626
 20
310.1836789040028179
 30
0.0
 11
4350.7988341739937823
 21
310.1831385731946966
 31
0.0
  0
LINE
  5
1BD23
  8
0
 10
4350.8566867315312265
 20
310.177219357404681
 30
0.0
 11
4350.8558770376948814
 21
310.176679026594627
 31
0.0
  0
LINE
  5
1BD24
  8
0
 10
4350.8719713207947279
 20
310.153112001594593
 30
0.0
 11
4350.8711616269947626
 21
310.1525716706947264
 31
0.0
  0
LINE
  5
1BD25
  8
0
 10
4350.8872559100936996
 20
310.1290046456945788
 30
0.0
 11
4350.8864462161936899
 21
310.1284643147947122
 31
0.0
  0
LINE
  5
1BD26
  8
0
 10
4350.9025404992944459
 20
310.1048972896946907
 30
0.0
 11
4350.9017308054935711
 21
310.1043569587947104
 31
0.0
  0
ARC
  5
1BD27
  8
0
 10
4350.9477155950480665
 20
310.1291645700546269
 30
0.0
 40
0.0074492995153209
 50
183.5490464556519044
 51
242.6982398906908998
  0
ARC
  5
1BD28
  8
0
 10
4350.9698507195180355
 20
310.1155834924741725
 30
0.0
 40
0.0035351825116802
 50
245.9129251114364934
 51
274.9348437052140071
  0
ARC
  5
1BD29
  8
0
 10
4350.9676749459149505
 20
310.1185114450527749
 30
0.0
 40
0.00619880174168
 50
248.3313082579250022
 51
276.7908422329737164
  0
LINE
  5
1BD2A
  8
0
 10
4350.95958336309468
 20
310.0984377431946086
 30
0.0
 11
4350.9587736692947146
 21
310.0978974122946283
 31
0.0
  0
LINE
  5
1BD2B
  8
0
 10
4350.9748679523936516
 20
310.0743303871947205
 30
0.0
 11
4350.9740582585945958
 21
310.0737900562946265
 31
0.0
  0
LINE
  5
1BD2C
  8
0
 10
4350.9901525415943979
 20
310.0502230313945802
 30
0.0
 11
4350.9893428477944326
 21
310.049682700394726
 31
0.0
  0
LINE
  5
1BD2D
  8
0
 10
4351.0054371308942791
 20
310.0261156753945784
 30
0.0
 11
4351.0046274371943582
 21
310.0255753444947118
 31
0.0
  0
LINE
  5
1BD2E
  8
0
 10
4351.047195405394632
 20
310.0437634847946242
 30
0.0
 11
4351.0463857115937572
 21
310.0432231538945871
 31
0.0
  0
LINE
  5
1BD2F
  8
0
 10
4351.0319108160947508
 20
310.0678708406945816
 30
0.0
 11
4351.031101122293876
 21
310.0673305097946013
 31
0.0
  0
LINE
  5
1BD30
  8
0
 10
4351.0207217201941603
 20
310.0020083193946903
 30
0.0
 11
4351.0199120264942394
 21
310.0014679885945839
 31
0.0
  0
LINE
  5
1BD31
  8
0
 10
4350.9636788563948357
 20
310.0084678659947031
 30
0.0
 11
4350.9628691625948704
 21
310.0079275351947103
 31
0.0
  0
LINE
  5
1BD32
  8
0
 10
4350.9066359926946461
 20
310.0149274124946146
 30
0.0
 11
4350.9058262989938157
 21
310.0143870816946219
 31
0.0
  0
LINE
  5
1BD33
  8
0
 10
4350.8495931288944121
 20
310.0213869590946274
 30
0.0
 11
4350.8487834351935817
 21
310.020846628194704
 31
0.0
  0
LINE
  5
1BD34
  8
0
 10
4350.7925502651942224
 20
310.027846505694697
 30
0.0
 11
4350.7917405712951222
 21
310.0273061747947168
 31
0.0
  0
LINE
  5
1BD35
  8
0
 10
4350.8343085396936658
 20
310.0454943149946985
 30
0.0
 11
4350.8334988458937005
 21
310.0449539840947182
 31
0.0
  0
LINE
  5
1BD36
  8
0
 10
4350.8913514033947649
 20
310.0390347684946164
 30
0.0
 11
4350.8905417095947996
 21
310.0384944375945793
 31
0.0
  0
LINE
  5
1BD37
  8
0
 10
4350.8760668140948837
 20
310.0631421243945738
 30
0.0
 11
4350.8752571203949628
 21
310.0626017935946948
 31
0.0
  0
LINE
  5
1BD38
  8
0
 10
4350.8607822248941375
 20
310.087249480294588
 30
0.0
 11
4350.8599725310941722
 21
310.086709149494709
 31
0.0
  0
LINE
  5
1BD39
  8
0
 10
4350.8454976355942563
 20
310.1113568362947035
 30
0.0
 11
4350.8446879416942465
 21
310.1108165053947232
 31
0.0
  0
LINE
  5
1BD3A
  8
0
 10
4350.8037393611948573
 20
310.0937090267946132
 30
0.0
 11
4350.8029296673939825
 21
310.0931686959946205
 31
0.0
  0
LINE
  5
1BD3B
  8
0
 10
4350.7466964973937138
 20
310.100168573394626
 30
0.0
 11
4350.7458868036947024
 21
310.0996282424945889
 31
0.0
  0
LINE
  5
1BD3C
  8
0
 10
4350.6896536335943892
 20
310.106628119994582
 30
0.0
 11
4350.6888439397953334
 21
310.1060877890946017
 31
0.0
  0
LINE
  5
1BD3D
  8
0
 10
4350.704938222794226
 20
310.0825207640946246
 30
0.0
 11
4350.7041285290943051
 21
310.0819804331945875
 31
0.0
  0
LINE
  5
1BD3E
  8
0
 10
4350.7202228120941072
 20
310.0584134080946228
 30
0.0
 11
4350.7194131182941419
 21
310.0578730772945732
 31
0.0
  0
LINE
  5
1BD3F
  8
0
 10
4350.7772656758943413
 20
310.0519538615947113
 30
0.0
 11
4350.7764559820943759
 21
310.0514135306946173
 31
0.0
  0
LINE
  5
1BD40
  8
0
 10
4350.9483942670949546
 20
310.0325752218946036
 30
0.0
 11
4350.9475845734941686
 21
310.0320348910947246
 31
0.0
  0
LINE
  5
1BD41
  8
0
 10
4351.1459965435951744
 20
310.0549517475946004
 30
0.0
 11
4351.145186849894344
 21
310.0544114166946201
 31
0.0
  0
LINE
  5
1BD42
  8
0
 10
4351.1307119542943838
 20
310.0790591034946146
 30
0.0
 11
4351.1299022605935534
 21
310.0785187726946219
 31
0.0
  0
LINE
  5
1BD43
  8
0
 10
4351.1877548180937083
 20
310.0725995568947155
 30
0.0
 11
4351.186945124293743
 21
310.0720592260947228
 31
0.0
  0
LINE
  5
1BD44
  8
0
 10
4351.2030394073935895
 20
310.0484922009945876
 30
0.0
 11
4351.2022297136936686
 21
310.047951870094721
 31
0.0
  0
LINE
  5
1BD45
  8
0
 10
4351.2447976818948518
 20
310.0661400103945766
 30
0.0
 11
4351.2439879881949309
 21
310.06559967949471
 31
0.0
  0
LINE
  5
1BD46
  8
0
 10
4351.1001427757937563
 20
310.1272738153945738
 30
0.0
 11
4351.0993330820938354
 21
310.1267334844945935
 31
0.0
  0
LINE
  5
1BD47
  8
0
 10
4351.0166262267948696
 20
310.0919781965945958
 30
0.0
 11
4351.0158165329949043
 21
310.0914378656946155
 31
0.0
  0
LINE
  5
1BD48
  8
0
 10
4351.0013416375932138
 20
310.1160855523946225
 30
0.0
 11
4351.000531943794158
 21
310.1155452215945729
 31
0.0
  0
LINE
  5
1BD49
  8
0
 10
4350.8149284569935844
 20
310.1595715480946183
 30
0.0
 11
4350.8141187631954381
 21
310.1590312171945811
 31
0.0
  0
LINE
  5
1BD4A
  8
0
 10
4350.7578855932133592
 20
310.1660310947027028
 30
0.0
 11
4350.7570758993942945
 21
310.1654907637945939
 31
0.0
  0
LINE
  5
1BD4B
  8
0
 10
4350.773170182494141
 20
310.1419237387946168
 30
0.0
 11
4350.7723604886941757
 21
310.1413834077947058
 31
0.0
  0
LINE
  5
1BD4C
  8
0
 10
4350.8302130462943751
 20
310.1354641921947177
 30
0.0
 11
4350.8294033524944098
 21
310.1349238612946237
 31
0.0
  0
LINE
  5
1BD4D
  8
0
 10
4350.9178250885943271
 20
310.0807899337946196
 30
0.0
 11
4350.9170153947943618
 21
310.0802496028946962
 31
0.0
  0
LINE
  5
1BD4E
  8
0
 10
4350.9331096778942083
 20
310.0566825777946178
 30
0.0
 11
4350.9322999841942874
 21
310.0561422469946251
 31
0.0
  0
LINE
  5
1BD4F
  8
0
 10
4350.8190239503937846
 20
310.0696016709945866
 30
0.0
 11
4350.8182142565938193
 21
310.06906134009472
 31
0.0
  0
LINE
  5
1BD50
  8
0
 10
4350.7619810865935506
 20
310.0760612174946118
 30
0.0
 11
4350.7611713927935853
 21
310.0755208866946191
 31
0.0
  0
LINE
  5
1BD51
  8
0
 10
4350.7314119079946977
 20
310.1242759293946278
 30
0.0
 11
4350.7306022143948212
 21
310.1237355984947044
 31
0.0
  0
LINE
  5
1BD52
  8
0
 10
4350.6743690442935986
 20
310.1307354758945962
 30
0.0
 11
4350.6735593505936777
 21
310.1301951449946159
 31
0.0
  0
LINE
  5
1BD53
  8
0
 10
4350.7426010039343964
 20
310.190138450603115
 30
0.0
 11
4350.7417913101935483
 21
310.1895981196947218
 31
0.0
  0
ARC
  5
1BD54
  8
0
 10
4351.3355308180625798
 20
310.7140410427518873
 30
0.0
 40
0.0974494451901379
 50
1.6234374944595871
 51
39.8883428729589227
  0
LINE
  5
1BD55
  8
0
 10
4350.5215238250939365
 20
310.7168018379946943
 30
0.0
 11
4350.5215238250939365
 21
310.3046868843945845
 31
0.0
  0
ARC
  5
1BD56
  8
0
 10
4351.1513265024923385
 20
310.2969511532471074
 30
0.0
 40
0.6298501837688248
 50
179.2962836221223881
 51
199.2875257082833116
  0
ARC
  5
1BD57
  8
0
 10
4350.7109952264208914
 20
310.158119870513076
 30
0.0
 40
0.1689913972071418
 50
204.1778383457516099
 51
243.1417192738715016
  0
ARC
  5
1BD58
  8
0
 10
4350.866599722689898
 20
310.4203820812389267
 30
0.0
 40
0.4736989150242975
 50
240.6816377819079946
 51
255.162546639777787
  0
ARC
  5
1BD59
  8
0
 10
4350.6601744614008567
 20
310.1102661407387018
 30
0.0
 40
0.0795925910335543
 50
136.7928667665674141
 51
222.5787159258456995
  0
ARC
  5
1BD5A
  8
0
 10
4350.8208884949253843
 20
309.9476489018363736
 30
0.0
 40
0.3081854875825375
 50
103.4488842830123048
 51
135.2127578032722113
  0
ARC
  5
1BD5B
  8
0
 10
4350.8182147737988998
 20
310.267698645003577
 30
0.0
 40
0.3026182621382385
 50
224.2819683625162099
 51
256.819401072776202
  0
LINE
  5
1BD5C
  8
0
 10
4350.6091222505756377
 20
310.1715536863109719
 30
0.0
 11
4350.609122264693724
 21
310.1190948465946917
 31
0.0
  0
ARC
  5
1BD5D
  8
0
 10
4350.6988855229010369
 20
310.1208382876754968
 30
0.0
 40
0.0897801877411168
 50
181.1126964366897028
 51
217.3029901535605006
  0
ARC
  5
1BD5E
  8
0
 10
4350.7904219218562503
 20
310.1982936533667043
 30
0.0
 40
0.2096222063835516
 50
218.9807698676189887
 51
246.8992445845757118
  0
ARC
  5
1BD5F
  8
0
 10
4350.6994750566527728
 20
310.104864140630923
 30
0.0
 40
0.0667295788758676
 50
144.1028394815153035
 51
215.8971605184821101
  0
ARC
  5
1BD60
  8
0
 10
4350.7216504164152866
 20
310.1100951177841125
 30
0.0
 40
0.0603621750089799
 50
149.1812555276314924
 51
214.3716103063302967
  0
ARC
  5
1BD61
  8
0
 10
4350.8249172095383983
 20
310.026510345417023
 30
0.0
 40
0.1927956391237959
 50
105.2760614133110977
 51
143.562632948837205
  0
ARC
  5
1BD62
  8
0
 10
4350.7881807682078943
 20
310.1569685483547119
 30
0.0
 40
0.1417431531517205
 50
214.8278887966015986
 51
241.1508638748451006
  0
ARC
  5
1BD63
  8
0
 10
4350.8981244700053139
 20
310.3485331720052045
 30
0.0
 40
0.3626023249694201
 50
240.5396508359523011
 51
257.2114683249785116
  0
ARC
  5
1BD64
  8
0
 10
4350.7032582631145488
 20
310.1269733688243946
 30
0.0
 40
0.0610526381043612
 50
165.6348118788432942
 51
196.3556601441349017
  0
ARC
  5
1BD65
  8
0
 10
4350.7727928970907669
 20
310.1558477493060195
 30
0.0
 40
0.1361470130880972
 50
199.7770048032076033
 51
244.897820976349891
  0
ARC
  5
1BD66
  8
0
 10
4350.9338806534979085
 20
310.4501360313387863
 30
0.0
 40
0.4714485496058362
 50
242.341607134630209
 51
266.5545119342257863
  0
ARC
  5
1BD67
  8
0
 10
4350.8581507354583664
 20
309.9437063468662927
 30
0.0
 40
0.2921782128764817
 50
100.2868581753743058
 51
136.7263156818443122
  0
ARC
  5
1BD68
  8
0
 10
4350.801106599123159
 20
310.1867738914556867
 30
0.0
 40
0.1972006362077029
 50
217.8624599530870967
 51
252.0426845385306081
  0
ARC
  5
1BD69
  8
0
 10
4350.9717702510097297
 20
310.6501996101945906
 30
0.0
 40
0.690942717187041
 50
250.4277743716932889
 51
270.4529554983010939
  0
ARC
  5
1BD6A
  8
0
 10
4350.618934155027091
 20
310.7140410427518873
 30
0.0
 40
0.0974494451901379
 50
140.1116571270410986
 51
178.3765625055403916
  0
ARC
  5
1BD6B
  8
0
 10
4350.9772325656085741
 20
309.9115825648257214
 30
0.0
 40
0.9978100754689718
 50
74.7788827302365604
 51
105.2211258229744999
  0
ARC
  5
1BD6C
  8
0
 10
4351.1704105322360192
 20
310.5555907667920224
 30
0.0
 40
0.32613617622346
 50
42.6454188742833225
 51
77.8231401430480787
  0
ARC
  5
1BD6D
  8
0
 10
4350.796710300020095
 20
310.5334615531911027
 30
0.0
 40
0.3505216265043417
 50
103.4361476086563982
 51
136.0952694817326858
  0
ARC
  5
1BD6E
  8
0
 10
4351.2121955360908032
 20
310.12376527899238
 30
0.0
 40
0.0817138634480743
 50
306.171761827111311
 51
352.0744848817698198
  0
ARC
  5
1BD6F
  8
0
 10
4351.062190522153287
 20
310.3278613929547873
 30
0.0
 40
0.3350054549532866
 50
279.9000743827900806
 51
306.2799560314375071
  0
ARC
  5
1BD70
  8
0
 10
4350.9772324865443807
 20
310.6962445393879193
 30
0.0
 40
0.712800652898139
 50
258.463408506661608
 51
281.536591493338392
  0
ARC
  5
1BD71
  8
0
 10
4350.9772324865443807
 20
310.7282203446675908
 30
0.0
 40
0.7521047538420288
 50
264.5306648936020792
 51
275.4693351063979208
  0
ARC
  5
1BD72
  8
0
 10
4350.7422694369988676
 20
310.12376527899238
 30
0.0
 40
0.0817138634480743
 50
187.9255151182399004
 51
233.828238172888689
  0
ARC
  5
1BD73
  8
0
 10
4350.8922744509345648
 20
310.3278613929547873
 30
0.0
 40
0.3350054549532866
 50
233.7200439685624076
 51
260.0999256172099194
  0
ENDSEC
  0
EOF
