  0
SECTION
  2
HEADER
  9
$ACADVER
  1
AC1009
  9
$INSBASE
 10
4348.2230447389383698
 20
304.1333556546910017
 30
0.0
  9
$EXTMIN
 10
4343.9650518697217194
 20
302.932325762782682
 30
-0.0000000000000058
  9
$EXTMAX
 10
4352.5764020787992195
 20
311.8353961777614813
 30
0.0000000000000104
  9
$LIMMIN
 10
0.0
 20
0.0
  9
$LIMMAX
 10
11.6929133858000007
 20
8.2677165353999982
  9
$ORTHOMODE
 70
     0
  9
$REGENMODE
 70
     1
  9
$FILLMODE
 70
     1
  9
$QTEXTMODE
 70
     0
  9
$MIRRTEXT
 70
     0
  9
$DRAGMODE
 70
     2
  9
$LTSCALE
 40
0.6431102362
  9
$OSMODE
 70
     3
  9
$ATTMODE
 70
     1
  9
$TEXTSIZE
 40
0.2
  9
$TRACEWID
 40
0.05
  9
$TEXTSTYLE
  7
STANDARD
  9
$CLAYER
  8
0
  9
$CELTYPE
  6
BYLAYER
  9
$CECOLOR
 62
   256
  9
$DIMSCALE
 40
1.0
  9
$DIMASZ
 40
0.1875
  9
$DIMEXO
 40
0.0625
  9
$DIMDLI
 40
0.4443307087
  9
$DIMRND
 40
0.0
  9
$DIMDLE
 40
0.0
  9
$DIMEXE
 40
0.125
  9
$DIMTP
 40
0.01
  9
$DIMTM
 40
0.01
  9
$DIMTXT
 40
2.0
  9
$DIMCEN
 40
0.1052362205
  9
$DIMTSZ
 40
0.0
  9
$DIMTOL
 70
     1
  9
$DIMLIM
 70
     0
  9
$DIMTIH
 70
     1
  9
$DIMTOH
 70
     1
  9
$DIMSE1
 70
     0
  9
$DIMSE2
 70
     0
  9
$DIMTAD
 70
     0
  9
$DIMZIN
 70
     0
  9
$DIMBLK
  1

  9
$DIMASO
 70
     1
  9
$DIMSHO
 70
     1
  9
$DIMPOST
  1
\X
  9
$DIMAPOST
  1

  9
$DIMALT
 70
     1
  9
$DIMALTD
 70
     2
  9
$DIMALTF
 40
25.3999999999999986
  9
$DIMLFAC
 40
1.0
  9
$DIMTOFL
 70
     0
  9
$DIMTVP
 40
0.0
  9
$DIMTIX
 70
     0
  9
$DIMSOXD
 70
     0
  9
$DIMSAH
 70
     0
  9
$DIMBLK1
  1

  9
$DIMBLK2
  1

  9
$DIMSTYLE
  2
STANDARD
  9
$DIMCLRD
 70
     0
  9
$DIMCLRE
 70
     0
  9
$DIMCLRT
 70
     0
  9
$DIMTFAC
 40
1.0
  9
$DIMGAP
 40
0.09
  9
$LUNITS
 70
     2
  9
$LUPREC
 70
     4
  9
$SKETCHINC
 40
0.1
  9
$FILLETRAD
 40
0.0
  9
$AUNITS
 70
     0
  9
$AUPREC
 70
     0
  9
$MENU
  1
.
  9
$ELEVATION
 40
0.0
  9
$PELEVATION
 40
0.0
  9
$THICKNESS
 40
0.0
  9
$LIMCHECK
 70
     0
  9
$BLIPMODE
 70
     0
  9
$CHAMFERA
 40
0.0
  9
$CHAMFERB
 40
0.0
  9
$SKPOLY
 70
     0
  9
$TDCREATE
 40
2458060.468368056230247
  9
$TDUPDATE
 40
2459149.5313078709878027
  9
$TDINDWG
 40
0.4634792824
  9
$TDUSRTIMER
 40
0.4634792824
  9
$USRTIMER
 70
     1
  9
$ANGBASE
 50
0.0
  9
$ANGDIR
 70
     0
  9
$PDMODE
 70
     0
  9
$PDSIZE
 40
0.3125
  9
$PLINEWID
 40
0.0
  9
$COORDS
 70
     1
  9
$SPLFRAME
 70
     0
  9
$SPLINETYPE
 70
     6
  9
$SPLINESEGS
 70
     8
  9
$ATTDIA
 70
     1
  9
$ATTREQ
 70
     1
  9
$HANDLING
 70
     1
  9
$HANDSEED
  5
1ADD3
  9
$SURFTAB1
 70
     6
  9
$SURFTAB2
 70
     6
  9
$SURFTYPE
 70
     6
  9
$SURFU
 70
     6
  9
$SURFV
 70
     6
  9
$UCSNAME
  2

  9
$UCSORG
 10
0.0
 20
0.0
 30
0.0
  9
$UCSXDIR
 10
1.0
 20
0.0
 30
0.0
  9
$UCSYDIR
 10
0.0
 20
1.0
 30
0.0
  9
$PUCSNAME
  2

  9
$PUCSORG
 10
0.0
 20
0.0
 30
0.0
  9
$PUCSXDIR
 10
1.0
 20
0.0
 30
0.0
  9
$PUCSYDIR
 10
0.0
 20
1.0
 30
0.0
  9
$USERI1
 70
     0
  9
$USERI2
 70
     0
  9
$USERI3
 70
     0
  9
$USERI4
 70
     0
  9
$USERI5
 70
     0
  9
$USERR1
 40
0.0
  9
$USERR2
 40
0.0
  9
$USERR3
 40
0.0
  9
$USERR4
 40
0.0
  9
$USERR5
 40
0.0
  9
$WORLDVIEW
 70
     1
  9
$SHADEDGE
 70
     3
  9
$SHADEDIF
 70
    70
  9
$TILEMODE
 70
     1
  9
$MAXACTVP
 70
    64
  9
$PLIMCHECK
 70
     0
  9
$PEXTMIN
 10
1.0000000000000000E+20
 20
1.0000000000000000E+20
 30
1.0000000000000000E+20
  9
$PEXTMAX
 10
-1.0000000000000000E+20
 20
-1.0000000000000000E+20
 30
-1.0000000000000000E+20
  9
$PLIMMIN
 10
0.0
 20
0.0
  9
$PLIMMAX
 10
12.0
 20
9.0
  9
$UNITMODE
 70
     0
  9
$VISRETAIN
 70
     1
  9
$PLINEGEN
 70
     0
  9
$PSLTSCALE
 70
     1
  0
ENDSEC
  0
SECTION
  2
TABLES
  0
TABLE
  2
VPORT
 70
     1
  0
VPORT
  2
*ACTIVE
 70
     0
 10
0.0
 20
0.0
 11
1.0
 21
1.0
 12
436.9053705289480263
 22
174.8042558677329907
 13
0.0
 23
0.0
 14
1.0
 24
1.0
 15
0.0
 25
0.0
 16
0.0
 26
0.0
 36
60.4960186965801583
 17
3911.3653564453120453
 27
132.5796051025390057
 37
0.0
 40
8.9566495749485284
 41
1.9267068273092369
 42
50.0
 43
0.0
 44
0.0
 50
0.0
 51
0.0
 71
     0
 72
   100
 73
     1
 74
     1
 75
     0
 76
     0
 77
     0
 78
     0
  0
ENDTAB
  0
TABLE
  2
LTYPE
 70
     2
  0
LTYPE
  2
CONTINUOUS
 70
     0
  3
Solid line
 72
    65
 73
     0
 40
0.0
  0
LTYPE
  2
PHANTOM2
 70
     0
  3
___ _ _ ___ _ _ ___ _ _ ___ _ _
 72
    65
 73
     6
 40
1.25
 49
0.625
 49
-0.125
 49
0.125
 49
-0.125
 49
0.125
 49
-0.125
  0
ENDTAB
  0
TABLE
  2
LAYER
 70
     2
  0
LAYER
  2
0
 70
     0
 62
   255
  6
CONTINUOUS
  0
LAYER
  2
DEFPOINTS
 70
     0
 62
     7
  6
CONTINUOUS
  0
ENDTAB
  0
TABLE
  2
STYLE
 70
     1
  0
STYLE
  2
STANDARD
 70
     0
 40
0.0
 41
0.8
 50
0.0
 71
     0
 42
0.2
  3
txt
  4

  0
ENDTAB
  0
TABLE
  2
VIEW
 70
     0
  0
ENDTAB
  0
TABLE
  2
UCS
 70
     0
  0
ENDTAB
  0
TABLE
  2
APPID
 70
    10
  0
APPID
  2
ACAD
 70
     0
  0
APPID
  2
ACAD_MLEADERVER
 70
     0
  0
APPID
  2
ACAD_EXEMPT_FROM_CAD_STANDARDS
 70
     0
  0
APPID
  2
ACAD_NAV_VCDISPLAY
 70
     0
  0
APPID
  2
ACAECLAYERSTANDARD
 70
     0
  0
APPID
  2
ACCMTRANSPARENCY
 70
     0
  0
APPID
  2
ACAD_DSTYLE_DIMJAG
 70
     0
  0
APPID
  2
ACAD_DSTYLE_DIMTALN
 70
     0
  0
APPID
  2
ACDBATTR
 70
     0
  0
APPID
  2
ACADANNOTATIVE
 70
     0
  0
ENDTAB
  0
TABLE
  2
DIMSTYLE
 70
     1
  0
DIMSTYLE
  2
STANDARD
 70
     0
  3

  4

  5

  6

  7

 40
1.0
 41
0.1875
 42
0.0625
 43
0.38
 44
0.125
 45
0.0
 46
0.0
 47
0.01
 48
0.01
140
0.15625
141
0.09
142
0.0
143
25.3999999999999986
144
1.0
145
0.0
146
1.0
147
0.09
 71
     1
 72
     0
 73
     1
 74
     1
 75
     0
 76
     0
 77
     0
 78
     4
170
     0
171
     2
172
     0
173
     0
174
     0
175
     0
176
     0
177
     0
178
     0
  0
ENDTAB
  0
ENDSEC
  0
SECTION
  2
BLOCKS
  0
BLOCK
  8
0
  2
$MODEL_SPACE
 70
     0
 10
0.0
 20
0.0
 30
0.0
  3
$MODEL_SPACE
  1

  0
ENDBLK
  5
21
  8
0
  0
BLOCK
 67
     1
  8
0
  2
$PAPER_SPACE
 70
     0
 10
0.0
 20
0.0
 30
0.0
  3
$PAPER_SPACE
  1

  0
ENDBLK
  5
1D
 67
     1
  8
0
  0
ENDSEC
  0
SECTION
  2
ENTITIES
  0
ATTDEF
  5
159BF
  8
0
 10
4348.2228288926662572
 20
304.13132734743931
 30
0.0
 40
0.001
  1
K-37315IN-4
  3

  2
MODELNUMBER
 70
     0
1001
ACDBATTR
1070
     0
1070
     1
  0
ATTDEF
  5
159C0
  8
0
 10
4348.2227030830099466
 20
304.1296605070601231
 30
0.0
 40
0.001
  1
CUFF
  3

  2
TRADENAME
 70
     0
1001
ACDBATTR
1070
     0
1070
     1
  0
ATTDEF
  5
159C1
  8
0
 10
4348.2228288926662572
 20
304.1279940141059228
 30
0.0
 40
0.001
  1
KITCHEN SINK FAUCET
  3

  2
PRODUCT
 70
     0
1001
ACDBATTR
1070
     0
1070
     1
  0
LINE
  5
1A80A
  8
0
 10
4345.1292660156368584
 20
306.6774574276909107
 30
0.0
 11
4345.129264816738214
 21
304.8934230286909042
 31
0.0
  0
LINE
  5
1A80B
  8
0
 10
4345.4113235888371491
 20
306.6770553107908768
 30
0.0
 11
4345.4113207721384242
 21
304.8934748698910084
 31
0.0
  0
ARC
  5
1A80C
  8
0
 10
4345.2702888333878946
 20
304.1333556546910017
 30
0.0
 40
0.6934428851499992
 50
106.0318018550297978
 51
277.3758655442837266
  0
ARC
  5
1A80D
  8
0
 10
4345.2702888333878946
 20
304.1333556546910017
 30
0.0
 40
0.7576703881499994
 50
100.8149073851533046
 51
295.2063315456891246
  0
ARC
  5
1A80E
  8
0
 10
4345.2702888333878946
 20
304.1333556546910017
 30
0.0
 40
0.7576703881499994
 50
64.6463119739141518
 51
79.1854102632442363
  0
ARC
  5
1A80F
  8
0
 10
4345.016871414473826
 20
304.893599347889392
 30
0.0
 40
0.1123935405658821
 50
288.5309600667592917
 51
359.9101162752718892
  0
ARC
  5
1A810
  8
0
 10
4345.5235805846141375
 20
304.8935037848547722
 30
0.0
 40
0.112259816199581
 50
180.0147577776859009
 51
251.5051006019438091
  0
LINE
  5
1A811
  8
0
 10
4347.181714731737884
 20
304.822347800090995
 30
0.0
 11
4346.2783363444377756
 21
304.8222523677908953
 31
0.0
  0
ARC
  5
1A812
  8
0
 10
4345.7609657474740743
 20
313.0794413364420734
 30
0.0
 40
8.2630652038557386
 50
267.7490837431408863
 51
269.4314739328810901
  0
ARC
  5
1A813
  8
0
 10
4346.265182678286692
 20
273.4209647436762225
 30
0.0
 40
31.4012903790801801
 50
89.9759994074120044
 51
91.0696740084698035
  0
LINE
  5
1A814
  8
0
 10
4347.7604463137377024
 20
306.2002847885909205
 30
0.0
 11
4347.7604463137377024
 21
306.6136706152909142
 31
0.0
  0
LINE
  5
1A815
  8
0
 10
4347.7604463137377024
 20
306.6136706152909142
 30
0.0
 11
4348.6856431641381278
 21
306.6136706152909142
 31
0.0
  0
LINE
  5
1A816
  8
0
 10
4347.6423698324379075
 20
306.1805997491910034
 30
0.0
 11
4348.8037165217392612
 21
306.1805997491910034
 31
0.0
  0
LINE
  5
1A817
  8
0
 10
4347.6226847931384327
 20
306.1609147097909158
 30
0.0
 11
4347.6226847931384327
 21
305.2845963112908976
 31
0.0
  0
LINE
  5
1A818
  8
0
 10
4346.2411823106367592
 20
303.4444032027909088
 30
0.0
 11
4350.2049073222506195
 21
303.4443992912044905
 31
0.0
  0
ARC
  5
1A819
  8
0
 10
4345.7575732374016297
 20
273.2804885578485141
 30
0.0
 40
30.1677911760720185
 50
89.0814725022772649
 51
90.8888256301637938
  0
ARC
  5
1A81A
  8
0
 10
4347.1929969397970126
 20
305.2530447515671881
 30
0.0
 40
0.4308446961837934
 50
268.499466718728911
 51
4.1996360985151933
  0
ARC
  5
1A81B
  8
0
 10
4347.6423698323660574
 20
306.1609147099616166
 30
0.0
 40
0.01968503922929
 50
89.9999997941646797
 51
180.0000004968740939
  0
ARC
  5
1A81C
  8
0
 10
4347.7801313529671461
 20
306.2002847884202197
 30
0.0
 40
0.01968503922929
 50
179.9999995031290894
 51
270.0000002058353061
  0
ARC
  5
1A81D
  8
0
 10
4348.223012616219421
 20
305.4283302340249975
 30
0.0
 40
1.2193579848683589
 50
209.7997316017147114
 51
330.2003345337201949
  0
LINE
  5
1A81E
  8
0
 10
4351.3168234625081823
 20
306.677055310788603
 30
0.0
 11
4351.3168246611376162
 21
304.8934230286909042
 31
0.0
  0
LINE
  5
1A81F
  8
0
 10
4351.0347658890377716
 20
306.6770553107908768
 30
0.0
 11
4351.0347687057383155
 21
304.8934748698910084
 31
0.0
  0
ARC
  5
1A820
  8
0
 10
4351.1758006444879356
 20
304.1333556546910017
 30
0.0
 40
0.6934428851499992
 50
262.6241344557162734
 51
73.9765987992369105
  0
ARC
  5
1A821
  8
0
 10
4351.1758006444879356
 20
304.1333556546910017
 30
0.0
 40
0.7576703881499994
 50
244.7936684543109038
 51
79.1850926148467238
  0
ARC
  5
1A822
  8
0
 10
4351.1758006444879356
 20
304.1333556546910017
 30
0.0
 40
0.7576703881499994
 50
100.8145897367557069
 51
115.3536880260858055
  0
ARC
  5
1A823
  8
0
 10
4351.4292180775019006
 20
304.8935993524517016
 30
0.0
 40
0.1123935546729889
 50
180.0898860392580048
 51
251.4690804485246929
  0
ARC
  5
1A824
  8
0
 10
4350.9225088622943076
 20
304.8935037948484137
 30
0.0
 40
0.1122598471700815
 50
288.5011092147091745
 51
359.9852371257758819
  0
LINE
  5
1A825
  8
0
 10
4349.2643747461370367
 20
304.822347800090995
 30
0.0
 11
4350.1677531334380546
 21
304.8222523677908953
 31
0.0
  0
ARC
  5
1A826
  8
0
 10
4350.6851237304026654
 20
313.0794413364420734
 30
0.0
 40
8.2630652038557386
 50
270.5685260671189099
 51
272.2509463996090062
  0
ARC
  5
1A827
  8
0
 10
4350.1809067995891382
 20
273.4209647436762225
 30
0.0
 40
31.4012903790801801
 50
88.9303259915301965
 51
90.0240005925879956
  0
LINE
  5
1A828
  8
0
 10
4348.6856431641381278
 20
306.2002847885909205
 30
0.0
 11
4348.6856431641381278
 21
306.6136706152909142
 31
0.0
  0
LINE
  5
1A829
  8
0
 10
4348.823404684738307
 20
306.1609147097909158
 30
0.0
 11
4348.823404684738307
 21
305.2845963112908976
 31
0.0
  0
ARC
  5
1A82A
  8
0
 10
4350.6886356078830431
 20
273.2963460827725157
 30
0.0
 40
30.151933691104599
 50
89.1109312768910371
 51
90.9192371713416065
  0
ARC
  5
1A82B
  8
0
 10
4351.0443997831471279
 20
306.6770462902471763
 30
0.0
 40
0.0096338983333853
 50
93.4430760549634556
 51
179.9463520225737057
  0
ARC
  5
1A82C
  8
0
 10
4349.2530925380788176
 20
305.2530447515671881
 30
0.0
 40
0.4308446961837934
 50
175.8003639014847863
 51
271.5005332812709753
  0
ARC
  5
1A82D
  8
0
 10
4348.8037196450850388
 20
306.1609147097864252
 30
0.0
 40
0.0196850396522868
 50
0.0000000131057173
 51
90.0090908956852473
  0
ARC
  5
1A82E
  8
0
 10
4348.6659581249077746
 20
306.2002847884202197
 30
0.0
 40
0.01968503922929
 50
269.9999997941646939
 51
0.0000004968708323
  0
ARC
  5
1A82F
  8
0
 10
4351.1758006444879356
 20
304.1333556546409227
 30
0.0
 40
1.190944881850001
 50
96.8009692910297588
 51
144.6590703771771018
  0
ARC
  5
1A830
  8
0
 10
4351.1758006444879356
 20
304.1333556546409227
 30
0.0
 40
1.190944881850001
 50
215.3447999231426877
 51
83.1994606176304359
  0
ARC
  5
1A831
  8
0
 10
4345.2702888334379168
 20
304.1333556546910017
 30
0.0
 40
1.1909448818999999
 50
35.3409296181931509
 51
83.1990307116990948
  0
ARC
  5
1A832
  8
0
 10
4345.2702888334379168
 20
304.1333556546910017
 30
0.0
 40
1.1909448818999999
 50
96.8005393844694026
 51
324.6554307190825739
  0
ARC
  5
1A833
  8
0
 10
4345.138885248880797
 20
306.677052274316793
 30
0.0
 40
0.0096277618094743
 50
93.4290382034656943
 51
177.5881792969643129
  0
CIRCLE
  5
1A834
  8
0
 10
4351.1757955086677612
 20
304.1333556547409103
 30
0.0
 40
0.68897637795
  0
CIRCLE
  5
1A835
  8
0
 10
4345.2702939518740095
 20
304.1333556547409103
 30
0.0
 40
0.68897637795
  0
ARC
  5
1A836
  8
0
 10
4351.1758006444879356
 20
304.1333560692409037
 30
0.0
 40
0.7480314960500021
 50
101.1080292321607033
 51
113.6475549572735986
  0
ARC
  5
1A837
  8
0
 10
4351.1758006444879356
 20
304.1333560692409037
 30
0.0
 40
0.7480314960500021
 50
246.4373505697209055
 51
78.8910649431983728
  0
ARC
  5
1A838
  8
0
 10
4345.2702888333878946
 20
304.1333560692409037
 30
0.0
 40
0.7480314960500003
 50
101.1082575728525939
 51
293.5625568836289858
  0
ARC
  5
1A839
  8
0
 10
4345.2702888333878946
 20
304.1333560692409037
 30
0.0
 40
0.7480314960500003
 50
66.352445042727723
 51
78.892614620588418
  0
LINE
  5
1A83A
  8
0
 10
4348.6561156049883721
 20
311.3971351823408895
 30
0.0
 11
4348.6561156049883721
 21
309.887499440999477
 31
0.0
  0
LINE
  5
1A83B
  8
0
 10
4348.6561156049883721
 20
309.2404022842318909
 30
0.0
 11
4348.6561156049883721
 21
306.6136706152909142
 31
0.0
  0
LINE
  5
1A83C
  8
0
 10
4347.789973872738301
 20
311.3971351823408895
 30
0.0
 11
4347.789973872738301
 21
309.8874994408311068
 31
0.0
  0
LINE
  5
1A83D
  8
0
 10
4347.789973872738301
 20
309.2403985102150159
 30
0.0
 11
4347.789973872738301
 21
306.6136706152909142
 31
0.0
  0
ARC
  5
1A83E
  8
0
 10
4348.2230447388628818
 20
311.397135182265913
 30
0.0
 40
0.4330708661249992
 50
0.0000000099237377
 51
179.9999999900761907
  0
ARC
  5
1A83F
  8
0
 10
4351.3071917506904356
 20
306.6770484183899157
 30
0.0
 40
0.0096317142852068
 50
0.0410005390324431
 51
86.5620747692263564
  0
ARC
  5
1A840
  8
0
 10
4351.1757952691750688
 20
305.1744679340761195
 30
0.0
 40
1.517942839504731
 50
85.0122522529248386
 51
94.9877477470751472
  0
ARC
  5
1A841
  8
0
 10
4345.4017094505688874
 20
306.6770655560918044
 30
0.0
 40
0.0096141437278345
 50
359.9389428087465035
 51
86.6021831405639944
  0
ARC
  5
1A842
  8
0
 10
4345.2702943276608494
 20
305.174218357019015
 30
0.0
 40
1.5181924165617999
 50
85.0126624990756454
 51
94.9873375009243546
  0
LINE
  5
1A843
  8
0
 10
4348.6787534003869951
 20
309.8277665369909073
 30
0.0
 11
4348.6787534003869951
 21
309.4156515833909111
 31
0.0
  0
ARC
  5
1A844
  8
0
 10
4348.0490174287460832
 20
309.40791084352702
 30
0.0
 40
0.6297835445865615
 50
340.7108987891064089
 51
0.7042465559408666
  0
ARC
  5
1A845
  8
0
 10
4348.2230447646297762
 20
309.9726574777189967
 30
0.0
 40
0.9286450395256325
 50
255.5368082488641051
 51
284.4631461314469902
  0
ARC
  5
1A846
  8
0
 10
4348.4892926425636688
 20
309.2690702376053764
 30
0.0
 40
0.1689738027818323
 50
296.8572565626229789
 51
335.8250544552415136
  0
ARC
  5
1A847
  8
0
 10
4348.3336772758875668
 20
309.5313472517448758
 30
0.0
 40
0.4736994372453279
 50
284.8373818619708118
 51
299.3183582216981904
  0
ARC
  5
1A848
  8
0
 10
4348.2230445707818944
 20
309.9220414578471718
 30
0.0
 40
0.8684919038563023
 50
254.7786872412710864
 51
285.2213326088246959
  0
ARC
  5
1A849
  8
0
 10
4348.2230447389383698
 20
308.5203224534038782
 30
0.0
 40
0.8684931625870339
 50
74.7786983461048465
 51
105.2213016538950967
  0
ARC
  5
1A84A
  8
0
 10
4348.5401027640818938
 20
309.2212308397349716
 30
0.0
 40
0.0795925910335543
 50
317.4212840741543005
 51
43.2071332334326073
  0
ARC
  5
1A84B
  8
0
 10
4348.3793887305573662
 20
309.0586136008325866
 30
0.0
 40
0.3081854875825375
 50
44.7872421967277603
 51
76.551115716987681
  0
ARC
  5
1A84C
  8
0
 10
4348.3820631240951116
 20
309.3786624703407142
 30
0.0
 40
0.3026171707702164
 50
283.1805076230173768
 51
315.7180611721980199
  0
LINE
  5
1A84D
  8
0
 10
4348.5911549749071128
 20
309.2825183853072986
 30
0.0
 11
4348.591154960788117
 21
309.2300595455909047
 31
0.0
  0
ARC
  5
1A84E
  8
0
 10
4348.5013917025808041
 20
309.2318029866718234
 30
0.0
 40
0.0897801877411314
 50
322.6970098464420857
 51
358.887303563307114
  0
ARC
  5
1A84F
  8
0
 10
4348.2230459633028659
 20
309.8006053068554024
 30
0.0
 40
0.7351651035653469
 50
248.5319952692090908
 51
291.4680047307908808
  0
ARC
  5
1A850
  8
0
 10
4348.4098439101571785
 20
309.3092701342745841
 30
0.0
 40
0.2096384747117922
 50
293.1029718460976028
 51
321.0186858178927878
  0
ARC
  5
1A851
  8
0
 10
4348.223041544147236
 20
308.5899590105336188
 30
0.0
 40
0.7714425895987019
 50
77.173890999298095
 51
102.826109000701905
  0
ARC
  5
1A852
  8
0
 10
4348.5008021688299777
 20
309.2158288396271928
 30
0.0
 40
0.0667295788758676
 50
324.1028394815152751
 51
35.897160518484732
  0
ARC
  5
1A853
  8
0
 10
4348.2230423555756715
 20
308.6789849373860193
 30
0.0
 40
0.6757215867227498
 50
72.5075243800250888
 51
107.492475619974897
  0
ARC
  5
1A854
  8
0
 10
4348.2230427447157126
 20
309.7933404359982887
 30
0.0
 40
0.7056813321101048
 50
256.9478740878191729
 51
283.0521259121807134
  0
ARC
  5
1A855
  8
0
 10
4348.4786268090656449
 20
309.2210598167803823
 30
0.0
 40
0.0603621750089799
 50
325.6283896936697033
 51
30.8187444723684898
  0
ARC
  5
1A856
  8
0
 10
4348.3753680128056658
 20
309.1374833281076917
 30
0.0
 40
0.1927842855563375
 50
36.4367980289143603
 51
74.7269492711007075
  0
ARC
  5
1A857
  8
0
 10
4348.4120964572739467
 20
309.2679332473509248
 30
0.0
 40
0.1417431531517205
 50
298.8491361251549279
 51
325.1721112033984014
  0
ARC
  5
1A858
  8
0
 10
4348.3021706500239816
 20
309.4594600015273045
 30
0.0
 40
0.3625605512564106
 50
282.7864839699939239
 51
299.4608302563859752
  0
ARC
  5
1A859
  8
0
 10
4348.4970189623682018
 20
309.2379380678206076
 30
0.0
 40
0.0610526381043612
 50
343.6443398558650983
 51
14.3651881211566597
  0
ARC
  5
1A85A
  8
0
 10
4348.4274900127984438
 20
309.2668047333257846
 30
0.0
 40
0.1361376152655883
 50
295.1013900773243108
 51
340.2272192193393039
  0
ARC
  5
1A85B
  8
0
 10
4348.266396571983023
 20
309.561100730335113
 30
0.0
 40
0.4714485496058362
 50
273.4454880657742137
 51
297.6583928653698194
  0
ARC
  5
1A85C
  8
0
 10
4348.3421335232569618
 20
309.0546801733767097
 30
0.0
 40
0.2921668353074515
 50
43.2733265294885499
 51
79.7154121670292426
  0
ARC
  5
1A85D
  8
0
 10
4348.3991706263595916
 20
309.2977385904520133
 30
0.0
 40
0.1972006362077029
 50
287.9573154614694204
 51
322.1375400469128749
  0
ARC
  5
1A85E
  8
0
 10
4348.2285069744712018
 20
309.7611643091909741
 30
0.0
 40
0.690942717187041
 50
269.5470445016987924
 51
289.5722256283067964
  0
LINE
  5
1A85F
  8
0
 10
4348.5273789414868588
 20
309.2560516979153817
 30
0.0
 11
4348.5273789414868588
 21
309.2395581706908843
 31
0.0
  0
LINE
  5
1A860
  8
0
 10
4348.5257536870758486
 20
309.2581064176554264
 30
0.0
 11
4348.51237049278825
 21
309.2565909017909007
 31
0.0
  0
LINE
  5
1A861
  8
0
 10
4348.53766830411314
 20
309.2336174453129161
 30
0.0
 11
4348.5276550821881756
 21
309.2324835458910002
 31
0.0
  0
LINE
  5
1A862
  8
0
 10
4348.52288636288813
 20
309.2331728163908906
 30
0.0
 11
4348.5009893362876028
 21
309.2424268997909849
 31
0.0
  0
LINE
  5
1A863
  8
0
 10
4348.5009893362876028
 20
309.2424268997909849
 30
0.0
 11
4348.470612218487986
 21
309.2389430924908993
 31
0.0
  0
LINE
  5
1A864
  8
0
 10
4348.485620666988325
 20
309.2406643401350266
 30
0.0
 11
4348.485620666988325
 21
309.2219103612908953
 31
0.0
  0
LINE
  5
1A865
  8
0
 10
4348.4658434991870308
 20
309.2396323629909034
 30
0.0
 11
4348.4439464726883671
 21
309.2488864462910101
 31
0.0
  0
LINE
  5
1A866
  8
0
 10
4348.4560225638879274
 20
309.2437828695909161
 30
0.0
 11
4348.4560225638879274
 21
309.2314777585909269
 31
0.0
  0
LINE
  5
1A867
  8
0
 10
4348.4285778031880909
 20
309.2471238865787768
 30
0.0
 11
4348.4285778031880909
 21
309.2283699077909205
 31
0.0
  0
LINE
  5
1A868
  8
0
 10
4348.4147183298382515
 20
309.2455344094054226
 30
0.0
 11
4348.4077971509868803
 21
309.2346180988909055
 31
0.0
  0
LINE
  5
1A869
  8
0
 10
4348.3989797000876933
 20
309.2502424160909982
 30
0.0
 11
4348.3989797000876933
 21
309.2379373051909965
 31
0.0
  0
LINE
  5
1A86A
  8
0
 10
4348.4021881981880142
 20
309.2312386369910087
 30
0.0
 11
4348.4240852246875875
 21
309.221984553690902
 31
0.0
  0
LINE
  5
1A86B
  8
0
 10
4348.4288539439876331
 20
309.2212952830909103
 30
0.0
 11
4348.4594013454880042
 21
309.2247544775909205
 31
0.0
  0
LINE
  5
1A86C
  8
0
 10
4348.4594013454880042
 20
309.2247544775909205
 30
0.0
 11
4348.4811276235877813
 21
309.2155270973909182
 31
0.0
  0
LINE
  5
1A86D
  8
0
 10
4348.4858968075868688
 20
309.2148357364910112
 30
0.0
 11
4348.5164442092882382
 21
309.2182949309909077
 31
0.0
  0
LINE
  5
1A86E
  8
0
 10
4348.5164442092882382
 20
309.2182949309909077
 30
0.0
 11
4348.5358979880102197
 21
309.2100262880347827
 31
0.0
  0
LINE
  5
1A86F
  8
0
 10
4348.5288029233452107
 20
309.2326135276724131
 30
0.0
 11
4348.5218828784882135
 21
309.2216990057909243
 31
0.0
  0
LINE
  5
1A870
  8
0
 10
4348.52288636288813
 20
309.2331728163908906
 30
0.0
 11
4348.5249125475866094
 21
309.2327403420910059
 31
0.0
  0
LINE
  5
1A871
  8
0
 10
4348.4811276235877813
 20
309.2155270973909182
 30
0.0
 11
4348.4831542730880756
 21
309.2150925326909032
 31
0.0
  0
LINE
  5
1A872
  8
0
 10
4348.4658434991870308
 20
309.2396323629909034
 30
0.0
 11
4348.4678696838882388
 21
309.239199888690905
 31
0.0
  0
LINE
  5
1A873
  8
0
 10
4348.4240852246875875
 20
309.221984553690902
 30
0.0
 11
4348.4261114093878859
 21
309.221552079290916
 31
0.0
  0
LINE
  5
1A874
  8
0
 10
4348.4439464726883671
 20
309.2488864462910101
 30
0.0
 11
4348.4135693545877075
 21
309.2454026388908801
 31
0.0
  0
LINE
  5
1A875
  8
0
 10
4348.45647660440045
 20
309.2631822188980095
 30
0.0
 11
4348.4495554253880982
 21
309.2522659081909069
 31
0.0
  0
LINE
  5
1A876
  8
0
 10
4348.4407379745880462
 20
309.2678912699672082
 30
0.0
 11
4348.4407379745880462
 21
309.2555851145908719
 31
0.0
  0
LINE
  5
1A877
  8
0
 10
4348.4132932139882541
 20
309.2712312425350092
 30
0.0
 11
4348.4132932139882541
 21
309.2524772637909223
 31
0.0
  0
LINE
  5
1A878
  8
0
 10
4348.3994337406311388
 20
309.2696417653907019
 30
0.0
 11
4348.3925125616869991
 21
309.2587254547909197
 31
0.0
  0
LINE
  5
1A879
  8
0
 10
4348.3836951107878122
 20
309.2743497720908863
 30
0.0
 11
4348.3836951107878122
 21
309.2620446610910108
 31
0.0
  0
LINE
  5
1A87A
  8
0
 10
4348.4108268200880048
 20
309.2456594351908734
 30
0.0
 11
4348.4088006353877063
 21
309.2460919094908718
 31
0.0
  0
LINE
  5
1A87B
  8
0
 10
4348.4088006353877063
 20
309.2460919094908718
 30
0.0
 11
4348.3869036087880886
 21
309.2553459927909216
 31
0.0
  0
LINE
  5
1A87C
  8
0
 10
4348.3869036087880886
 20
309.2553459927909216
 30
0.0
 11
4348.3565264909875623
 21
309.2518621854908929
 31
0.0
  0
LINE
  5
1A87D
  8
0
 10
4348.3537839562868612
 20
309.2521189816910123
 30
0.0
 11
4348.3517573068893398
 21
309.2525535463909137
 31
0.0
  0
LINE
  5
1A87E
  8
0
 10
4348.3517573068893398
 20
309.2525535463909137
 30
0.0
 11
4348.3300310287877437
 21
309.2617809265909159
 31
0.0
  0
LINE
  5
1A87F
  8
0
 10
4348.3300310287877437
 20
309.2617809265909159
 30
0.0
 11
4348.2994836271882377
 21
309.2583217320909057
 31
0.0
  0
LINE
  5
1A880
  8
0
 10
4348.326652247086713
 20
309.2808093185909115
 30
0.0
 11
4348.326652247086713
 21
309.2685042076909099
 31
0.0
  0
LINE
  5
1A881
  8
0
 10
4348.2992074864878305
 20
309.2841503356407884
 30
0.0
 11
4348.2992074864878305
 21
309.2653963568909035
 31
0.0
  0
LINE
  5
1A882
  8
0
 10
4348.3144920756867577
 20
309.2600212920909257
 30
0.0
 11
4348.3144920756867577
 21
309.2412890008909017
 31
0.0
  0
LINE
  5
1A883
  8
0
 10
4348.3451453344869151
 20
309.2376981834909202
 30
0.0
 11
4348.3147682163880745
 21
309.2342143760909039
 31
0.0
  0
LINE
  5
1A884
  8
0
 10
4348.3120256817883273
 20
309.2344711723910109
 30
0.0
 11
4348.3099994971880733
 21
309.2349036467909968
 31
0.0
  0
LINE
  5
1A885
  8
0
 10
4348.3099994971880733
 20
309.2349036467909968
 30
0.0
 11
4348.2881024706875905
 21
309.2441577299910023
 31
0.0
  0
LINE
  5
1A886
  8
0
 10
4348.2881024706875905
 20
309.2441577299910023
 30
0.0
 11
4348.2577253526869754
 21
309.2406739226909167
 31
0.0
  0
LINE
  5
1A887
  8
0
 10
4348.2577253526869754
 20
309.2406739226909167
 30
0.0
 11
4348.2567234060879855
 21
309.2407321301909064
 31
0.0
  0
LINE
  5
1A888
  8
0
 10
4348.2567234060879855
 20
309.2407321301909064
 30
0.0
 11
4348.2559784516879517
 21
309.2409686399909106
 31
0.0
  0
LINE
  5
1A889
  8
0
 10
4348.2574492119883871
 20
309.2665025262293739
 30
0.0
 11
4348.2574492119883871
 21
309.2477485474909145
 31
0.0
  0
LINE
  5
1A88A
  8
0
 10
4348.2848939725881792
 20
309.2631615092909101
 30
0.0
 11
4348.2848939725881792
 21
309.2508563982909209
 31
0.0
  0
LINE
  5
1A88B
  8
0
 10
4348.2967410925875811
 20
309.2585785282909114
 30
0.0
 11
4348.2947149078881921
 21
309.2590110026910111
 31
0.0
  0
LINE
  5
1A88C
  8
0
 10
4348.2947149078881921
 20
309.2590110026910111
 30
0.0
 11
4348.2728178814877538
 21
309.2682650858909028
 31
0.0
  0
LINE
  5
1A88D
  8
0
 10
4348.2728178814877538
 20
309.2682650858909028
 30
0.0
 11
4348.2424407633880037
 21
309.2647812785908741
 31
0.0
  0
LINE
  5
1A88E
  8
0
 10
4348.2396982287882565
 20
309.2650380747908798
 30
0.0
 11
4348.2376720440879581
 21
309.2654705492909102
 31
0.0
  0
LINE
  5
1A88F
  8
0
 10
4348.2376720440879581
 20
309.2654705492909102
 30
0.0
 11
4348.2157750176884292
 21
309.2747246324909156
 31
0.0
  0
LINE
  5
1A890
  8
0
 10
4348.2157750176884292
 20
309.2747246324909156
 30
0.0
 11
4348.1853978996878141
 21
309.2712408251908869
 31
0.0
  0
LINE
  5
1A891
  8
0
 10
4348.1826553650880669
 20
309.2714976213910063
 30
0.0
 11
4348.1806291803868589
 21
309.2719300957908786
 31
0.0
  0
LINE
  5
1A892
  8
0
 10
4348.1806291803868589
 20
309.2719300957908786
 30
0.0
 11
4348.1587321538881952
 21
309.2811841790909284
 31
0.0
  0
LINE
  5
1A893
  8
0
 10
4348.1587321538881952
 20
309.2811841790909284
 30
0.0
 11
4348.1283550358866705
 21
309.2777003716909121
 31
0.0
  0
LINE
  5
1A894
  8
0
 10
4348.1235863165884439
 20
309.2783896422909038
 30
0.0
 11
4348.1016892900879611
 21
309.2876437255910105
 31
0.0
  0
LINE
  5
1A895
  8
0
 10
4348.1016892900879611
 20
309.2876437255910105
 30
0.0
 11
4348.0713121721882999
 21
309.2841599182909249
 31
0.0
  0
LINE
  5
1A896
  8
0
 10
4348.0665434528882543
 20
309.2848491888909166
 30
0.0
 11
4348.044646426386862
 21
309.2941032721909096
 31
0.0
  0
LINE
  5
1A897
  8
0
 10
4348.044646426386862
 20
309.2941032721909096
 30
0.0
 11
4348.0142693082880214
 21
309.2906194647908933
 31
0.0
  0
LINE
  5
1A898
  8
0
 10
4348.0095005890880202
 20
309.2913087353909987
 30
0.0
 11
4347.9876035625893564
 21
309.300562818690878
 31
0.0
  0
LINE
  5
1A899
  8
0
 10
4347.9876035625893564
 20
309.300562818690878
 30
0.0
 11
4347.9636585277339691
 21
309.2978058412072073
 31
0.0
  0
LINE
  5
1A89A
  8
0
 10
4348.0139931676876586
 20
309.3164480684292812
 30
0.0
 11
4348.0139931676876586
 21
309.2976940895908911
 31
0.0
  0
LINE
  5
1A89B
  8
0
 10
4348.452059467653271
 20
309.3143567334323052
 30
0.0
 11
4348.4247584506883868
 21
309.3112651601908851
 31
0.0
  0
LINE
  5
1A89C
  8
0
 10
4348.4199897313892507
 20
309.3119544307909905
 30
0.0
 11
4348.398092704787814
 21
309.3212085140909267
 31
0.0
  0
LINE
  5
1A89D
  8
0
 10
4348.398092704787814
 20
309.3212085140909267
 30
0.0
 11
4348.3677155868881528
 21
309.3177247067908979
 31
0.0
  0
LINE
  5
1A89E
  8
0
 10
4348.3629468675871976
 20
309.318413977290902
 30
0.0
 11
4348.3410498410876244
 21
309.3276680605910087
 31
0.0
  0
LINE
  5
1A89F
  8
0
 10
4348.3410498410876244
 20
309.3276680605910087
 30
0.0
 11
4348.3106727230879187
 21
309.3241842532909232
 31
0.0
  0
LINE
  5
1A8A0
  8
0
 10
4348.2488611400876835
 20
309.3313330703908832
 30
0.0
 11
4348.2269641134880658
 21
309.3405871536908762
 31
0.0
  0
LINE
  5
1A8A1
  8
0
 10
4348.2269641134880658
 20
309.3405871536908762
 30
0.0
 11
4348.1965869956893584
 21
309.3371033463909043
 31
0.0
  0
LINE
  5
1A8A2
  8
0
 10
4348.1918182763884033
 20
309.337792616990896
 30
0.0
 11
4348.1699212497869667
 21
309.3470467001909014
 31
0.0
  0
LINE
  5
1A8A3
  8
0
 10
4348.1699212497869667
 20
309.3470467001909014
 30
0.0
 11
4348.1395441316881261
 21
309.3435628928908727
 31
0.0
  0
LINE
  5
1A8A4
  8
0
 10
4348.1347754124881249
 20
309.3442521635909088
 30
0.0
 11
4348.1264562358619514
 21
309.3477679995531275
 31
0.0
  0
LINE
  5
1A8A5
  8
0
 10
4348.503599968204071
 20
309.2814359118714833
 30
0.0
 11
4348.4970859036875481
 21
309.2806982576909149
 31
0.0
  0
LINE
  5
1A8A6
  8
0
 10
4348.494343369087801
 20
309.2809550539909083
 30
0.0
 11
4348.492317184388412
 21
309.2813875282909066
 31
0.0
  0
LINE
  5
1A8A7
  8
0
 10
4348.492317184388412
 20
309.2813875282909066
 30
0.0
 11
4348.4704201578870197
 21
309.2906416115908996
 31
0.0
  0
LINE
  5
1A8A8
  8
0
 10
4348.4704201578870197
 20
309.2906416115908996
 30
0.0
 11
4348.4400430397881792
 21
309.287157804190997
 31
0.0
  0
LINE
  5
1A8A9
  8
0
 10
4348.4373005052875669
 20
309.2874146004909903
 30
0.0
 11
4348.4352738557881821
 21
309.2878491650909041
 31
0.0
  0
LINE
  5
1A8AA
  8
0
 10
4348.4352738557881821
 20
309.2878491650909041
 30
0.0
 11
4348.4133772940876952
 21
309.2971011580909249
 31
0.0
  0
LINE
  5
1A8AB
  8
0
 10
4348.4133772940876952
 20
309.2971011580909249
 30
0.0
 11
4348.38300017608708
 21
309.2936173507910098
 31
0.0
  0
LINE
  5
1A8AC
  8
0
 10
4348.3802576414882424
 20
309.2938741469909019
 30
0.0
 11
4348.3782314568870788
 21
309.2943066213908878
 31
0.0
  0
LINE
  5
1A8AD
  8
0
 10
4348.3782314568870788
 20
309.2943066213908878
 30
0.0
 11
4348.3563344303884151
 21
309.3035607046909945
 31
0.0
  0
LINE
  5
1A8AE
  8
0
 10
4348.3563344303884151
 20
309.3035607046909945
 30
0.0
 11
4348.3259573122877555
 21
309.3000768973909089
 31
0.0
  0
LINE
  5
1A8AF
  8
0
 10
4348.3211885930877543
 20
309.3007661679909006
 30
0.0
 11
4348.2992915664881366
 21
309.3100202512910073
 31
0.0
  0
LINE
  5
1A8B0
  8
0
 10
4348.242248702787947
 20
309.3164797977909188
 30
0.0
 11
4348.2118715848882857
 21
309.3129959904910038
 31
0.0
  0
LINE
  5
1A8B1
  8
0
 10
4348.2071028655882401
 20
309.3136852610908818
 30
0.0
 11
4348.1852058391878018
 21
309.3229393443908748
 31
0.0
  0
LINE
  5
1A8B2
  8
0
 10
4348.1852058391878018
 20
309.3229393443908748
 30
0.0
 11
4348.1548287210880517
 21
309.3194555369909153
 31
0.0
  0
LINE
  5
1A8B3
  8
0
 10
4348.1500600017870966
 20
309.320144807590907
 30
0.0
 11
4348.1281629752884328
 21
309.3293988908909
 31
0.0
  0
LINE
  5
1A8B4
  8
0
 10
4348.1281629752884328
 20
309.3293988908909
 30
0.0
 11
4348.0977858573878621
 21
309.3259150835909281
 31
0.0
  0
LINE
  5
1A8B5
  8
0
 10
4348.0930171380869069
 20
309.3266043541909198
 30
0.0
 11
4348.0711201115882432
 21
309.3358584374909128
 31
0.0
  0
LINE
  5
1A8B6
  8
0
 10
4348.0711201115882432
 20
309.3358584374909128
 30
0.0
 11
4348.0587249445261477
 21
309.3344233030533132
 31
0.0
  0
LINE
  5
1A8B7
  8
0
 10
4348.5096279582867282
 20
309.2568476979909065
 30
0.0
 11
4348.5076013087882529
 21
309.2572822626909215
 31
0.0
  0
LINE
  5
1A8B8
  8
0
 10
4348.5076013087882529
 20
309.2572822626909215
 30
0.0
 11
4348.4857047470868565
 21
309.2665342556908854
 31
0.0
  0
LINE
  5
1A8B9
  8
0
 10
4348.4857047470868565
 20
309.2665342556908854
 30
0.0
 11
4348.4553276291881048
 21
309.2630504483909135
 31
0.0
  0
LINE
  5
1A8BA
  8
0
 10
4348.4525850945883576
 20
309.2633072445909193
 30
0.0
 11
4348.4505584450880633
 21
309.2637418091908899
 31
0.0
  0
LINE
  5
1A8BB
  8
0
 10
4348.4505584450880633
 20
309.2637418091908899
 30
0.0
 11
4348.4286618832884415
 21
309.2729938021909106
 31
0.0
  0
LINE
  5
1A8BC
  8
0
 10
4348.4286618832884415
 20
309.2729938021909106
 30
0.0
 11
4348.3982847654879151
 21
309.2695099948909956
 31
0.0
  0
LINE
  5
1A8BD
  8
0
 10
4348.3955422307881236
 20
309.2697667910908876
 30
0.0
 11
4348.3935155813869642
 21
309.2702013557909027
 31
0.0
  0
LINE
  5
1A8BE
  8
0
 10
4348.3935155813869642
 20
309.2702013557909027
 30
0.0
 11
4348.3716190195882518
 21
309.2794533487909234
 31
0.0
  0
LINE
  5
1A8BF
  8
0
 10
4348.3716190195882518
 20
309.2794533487909234
 30
0.0
 11
4348.3412419015876367
 21
309.2759695413909071
 31
0.0
  0
LINE
  5
1A8C0
  8
0
 10
4348.33849936698698
 20
309.2762263376909004
 30
0.0
 11
4348.3364727175867301
 21
309.2766609022909847
 31
0.0
  0
LINE
  5
1A8C1
  8
0
 10
4348.3364727175867301
 20
309.2766609022909847
 30
0.0
 11
4348.3145761557880178
 21
309.2859128952908918
 31
0.0
  0
LINE
  5
1A8C2
  8
0
 10
4348.3145761557880178
 20
309.2859128952908918
 30
0.0
 11
4348.2841990378883565
 21
309.2824290879909199
 31
0.0
  0
LINE
  5
1A8C3
  8
0
 10
4348.2814565032867904
 20
309.2826858841909257
 30
0.0
 11
4348.2794303185883109
 21
309.2831183585909116
 31
0.0
  0
LINE
  5
1A8C4
  8
0
 10
4348.2794303185883109
 20
309.2831183585909116
 30
0.0
 11
4348.2575332921878726
 21
309.2923724418909046
 31
0.0
  0
LINE
  5
1A8C5
  8
0
 10
4348.2575332921878726
 20
309.2923724418909046
 30
0.0
 11
4348.2271561740881225
 21
309.2888886345908759
 31
0.0
  0
LINE
  5
1A8C6
  8
0
 10
4348.2223874548881213
 20
309.2895779051909244
 30
0.0
 11
4348.200490428386729
 21
309.2988319884909174
 31
0.0
  0
LINE
  5
1A8C7
  8
0
 10
4348.200490428386729
 20
309.2988319884909174
 30
0.0
 11
4348.1701133104870678
 21
309.2953481810909011
 31
0.0
  0
LINE
  5
1A8C8
  8
0
 10
4348.1653445911879317
 20
309.2960374516910065
 30
0.0
 11
4348.1434475646883584
 21
309.3052915349908858
 31
0.0
  0
LINE
  5
1A8C9
  8
0
 10
4348.1434475646883584
 20
309.3052915349908858
 30
0.0
 11
4348.1130704465867893
 21
309.3018077275909263
 31
0.0
  0
LINE
  5
1A8CA
  8
0
 10
4348.1083017272876532
 20
309.3024969982909056
 30
0.0
 11
4348.0864047008881244
 21
309.311751081490911
 31
0.0
  0
LINE
  5
1A8CB
  8
0
 10
4348.0864047008881244
 20
309.311751081490911
 30
0.0
 11
4348.0560275828884187
 21
309.308267274190996
 31
0.0
  0
LINE
  5
1A8CC
  8
0
 10
4348.0512588635883731
 20
309.308956544790874
 30
0.0
 11
4348.0293618370869808
 21
309.3182106280909238
 31
0.0
  0
LINE
  5
1A8CD
  8
0
 10
4348.0293618370869808
 20
309.3182106280909238
 30
0.0
 11
4347.9934127105416337
 21
309.31408779359748
 31
0.0
  0
LINE
  5
1A8CE
  8
0
 10
4348.0831962027878035
 20
309.3307548607909894
 30
0.0
 11
4348.0831962027878035
 21
309.3184497497908865
 31
0.0
  0
LINE
  5
1A8CF
  8
0
 10
4348.055751442087967
 20
309.3336706734664858
 30
0.0
 11
4348.055751442087967
 21
309.3153418989908801
 31
0.0
  0
LINE
  5
1A8D0
  8
0
 10
4348.0001325602370343
 20
309.3148568025650889
 30
0.0
 11
4347.9932125153882225
 21
309.3039422805908885
 31
0.0
  0
LINE
  5
1A8D1
  8
0
 10
4347.9722348931873057
 20
309.2987933046455851
 30
0.0
 11
4347.9722348931873057
 21
309.2800462802908896
 31
0.0
  0
LINE
  5
1A8D2
  8
0
 10
4347.9996796537880073
 20
309.2954592419908977
 30
0.0
 11
4347.9996796537880073
 21
309.2831541309909085
 31
0.0
  0
LINE
  5
1A8D3
  8
0
 10
4348.3103965823884209
 20
309.3490363546827098
 30
0.0
 11
4348.3103965823884209
 21
309.3312588780909209
 31
0.0
  0
LINE
  5
1A8D4
  8
0
 10
4348.337841342988213
 20
309.3448834696358176
 30
0.0
 11
4348.337841342988213
 21
309.3343667288909273
 31
0.0
  0
LINE
  5
1A8D5
  8
0
 10
4348.3674394461877455
 20
309.3390979148271072
 30
0.0
 11
4348.3674394461877455
 21
309.3247993314909081
 31
0.0
  0
LINE
  5
1A8D6
  8
0
 10
4348.394884206788447
 20
309.3324908982888246
 30
0.0
 11
4348.394884206788447
 21
309.3279071822909145
 31
0.0
  0
LINE
  5
1A8D7
  8
0
 10
4348.4244823098879351
 20
309.3239823075900858
 30
0.0
 11
4348.4244823098879351
 21
309.3183397849908829
 31
0.0
  0
LINE
  5
1A8D8
  8
0
 10
4348.4397668991878163
 20
309.3129647201909052
 30
0.0
 11
4348.4397668991878163
 21
309.2942324290909255
 31
0.0
  0
LINE
  5
1A8D9
  8
0
 10
4348.4672116597866989
 20
309.3069841401015765
 30
0.0
 11
4348.4672116597866989
 21
309.2973402798908751
 31
0.0
  0
LINE
  5
1A8DA
  8
0
 10
4348.4824962490883991
 20
309.2855380348909193
 30
0.0
 11
4348.4824962490883991
 21
309.2732329238908733
 31
0.0
  0
LINE
  5
1A8DB
  8
0
 10
4348.4550514884876975
 20
309.2888790518903193
 30
0.0
 11
4348.4550514884876975
 21
309.2701250730909237
 31
0.0
  0
LINE
  5
1A8DC
  8
0
 10
4348.5120943521869776
 20
309.2733939195891253
 30
0.0
 11
4348.5120943521869776
 21
309.2636655265908985
 31
0.0
  0
LINE
  5
1A8DD
  8
0
 10
4348.4977808382891453
 20
309.2614317234861119
 30
0.0
 11
4348.4977808383882802
 21
309.2491255679909159
 31
0.0
  0
LINE
  5
1A8DE
  8
0
 10
4348.4703360776884438
 20
309.2647716960292996
 30
0.0
 11
4348.4703360776884438
 21
309.2460177171909095
 31
0.0
  0
LINE
  5
1A8DF
  8
0
 10
4348.5009052562882061
 20
309.2165352964909175
 30
0.0
 11
4348.5009052562882061
 21
309.197803005390881
 31
0.0
  0
LINE
  5
1A8E0
  8
0
 10
4348.5302422502882109
 20
309.2124162746908951
 30
0.0
 11
4348.5302422310869588
 21
309.2014453570909041
 31
0.0
  0
LINE
  5
1A8E1
  8
0
 10
4348.4713071530868547
 20
309.2196979551250138
 30
0.0
 11
4348.4713071530868547
 21
309.2073704026909127
 31
0.0
  0
LINE
  5
1A8E2
  8
0
 10
4348.4438623924879721
 20
309.2229948430908735
 30
0.0
 11
4348.4438623924879721
 21
309.2042625518909063
 31
0.0
  0
LINE
  5
1A8E3
  8
0
 10
4348.4142642893875745
 20
309.2261350602909147
 30
0.0
 11
4348.4142642893875745
 21
309.2138299491908811
 31
0.0
  0
LINE
  5
1A8E4
  8
0
 10
4348.386819528786873
 20
309.2294760772787185
 30
0.0
 11
4348.386819528786873
 21
309.2107220984909191
 31
0.0
  0
LINE
  5
1A8E5
  8
0
 10
4348.3572214255891595
 20
309.2325946067909967
 30
0.0
 11
4348.3572214256882944
 21
309.2202894957908939
 31
0.0
  0
LINE
  5
1A8E6
  8
0
 10
4348.3297766649875484
 20
309.2359356237789143
 30
0.0
 11
4348.3297766649875484
 21
309.2171816449908874
 31
0.0
  0
LINE
  5
1A8E7
  8
0
 10
4348.3001785618871509
 20
309.2390541533910095
 30
0.0
 11
4348.3001785618871509
 21
309.2267490423909067
 31
0.0
  0
LINE
  5
1A8E8
  8
0
 10
4348.2727338012882683
 20
309.2423951703351008
 30
0.0
 11
4348.2727338012882683
 21
309.2236411915909002
 31
0.0
  0
LINE
  5
1A8E9
  8
0
 10
4348.3159171916440755
 20
309.2343461466060717
 30
0.0
 11
4348.3089960126881124
 21
309.2234298360908724
 31
0.0
  0
LINE
  5
1A8EA
  8
0
 10
4348.3729600554333956
 20
309.227886600094223
 30
0.0
 11
4348.3660388764883464
 21
309.2169702894909165
 31
0.0
  0
LINE
  5
1A8EB
  8
0
 10
4348.43000178510556
 20
309.2214252648730053
 30
0.0
 11
4348.4230817402867615
 21
309.2105107429908912
 31
0.0
  0
LINE
  5
1A8EC
  8
0
 10
4348.4870450585249273
 20
309.2149657646800733
 30
0.0
 11
4348.48012050998841
 21
309.2040548356910108
 31
0.0
  0
LINE
  5
1A8ED
  8
0
 10
4348.526935736887026
 20
309.1936448077909176
 30
0.0
 11
4348.5011813969867944
 21
309.1907283805908833
 31
0.0
  0
LINE
  5
1A8EE
  8
0
 10
4348.4984388623879568
 20
309.190985176790889
 30
0.0
 11
4348.4964126776876583
 21
309.1914176511909886
 31
0.0
  0
LINE
  5
1A8EF
  8
0
 10
4348.4964126776876583
 20
309.1914176511909886
 30
0.0
 11
4348.4745156512881294
 21
309.2006717344909248
 31
0.0
  0
LINE
  5
1A8F0
  8
0
 10
4348.4745156512881294
 20
309.2006717344909248
 30
0.0
 11
4348.4441385332884238
 21
309.1971879270909085
 31
0.0
  0
LINE
  5
1A8F1
  8
0
 10
4348.4413959986877671
 20
309.1974447233909018
 30
0.0
 11
4348.4393698139883782
 21
309.1978771976909002
 31
0.0
  0
LINE
  5
1A8F2
  8
0
 10
4348.4393698139883782
 20
309.1978771976909002
 30
0.0
 11
4348.4174727874869859
 21
309.2071312809910069
 31
0.0
  0
LINE
  5
1A8F3
  8
0
 10
4348.4174727874869859
 20
309.2071312809910069
 30
0.0
 11
4348.3870956694881897
 21
309.2036474736909213
 31
0.0
  0
LINE
  5
1A8F4
  8
0
 10
4348.38435313482114
 20
309.203904269840109
 30
0.0
 11
4348.3823269501881441
 21
309.204336744290913
 31
0.0
  0
LINE
  5
1A8F5
  8
0
 10
4348.3823269501881441
 20
309.204336744290913
 30
0.0
 11
4348.3604299236876614
 21
309.213590827590906
 31
0.0
  0
LINE
  5
1A8F6
  8
0
 10
4348.3604299236876614
 20
309.213590827590906
 30
0.0
 11
4348.3300528057870906
 21
309.2101070202908772
 31
0.0
  0
LINE
  5
1A8F7
  8
0
 10
4348.3273102710882085
 20
309.2103638163908954
 30
0.0
 11
4348.325284086487045
 21
309.2107962907908814
 31
0.0
  0
LINE
  5
1A8F8
  8
0
 10
4348.325284086487045
 20
309.2107962907908814
 30
0.0
 11
4348.3033870599883812
 21
309.2200503740908744
 31
0.0
  0
LINE
  5
1A8F9
  8
0
 10
4348.3033870599883812
 20
309.2200503740908744
 30
0.0
 11
4348.2730099419868566
 21
309.2165665667909025
 31
0.0
  0
LINE
  5
1A8FA
  8
0
 10
4348.2702674073880189
 20
309.2168233629909082
 30
0.0
 11
4348.2682412226877204
 21
309.2172558373908942
 31
0.0
  0
LINE
  5
1A8FB
  8
0
 10
4348.2682412226877204
 20
309.2172558373908942
 30
0.0
 11
4348.2463441961881472
 21
309.2265099205908996
 31
0.0
  0
LINE
  5
1A8FC
  8
0
 10
4348.2463441961881472
 20
309.2265099205908996
 30
0.0
 11
4348.2159670781884415
 21
309.2230261132909277
 31
0.0
  0
LINE
  5
1A8FD
  8
0
 10
4348.2111983589884403
 20
309.2237153838909194
 30
0.0
 11
4348.1893013323879131
 21
309.2329694671909124
 31
0.0
  0
LINE
  5
1A8FE
  8
0
 10
4348.1893013323879131
 20
309.2329694671909124
 30
0.0
 11
4348.1589242144882519
 21
309.2294856598908837
 31
0.0
  0
LINE
  5
1A8FF
  8
0
 10
4348.1561816798875952
 20
309.2297424560908894
 30
0.0
 11
4348.1541554951882063
 21
309.2301749303908878
 31
0.0
  0
LINE
  5
1A900
  8
0
 10
4348.1541554951882063
 20
309.2301749303908878
 30
0.0
 11
4348.1322584685867696
 21
309.2394290137909252
 31
0.0
  0
LINE
  5
1A901
  8
0
 10
4348.1322584685867696
 20
309.2394290137909252
 30
0.0
 11
4348.1018813506880178
 21
309.2359452064910101
 31
0.0
  0
LINE
  5
1A902
  8
0
 10
4348.0991388160873612
 20
309.2362020025909146
 30
0.0
 11
4348.0971126313879722
 21
309.2366344769909006
 31
0.0
  0
LINE
  5
1A903
  8
0
 10
4348.0971126313879722
 20
309.2366344769909006
 30
0.0
 11
4348.0752156048893085
 21
309.2458885602908936
 31
0.0
  0
LINE
  5
1A904
  8
0
 10
4348.0752156048893085
 20
309.2458885602908936
 30
0.0
 11
4348.0448384868868743
 21
309.2424047529909217
 31
0.0
  0
LINE
  5
1A905
  8
0
 10
4348.0420959523880811
 20
309.2426615491909843
 30
0.0
 11
4348.0400697676868731
 21
309.2430940234909258
 31
0.0
  0
LINE
  5
1A906
  8
0
 10
4348.0400697676868731
 20
309.2430940234909258
 30
0.0
 11
4348.0181727410872554
 21
309.2523481067909188
 31
0.0
  0
LINE
  5
1A907
  8
0
 10
4348.0181727410872554
 20
309.2523481067909188
 30
0.0
 11
4347.9877956230893687
 21
309.2488642994910037
 31
0.0
  0
LINE
  5
1A908
  8
0
 10
4347.985053088587847
 20
309.2491210956910095
 30
0.0
 11
4347.9830264390875527
 21
309.2495556603909108
 31
0.0
  0
LINE
  5
1A909
  8
0
 10
4347.9830264390875527
 20
309.2495556603909108
 30
0.0
 11
4347.9611298774880197
 21
309.2588076533908747
 31
0.0
  0
LINE
  5
1A90A
  8
0
 10
4347.9611298774880197
 20
309.2588076533908747
 30
0.0
 11
4347.930752759488314
 21
309.2553238460909029
 31
0.0
  0
LINE
  5
1A90B
  8
0
 10
4347.9259840401882684
 20
309.2560131166908945
 30
0.0
 11
4347.9205119544703848
 21
309.2583257200203093
 31
0.0
  0
LINE
  5
1A90C
  8
0
 10
4347.9304766186878624
 20
309.2697601734772093
 30
0.0
 11
4347.9304766186878624
 21
309.2623984708909006
 31
0.0
  0
LINE
  5
1A90D
  8
0
 10
4347.9579213792867449
 20
309.2778114325909087
 30
0.0
 11
4347.9579213792867449
 21
309.265506321690907
 31
0.0
  0
LINE
  5
1A90E
  8
0
 10
4348.0292777568884048
 20
309.29234071247879
 30
0.0
 11
4348.0292777568884048
 21
309.2735867336908768
 31
0.0
  0
LINE
  5
1A90F
  8
0
 10
4348.0567225175882413
 20
309.2889996954908725
 30
0.0
 11
4348.0567225175882413
 21
309.2766945844909969
 31
0.0
  0
LINE
  5
1A910
  8
0
 10
4348.0710360313869387
 20
309.3099885218235841
 30
0.0
 11
4348.0710360313869387
 21
309.2912345430909227
 31
0.0
  0
LINE
  5
1A911
  8
0
 10
4348.0984807920876847
 20
309.3066475048909183
 30
0.0
 11
4348.0984807919867308
 21
309.2943423938908722
 31
0.0
  0
LINE
  5
1A912
  8
0
 10
4348.1127943058882011
 20
309.3276363312293142
 30
0.0
 11
4348.1127943058882011
 21
309.3088823523909241
 31
0.0
  0
LINE
  5
1A913
  8
0
 10
4348.1402390664879931
 20
309.3242953142909073
 30
0.0
 11
4348.1402390664879931
 21
309.3119902031908737
 31
0.0
  0
LINE
  5
1A914
  8
0
 10
4348.1249544771881119
 20
309.3475493926753188
 30
0.0
 11
4348.1249544771881119
 21
309.3360975591909892
 31
0.0
  0
LINE
  5
1A915
  8
0
 10
4348.0975097165883199
 20
309.3429436855863059
 30
0.0
 11
4348.0975097165883199
 21
309.3329897083909259
 31
0.0
  0
LINE
  5
1A916
  8
0
 10
4348.0414379282883601
 20
309.3131070513908867
 30
0.0
 11
4348.0414379282883601
 21
309.3008019403910112
 31
0.0
  0
LINE
  5
1A917
  8
0
 10
4348.1280788951889917
 20
309.3035289752788231
 30
0.0
 11
4348.1280788951889917
 21
309.2847749964909099
 31
0.0
  0
LINE
  5
1A918
  8
0
 10
4348.1555236557878743
 20
309.3001879582909055
 30
0.0
 11
4348.1555236557878743
 21
309.2878828472909163
 31
0.0
  0
LINE
  5
1A919
  8
0
 10
4348.1433634844879634
 20
309.2794216193844932
 30
0.0
 11
4348.1433634844879634
 21
309.2606676405908956
 31
0.0
  0
LINE
  5
1A91A
  8
0
 10
4348.1708082450877555
 20
309.276080602391005
 30
0.0
 11
4348.1708082450877555
 21
309.2637754913909021
 31
0.0
  0
LINE
  5
1A91B
  8
0
 10
4348.2004063481881531
 20
309.2729620728237023
 30
0.0
 11
4348.2004063481881531
 21
309.2542080940909273
 31
0.0
  0
LINE
  5
1A91C
  8
0
 10
4348.2278511087870356
 20
309.2696210558909229
 30
0.0
 11
4348.2278511087870356
 21
309.2573159447908893
 31
0.0
  0
LINE
  5
1A91D
  8
0
 10
4348.1959137696867401
 20
309.2478227397908768
 30
0.0
 11
4348.1740167431880764
 21
309.2570768230909266
 31
0.0
  0
LINE
  5
1A91E
  8
0
 10
4348.1740167431880764
 20
309.2570768230909266
 30
0.0
 11
4348.1436396251883707
 21
309.2535930157908979
 31
0.0
  0
LINE
  5
1A91F
  8
0
 10
4348.1408970905868046
 20
309.2538498119909036
 30
0.0
 11
4348.1388709058883251
 21
309.2542822863908896
 31
0.0
  0
LINE
  5
1A920
  8
0
 10
4348.1388709058883251
 20
309.2542822863908896
 30
0.0
 11
4348.1169738793869328
 21
309.2635363696908826
 31
0.0
  0
LINE
  5
1A921
  8
0
 10
4348.1169738793869328
 20
309.2635363696908826
 30
0.0
 11
4348.0865967612871827
 21
309.2600525622909231
 31
0.0
  0
LINE
  5
1A922
  8
0
 10
4348.0838542267883895
 20
309.2603093585909164
 30
0.0
 11
4348.0818280421881354
 21
309.2607418328909148
 31
0.0
  0
LINE
  5
1A923
  8
0
 10
4348.0818280421881354
 20
309.2607418328909148
 30
0.0
 11
4348.0599310155866988
 21
309.2699959161909078
 31
0.0
  0
LINE
  5
1A924
  8
0
 10
4348.0599310155866988
 20
309.2699959161909078
 30
0.0
 11
4348.029553897687947
 21
309.2665121088908791
 31
0.0
  0
LINE
  5
1A925
  8
0
 10
4348.0247851783869919
 20
309.2672013794909276
 30
0.0
 11
4348.0028881517882837
 21
309.2764554627909206
 31
0.0
  0
LINE
  5
1A926
  8
0
 10
4348.0028881517882837
 20
309.2764554627909206
 30
0.0
 11
4347.9725110340878018
 21
309.2729716554908919
 31
0.0
  0
LINE
  5
1A927
  8
0
 10
4347.9677423146868023
 20
309.2736609259910097
 30
0.0
 11
4347.9458452880880941
 21
309.2829150092910027
 31
0.0
  0
LINE
  5
1A928
  8
0
 10
4347.9458452880880941
 20
309.2829150092910027
 30
0.0
 11
4347.9438861217713566
 21
309.2826679569358248
 31
0.0
  0
LINE
  5
1A929
  8
0
 10
4348.015418283537656
 20
309.2907512353053789
 30
0.0
 11
4348.0084971046890132
 21
309.2798349247909186
 31
0.0
  0
LINE
  5
1A92A
  8
0
 10
4348.4066742266631991
 20
309.3292764094848053
 30
0.0
 11
4348.4037016575866801
 21
309.3245879759908803
 31
0.0
  0
LINE
  5
1A92B
  8
0
 10
4348.353579052063651
 20
309.3419623810926282
 30
0.0
 11
4348.3466587938892189
 21
309.3310475225908931
 31
0.0
  0
LINE
  5
1A92C
  8
0
 10
4348.2965359749350682
 20
309.3484215910629018
 30
0.0
 11
4348.2896159300871659
 21
309.3375070690909183
 31
0.0
  0
LINE
  5
1A92D
  8
0
 10
4348.3064281144352208
 20
309.3495417791099271
 30
0.0
 11
4348.2953881338871724
 21
309.348291609290925
 31
0.0
  0
LINE
  5
1A92E
  8
0
 10
4348.2906194145880363
 20
309.3489808797908722
 30
0.0
 11
4348.2834795518492683
 21
309.3519983162054245
 31
0.0
  0
LINE
  5
1A92F
  8
0
 10
4348.2392590092031242
 20
309.3545119042112788
 30
0.0
 11
4348.2325730663878858
 21
309.3439666155910004
 31
0.0
  0
LINE
  5
1A930
  8
0
 10
4348.1963108547870434
 20
309.3541775688835855
 30
0.0
 11
4348.1963108547870434
 21
309.3441779711909021
 31
0.0
  0
LINE
  5
1A931
  8
0
 10
4348.2237556154877893
 20
309.3547061476668887
 30
0.0
 11
4348.2237556154877893
 21
309.3472858219909085
 31
0.0
  0
LINE
  5
1A932
  8
0
 10
4348.181997340988346
 20
309.3419431235909087
 30
0.0
 11
4348.181997340988346
 21
309.3296380125909195
 31
0.0
  0
LINE
  5
1A933
  8
0
 10
4348.1545525803867349
 20
309.3452841405409117
 30
0.0
 11
4348.1545525803867349
 21
309.3265301617909131
 31
0.0
  0
LINE
  5
1A934
  8
0
 10
4348.2115954440869245
 20
309.3388245940234924
 30
0.0
 11
4348.2115954440869245
 21
309.3200706152908879
 31
0.0
  0
LINE
  5
1A935
  8
0
 10
4348.239040204786761
 20
309.3354835769908959
 30
0.0
 11
4348.239040204786761
 21
309.3231784660908943
 31
0.0
  0
LINE
  5
1A936
  8
0
 10
4348.2533537185881869
 20
309.3540263316986056
 30
0.0
 11
4348.2533537185881869
 21
309.3377184245908893
 31
0.0
  0
LINE
  5
1A937
  8
0
 10
4348.2807984792871139
 20
309.3522336974568816
 30
0.0
 11
4348.2807984792871139
 21
309.3408262753908957
 31
0.0
  0
LINE
  5
1A938
  8
0
 10
4348.3256811716883021
 20
309.3259055009351073
 30
0.0
 11
4348.3256811716883021
 21
309.3071515221909067
 31
0.0
  0
LINE
  5
1A939
  8
0
 10
4348.3531259322880942
 20
309.3225644838909147
 30
0.0
 11
4348.3531259322880942
 21
309.3102593729909131
 31
0.0
  0
LINE
  5
1A93A
  8
0
 10
4348.3688645620313764
 20
309.3178564772902064
 30
0.0
 11
4348.3619433830881462
 21
309.3069401666908789
 31
0.0
  0
LINE
  5
1A93B
  8
0
 10
4348.3827240353875823
 20
309.319445954429284
 30
0.0
 11
4348.3827240353875823
 21
309.3006919755910076
 31
0.0
  0
LINE
  5
1A93C
  8
0
 10
4348.4101687959891933
 20
309.3161049373910032
 30
0.0
 11
4348.4101687959891933
 21
309.3037998263909003
 31
0.0
  0
LINE
  5
1A93D
  8
0
 10
4348.4259062917408301
 20
309.3113951419675232
 30
0.0
 11
4348.4189862468892898
 21
309.3004806200909229
 31
0.0
  0
LINE
  5
1A93E
  8
0
 10
4348.4796033430347961
 20
309.2996584701289748
 30
0.0
 11
4348.4760291106867953
 21
309.2940210735910114
 31
0.0
  0
LINE
  5
1A93F
  8
0
 10
4348.4982337448573162
 20
309.2808282394918251
 30
0.0
 11
4348.4913136999866765
 21
309.2699137175908959
 31
0.0
  0
LINE
  5
1A940
  8
0
 10
4348.5135183340125877
 20
309.2567208835836823
 30
0.0
 11
4348.5065982891883323
 21
309.2458063616909953
 31
0.0
  0
LINE
  5
1A941
  8
0
 10
4348.513065427588117
 20
309.2373233229909033
 30
0.0
 11
4348.513065427588117
 21
309.2250182120909017
 31
0.0
  0
LINE
  5
1A942
  8
0
 10
4348.4865917423867359
 20
309.1955681577910013
 30
0.0
 11
4348.4865917423867359
 21
309.1832630467908984
 31
0.0
  0
LINE
  5
1A943
  8
0
 10
4348.4591469817869438
 20
309.1989091747731209
 30
0.0
 11
4348.4591469817869438
 21
309.1801551959910057
 31
0.0
  0
LINE
  5
1A944
  8
0
 10
4348.4452875084271
 20
309.1973196975930023
 30
0.0
 11
4348.4383663295875522
 21
309.1864033869910031
 31
0.0
  0
LINE
  5
1A945
  8
0
 10
4348.4295488786883652
 20
309.2020277042909129
 30
0.0
 11
4348.4295488786883652
 21
309.1897225932909237
 31
0.0
  0
LINE
  5
1A946
  8
0
 10
4348.4021041179876192
 20
309.205368721323623
 30
0.0
 11
4348.4021041179876192
 21
309.1866147424909173
 31
0.0
  0
LINE
  5
1A947
  8
0
 10
4348.5027229375873503
 20
309.1711030107910005
 30
0.0
 11
4348.4898002405880106
 21
309.176564378490923
 31
0.0
  0
LINE
  5
1A948
  8
0
 10
4348.4898002405880106
 20
309.176564378490923
 30
0.0
 11
4348.4594231223873066
 21
309.1730805711910079
 31
0.0
  0
LINE
  5
1A949
  8
0
 10
4348.4566805878866944
 20
309.1733373673909
 30
0.0
 11
4348.4546539383891286
 21
309.173771932090915
 31
0.0
  0
LINE
  5
1A94A
  8
0
 10
4348.4546539383891286
 20
309.173771932090915
 30
0.0
 11
4348.4327573766868227
 21
309.1830239250909926
 31
0.0
  0
LINE
  5
1A94B
  8
0
 10
4348.4327573766868227
 20
309.1830239250909926
 30
0.0
 11
4348.4023802587889804
 21
309.1795401177909071
 31
0.0
  0
LINE
  5
1A94C
  8
0
 10
4348.3405686757869262
 20
309.186688934890924
 30
0.0
 11
4348.318671649188218
 21
309.195943018190917
 31
0.0
  0
LINE
  5
1A94D
  8
0
 10
4348.318671649188218
 20
309.195943018190917
 30
0.0
 11
4348.2882945311876028
 21
309.1924592107909007
 31
0.0
  0
LINE
  5
1A94E
  8
0
 10
4348.2835258118875572
 20
309.1931484814908799
 30
0.0
 11
4348.261628785387984
 21
309.2024025646908854
 31
0.0
  0
LINE
  5
1A94F
  8
0
 10
4348.2855519966879001
 20
309.1927160069909064
 30
0.0
 11
4348.2835258118875572
 21
309.1931484814908799
 31
0.0
  0
LINE
  5
1A950
  8
0
 10
4348.261628785387984
 20
309.2024025646908854
 30
0.0
 11
4348.2312516675883671
 21
309.1989187573909135
 31
0.0
  0
LINE
  5
1A951
  8
0
 10
4348.2285091328867566
 20
309.1991755535909192
 30
0.0
 11
4348.2264829482883215
 21
309.1996080279909052
 31
0.0
  0
LINE
  5
1A952
  8
0
 10
4348.2264829482883215
 20
309.1996080279909052
 30
0.0
 11
4348.2045859216877943
 21
309.2088621112908982
 31
0.0
  0
LINE
  5
1A953
  8
0
 10
4348.2045859216877943
 20
309.2088621112908982
 30
0.0
 11
4348.1742088036880887
 21
309.2053783039909263
 31
0.0
  0
LINE
  5
1A954
  8
0
 10
4348.1714662690883415
 20
309.2056351001908752
 30
0.0
 11
4348.1694400844880875
 21
309.2060675744908735
 31
0.0
  0
LINE
  5
1A955
  8
0
 10
4348.1694400844880875
 20
309.2060675744908735
 30
0.0
 11
4348.1475430578875603
 21
309.2153216577909234
 31
0.0
  0
LINE
  5
1A956
  8
0
 10
4348.1475430578875603
 20
309.2153216577909234
 30
0.0
 11
4348.117165939987899
 21
309.2118378504910083
 31
0.0
  0
LINE
  5
1A957
  8
0
 10
4348.1144234053872424
 20
309.2120946466909004
 30
0.0
 11
4348.1123972207878978
 21
309.2125271210908863
 31
0.0
  0
LINE
  5
1A958
  8
0
 10
4348.1123972207878978
 20
309.2125271210908863
 30
0.0
 11
4348.0905001940882357
 21
309.2217812043908793
 31
0.0
  0
LINE
  5
1A959
  8
0
 10
4348.0905001940882357
 20
309.2217812043908793
 30
0.0
 11
4348.0601230761867555
 21
309.2182973970909075
 31
0.0
  0
LINE
  5
1A95A
  8
0
 10
4347.9983114931883392
 20
309.2254462142909119
 30
0.0
 11
4347.9764144667879009
 21
309.2347002974909174
 31
0.0
  0
LINE
  5
1A95B
  8
0
 10
4347.9764144667879009
 20
309.2347002974909174
 30
0.0
 11
4347.9460373487881952
 21
309.2312164900909011
 31
0.0
  0
LINE
  5
1A95C
  8
0
 10
4347.9432948140884037
 20
309.2314732863910081
 30
0.0
 11
4347.9412686294881496
 21
309.2319057607908803
 31
0.0
  0
LINE
  5
1A95D
  8
0
 10
4347.9412686294881496
 20
309.2319057607908803
 30
0.0
 11
4347.9193716029867574
 21
309.2411598439908857
 31
0.0
  0
LINE
  5
1A95E
  8
0
 10
4347.9193716029867574
 20
309.2411598439908857
 30
0.0
 11
4347.9101731176260728
 21
309.240072956895176
 31
0.0
  0
LINE
  5
1A95F
  8
0
 10
4347.9457612079868341
 20
309.2570450937237183
 30
0.0
 11
4347.9457612079868341
 21
309.2382911149908864
 31
0.0
  0
LINE
  5
1A960
  8
0
 10
4347.9732059685884451
 20
309.2537040767909957
 30
0.0
 11
4347.9732059685884451
 21
309.2413989656909052
 31
0.0
  0
LINE
  5
1A961
  8
0
 10
4347.9319017346297187
 20
309.2554556165896997
 30
0.0
 11
4347.9249805556883075
 21
309.2445393059909975
 31
0.0
  0
LINE
  5
1A962
  8
0
 10
4347.9161631047873016
 20
309.2527113369598055
 30
0.0
 11
4347.9161631048882555
 21
309.247858512290918
 31
0.0
  0
LINE
  5
1A963
  8
0
 10
4347.973660009231935
 20
309.2731034259911098
 30
0.0
 11
4347.9667388302877953
 21
309.2621871153908728
 31
0.0
  0
LINE
  5
1A964
  8
0
 10
4347.9875194824880964
 20
309.2746929031292211
 30
0.0
 11
4347.9875194824880964
 21
309.2559389242908878
 31
0.0
  0
LINE
  5
1A965
  8
0
 10
4348.0149642430878885
 20
309.2713518860909971
 30
0.0
 11
4348.0149642430878885
 21
309.2590467750908942
 31
0.0
  0
LINE
  5
1A966
  8
0
 10
4348.0307028728311707
 20
309.2666438793901875
 30
0.0
 11
4348.0237816938879405
 21
309.2557275687909168
 31
0.0
  0
LINE
  5
1A967
  8
0
 10
4348.044562346188286
 20
309.268233356529322
 30
0.0
 11
4348.044562346188286
 21
309.2494793777909194
 31
0.0
  0
LINE
  5
1A968
  8
0
 10
4348.0720071068881225
 20
309.2648923394909275
 30
0.0
 11
4348.0720071068881225
 21
309.2525872285909259
 31
0.0
  0
LINE
  5
1A969
  8
0
 10
4348.0877457365377268
 20
309.2601843328054088
 30
0.0
 11
4348.0808245576881745
 21
309.2492680222910053
 31
0.0
  0
LINE
  5
1A96A
  8
0
 10
4348.1016052099867011
 20
309.2617738099903022
 30
0.0
 11
4348.1016052099867011
 21
309.2430198311909066
 31
0.0
  0
LINE
  5
1A96B
  8
0
 10
4348.1290499705883121
 20
309.2584327929909023
 30
0.0
 11
4348.1290499705883121
 21
309.2461276819909131
 31
0.0
  0
LINE
  5
1A96C
  8
0
 10
4348.1447886004380052
 20
309.2537247863020866
 30
0.0
 11
4348.1378674214884086
 21
309.2428084756908788
 31
0.0
  0
LINE
  5
1A96D
  8
0
 10
4348.1586480736868907
 20
309.2553142634235996
 30
0.0
 11
4348.1586480736868907
 21
309.2365602846908814
 31
0.0
  0
LINE
  5
1A96E
  8
0
 10
4348.1860928343876367
 20
309.2519732463908895
 30
0.0
 11
4348.1860928343876367
 21
309.2396681354908878
 31
0.0
  0
LINE
  5
1A96F
  8
0
 10
4348.1901110261878785
 20
309.2335097980908927
 30
0.0
 11
4348.1893013323879131
 21
309.2329694671909124
 31
0.0
  0
LINE
  5
1A970
  8
0
 10
4348.5069287141868699
 20
309.1913792080910071
 30
0.0
 11
4348.5069287096875996
 21
309.1779298007908778
 31
0.0
  0
LINE
  5
1A971
  8
0
 10
4348.5023292380346902
 20
309.1908583623675213
 30
0.0
 11
4348.4954091932868323
 21
309.179943840490921
 31
0.0
  0
LINE
  5
1A972
  8
0
 10
4348.4717611937412585
 20
309.2390748630032817
 30
0.0
 11
4348.4648400146870699
 21
309.2281585522908927
 31
0.0
  0
LINE
  5
1A973
  8
0
 10
4348.4411920150378137
 20
309.2872895747054258
 30
0.0
 11
4348.434270836189171
 21
309.2763732641909087
 31
0.0
  0
LINE
  5
1A974
  8
0
 10
4348.3841491513376241
 20
309.2937491213020849
 30
0.0
 11
4348.3772279723871179
 21
309.2828328106908771
 31
0.0
  0
LINE
  5
1A975
  8
0
 10
4348.1972819302882272
 20
309.3178357676908945
 30
0.0
 11
4348.1972819302882272
 21
309.3055306566909053
 31
0.0
  0
LINE
  5
1A976
  8
0
 10
4348.1698371696884351
 20
309.3211767846789257
 30
0.0
 11
4348.1698371696884351
 21
309.3024228058910126
 31
0.0
  0
LINE
  5
1A977
  8
0
 10
4348.2130205600251429
 20
309.3131277609894028
 30
0.0
 11
4348.2060993811883236
 21
309.3022114503909279
 31
0.0
  0
LINE
  5
1A978
  8
0
 10
4348.1559776963449622
 20
309.3195873075060831
 30
0.0
 11
4348.1490565173880896
 21
309.3086709969908839
 31
0.0
  0
LINE
  5
1A979
  8
0
 10
4348.0989348326393156
 20
309.3260468541025148
 30
0.0
 11
4348.0920136536878999
 21
309.3151305434909091
 31
0.0
  0
LINE
  5
1A97A
  8
0
 10
4348.1142194217309225
 20
309.3019394980930201
 30
0.0
 11
4348.1072982428868272
 21
309.2910231875908948
 31
0.0
  0
LINE
  5
1A97B
  8
0
 10
4348.1712622856339294
 20
309.2954799515941886
 30
0.0
 11
4348.1643411066879708
 21
309.284563640990882
 31
0.0
  0
LINE
  5
1A97C
  8
0
 10
4348.1295040111408525
 20
309.2778321422060799
 30
0.0
 11
4348.1225828321867084
 21
309.2669158315910067
 31
0.0
  0
LINE
  5
1A97D
  8
0
 10
4348.0724611474443009
 20
309.2842916888033074
 30
0.0
 11
4348.0655399683882933
 21
309.2733753781909058
 31
0.0
  0
LINE
  5
1A97E
  8
0
 10
4347.9843950644881261
 20
309.3098594671761248
 30
0.0
 11
4347.9843950644881261
 21
309.3072614869909103
 31
0.0
  0
LINE
  5
1A97F
  8
0
 10
4347.9889445983362748
 20
309.2489960700017946
 30
0.0
 11
4347.9820234194867226
 21
309.2380797594909154
 31
0.0
  0
LINE
  5
1A980
  8
0
 10
4348.0459874621310519
 20
309.2425365235013146
 30
0.0
 11
4348.0390662832878661
 21
309.2316202128909026
 31
0.0
  0
LINE
  5
1A981
  8
0
 10
4348.103030326006774
 20
309.2360769770103843
 30
0.0
 11
4348.0961091469880557
 21
309.2251606662908898
 31
0.0
  0
LINE
  5
1A982
  8
0
 10
4348.1600736010595938
 20
309.2296174775750046
 30
0.0
 11
4348.1531479166878853
 21
309.2187047590908833
 31
0.0
  0
LINE
  5
1A983
  8
0
 10
4348.1443345598881933
 20
309.2343254370910017
 30
0.0
 11
4348.1443345598881933
 21
309.2220203260910125
 31
0.0
  0
LINE
  5
1A984
  8
0
 10
4348.1168897992884013
 20
309.2376664541408218
 30
0.0
 11
4348.1168897992884013
 21
309.2189124752910061
 31
0.0
  0
LINE
  5
1A985
  8
0
 10
4348.0872916960879593
 20
309.2407849835909133
 30
0.0
 11
4348.0872916960879593
 21
309.2284798725909241
 31
0.0
  0
LINE
  5
1A986
  8
0
 10
4348.0598469354881672
 20
309.2441260006351058
 30
0.0
 11
4348.0598469354881672
 21
309.2253720218909052
 31
0.0
  0
LINE
  5
1A987
  8
0
 10
4348.0608830206883795
 20
309.2178155755909188
 30
0.0
 11
4348.0543508724867934
 21
309.2075128569910021
 31
0.0
  0
LINE
  5
1A988
  8
0
 10
4348.0487419197879717
 20
309.2041333949908903
 30
0.0
 11
4348.0706389461893195
 21
309.1948793117908849
 31
0.0
  0
LINE
  5
1A989
  8
0
 10
4348.0706389461893195
 20
309.1948793117908849
 30
0.0
 11
4348.072665130887799
 21
309.1944468373910127
 31
0.0
  0
LINE
  5
1A98A
  8
0
 10
4348.4684357626883866
 20
309.1502977781909181
 30
0.0
 11
4348.4480419660867483
 21
309.1589165690908771
 31
0.0
  0
LINE
  5
1A98B
  8
0
 10
4348.4480419660867483
 20
309.1589165690908771
 30
0.0
 11
4348.4176648480879521
 21
309.1554327617909053
 31
0.0
  0
LINE
  5
1A98C
  8
0
 10
4348.414922313488205
 20
309.155689557990911
 30
0.0
 11
4348.412896128786997
 21
309.1561220323910106
 31
0.0
  0
LINE
  5
1A98D
  8
0
 10
4348.412896128786997
 20
309.1561220323910106
 30
0.0
 11
4348.3909991022883332
 21
309.1653761156908899
 31
0.0
  0
LINE
  5
1A98E
  8
0
 10
4348.3909991022883332
 20
309.1653761156908899
 30
0.0
 11
4348.3606219841867642
 21
309.1618923083909181
 31
0.0
  0
LINE
  5
1A98F
  8
0
 10
4348.3578794496879709
 20
309.1621491045909238
 30
0.0
 11
4348.3558528001876766
 21
309.162583669290882
 31
0.0
  0
LINE
  5
1A990
  8
0
 10
4348.3558528001876766
 20
309.162583669290882
 30
0.0
 11
4348.3339562384880992
 21
309.1718356622909027
 31
0.0
  0
LINE
  5
1A991
  8
0
 10
4348.3339562384880992
 20
309.1718356622909027
 30
0.0
 11
4348.3035791205884379
 21
309.168351854990874
 31
0.0
  0
LINE
  5
1A992
  8
0
 10
4348.3008365858868274
 20
309.1686086510910059
 30
0.0
 11
4348.2988099364883965
 21
309.1690432157909072
 31
0.0
  0
LINE
  5
1A993
  8
0
 10
4348.2988099364883965
 20
309.1690432157909072
 30
0.0
 11
4348.2769133746878651
 21
309.178295208790928
 31
0.0
  0
LINE
  5
1A994
  8
0
 10
4348.2769133746878651
 20
309.178295208790928
 30
0.0
 11
4348.2465362566881595
 21
309.1748114014908992
 31
0.0
  0
LINE
  5
1A995
  8
0
 10
4348.2437937221893662
 20
309.175068197690905
 30
0.0
 11
4348.2417675374881583
 21
309.1755006719909034
 31
0.0
  0
LINE
  5
1A996
  8
0
 10
4348.2417675374881583
 20
309.1755006719909034
 30
0.0
 11
4348.2198705109876755
 21
309.18475475529101
 31
0.0
  0
LINE
  5
1A997
  8
0
 10
4348.2198705109876755
 20
309.18475475529101
 30
0.0
 11
4348.1894933929879699
 21
309.1812709479909245
 31
0.0
  0
LINE
  5
1A998
  8
0
 10
4348.1867508583882227
 20
309.1815277441908734
 30
0.0
 11
4348.1847246737879686
 21
309.1819602185909162
 31
0.0
  0
LINE
  5
1A999
  8
0
 10
4348.1847246737879686
 20
309.1819602185909162
 30
0.0
 11
4348.1628276471892605
 21
309.1912143018909092
 31
0.0
  0
LINE
  5
1A99A
  8
0
 10
4348.1628276471892605
 20
309.1912143018909092
 30
0.0
 11
4348.1324505292877802
 21
309.1877304945909941
 31
0.0
  0
LINE
  5
1A99B
  8
0
 10
4348.1297079945879887
 20
309.1879872907908862
 30
0.0
 11
4348.1276818099868251
 21
309.1884197651908721
 31
0.0
  0
LINE
  5
1A99C
  8
0
 10
4348.1276818099868251
 20
309.1884197651908721
 30
0.0
 11
4348.1057847834881613
 21
309.197673848490922
 31
0.0
  0
LINE
  5
1A99D
  8
0
 10
4348.1057847834881613
 20
309.197673848490922
 30
0.0
 11
4348.0754076655875906
 21
309.1941900411910069
 31
0.0
  0
LINE
  5
1A99E
  8
0
 10
4348.0487419197879717
 20
309.2041333949908903
 30
0.0
 11
4348.018364801788266
 21
309.2006495876909185
 31
0.0
  0
LINE
  5
1A99F
  8
0
 10
4348.0135960824882204
 20
309.2013388582909101
 30
0.0
 11
4347.9916990559868282
 21
309.2105929415909031
 31
0.0
  0
LINE
  5
1A9A0
  8
0
 10
4347.9916990559868282
 20
309.2105929415909031
 30
0.0
 11
4347.9613219378879876
 21
309.2071091341908868
 31
0.0
  0
LINE
  5
1A9A1
  8
0
 10
4347.9585794033882848
 20
309.2073659303910063
 30
0.0
 11
4347.9565532186879864
 21
309.2077984048909229
 31
0.0
  0
LINE
  5
1A9A2
  8
0
 10
4347.9565532186879864
 20
309.2077984048909229
 30
0.0
 11
4347.9346561921884131
 21
309.2170524880909284
 31
0.0
  0
LINE
  5
1A9A3
  8
0
 10
4347.9346561921884131
 20
309.2170524880909284
 30
0.0
 11
4347.9090136002287181
 21
309.2141049263317996
 31
0.0
  0
LINE
  5
1A9A4
  8
0
 10
4347.9314476940880922
 20
309.236056267390893
 30
0.0
 11
4347.9314476940880922
 21
309.2237511563909038
 31
0.0
  0
LINE
  5
1A9A5
  8
0
 10
4347.9610457972867152
 20
309.2329377377731134
 30
0.0
 11
4347.9610457972867152
 21
309.2141837589909983
 31
0.0
  0
LINE
  5
1A9A6
  8
0
 10
4347.9884905578883263
 20
309.2295967208909246
 30
0.0
 11
4347.9884905578883263
 21
309.2172916097910047
 31
0.0
  0
LINE
  5
1A9A7
  8
0
 10
4347.9471863239377853
 20
309.2313482605943022
 30
0.0
 11
4347.9402651449881887
 21
309.2204319500909264
 31
0.0
  0
LINE
  5
1A9A8
  8
0
 10
4348.3980086246883729
 20
309.2953385984350803
 30
0.0
 11
4348.3980086246883729
 21
309.2765846196908797
 31
0.0
  0
LINE
  5
1A9A9
  8
0
 10
4348.425453385288165
 20
309.2919986258860945
 30
0.0
 11
4348.425453385288165
 21
309.2796924704908861
 31
0.0
  0
LINE
  5
1A9AA
  8
0
 10
4348.3684105214870215
 20
309.2984571279909005
 30
0.0
 11
4348.3684105215879754
 21
309.2861520169909113
 31
0.0
  0
LINE
  5
1A9AB
  8
0
 10
4348.3409657609881833
 20
309.3017981450408911
 30
0.0
 11
4348.3409657609881833
 21
309.2830441661909049
 31
0.0
  0
LINE
  5
1A9AC
  8
0
 10
4348.3562503501880201
 20
309.2776907890844882
 30
0.0
 11
4348.3562503501880201
 21
309.2589368102910043
 31
0.0
  0
LINE
  5
1A9AD
  8
0
 10
4348.3419368363884132
 20
309.2567019627908849
 30
0.0
 11
4348.3419368363884132
 21
309.2443968516909081
 31
0.0
  0
LINE
  5
1A9AE
  8
0
 10
4348.3715349394869918
 20
309.2535834331350202
 30
0.0
 11
4348.3715349394869918
 21
309.2348294543909901
 31
0.0
  0
LINE
  5
1A9AF
  8
0
 10
4348.3450612542874296
 20
309.2118282679293202
 30
0.0
 11
4348.3450612542874296
 21
309.1930742890908732
 31
0.0
  0
LINE
  5
1A9B0
  8
0
 10
4348.3725060148890407
 20
309.2084872508909257
 30
0.0
 11
4348.3725060148890407
 21
309.1961821398908796
 31
0.0
  0
LINE
  5
1A9B1
  8
0
 10
4348.3882446446241374
 20
309.2037792441889792
 30
0.0
 11
4348.3813234657882276
 21
309.1928629335909022
 31
0.0
  0
LINE
  5
1A9B2
  8
0
 10
4348.4031402033870108
 20
309.179058296390906
 30
0.0
 11
4348.3966080550881088
 21
309.1687555776910017
 31
0.0
  0
LINE
  5
1A9B3
  8
0
 10
4348.4605725089468251
 20
309.1732123888721731
 30
0.0
 11
4348.4536468247879384
 21
309.1622996703910076
 31
0.0
  0
LINE
  5
1A9B4
  8
0
 10
4348.4736789556891381
 20
309.1747155049524167
 30
0.0
 11
4348.4736789548878733
 21
309.1566861355909168
 31
0.0
  0
LINE
  5
1A9B5
  8
0
 10
4348.3113676577877413
 20
309.3049166744909257
 30
0.0
 11
4348.3113676577877413
 21
309.2926115635909241
 31
0.0
  0
LINE
  5
1A9B6
  8
0
 10
4348.2839228971879493
 20
309.3082576916407902
 30
0.0
 11
4348.2839228971879493
 21
309.2895037127909177
 31
0.0
  0
LINE
  5
1A9B7
  8
0
 10
4348.2700634239108695
 20
309.3066682145109212
 30
0.0
 11
4348.2631422448876037
 21
309.2957519038909027
 31
0.0
  0
LINE
  5
1A9B8
  8
0
 10
4348.2543247940893707
 20
309.3113762210908817
 30
0.0
 11
4348.2543247940893707
 21
309.2990711100910062
 31
0.0
  0
LINE
  5
1A9B9
  8
0
 10
4348.2268800333868057
 20
309.3147172381292762
 30
0.0
 11
4348.2268800333868057
 21
309.2959632593908736
 31
0.0
  0
LINE
  5
1A9BA
  8
0
 10
4348.269609383288298
 20
309.2872688652909119
 30
0.0
 11
4348.269609383288298
 21
309.2749637541908783
 31
0.0
  0
LINE
  5
1A9BB
  8
0
 10
4348.2421646226866869
 20
309.2906098822293757
 30
0.0
 11
4348.2421646226866869
 21
309.2718559033908718
 31
0.0
  0
LINE
  5
1A9BC
  8
0
 10
4348.2125665195871989
 20
309.2937284117908803
 30
0.0
 11
4348.2125665195871989
 21
309.2814233007910047
 31
0.0
  0
LINE
  5
1A9BD
  8
0
 10
4348.1851217588882719
 20
309.2970694287672018
 30
0.0
 11
4348.1851217589883163
 21
309.2783154499909983
 31
0.0
  0
LINE
  5
1A9BE
  8
0
 10
4348.1865468748956118
 20
309.2713725956973008
 30
0.0
 11
4348.1796256959878519
 21
309.2604562850909247
 31
0.0
  0
LINE
  5
1A9BF
  8
0
 10
4348.1137653812884309
 20
309.2825401488909165
 30
0.0
 11
4348.1137653812884309
 21
309.2702350378909273
 31
0.0
  0
LINE
  5
1A9C0
  8
0
 10
4348.0863206206868199
 20
309.285881165929311
 30
0.0
 11
4348.0863206206868199
 21
309.2671271871909084
 31
0.0
  0
LINE
  5
1A9C1
  8
0
 10
4348.0028040716879332
 20
309.2505855471350742
 30
0.0
 11
4348.0028040717879776
 21
309.2318315683908736
 31
0.0
  0
LINE
  5
1A9C2
  8
0
 10
4348.0302488323877697
 20
309.2472445301909261
 30
0.0
 11
4348.0302488323877697
 21
309.23493941919088
 31
0.0
  0
LINE
  5
1A9C3
  8
0
 10
4348.0751315247880484
 20
309.2200186447407759
 30
0.0
 11
4348.0751315247880484
 21
309.2012646658909034
 31
0.0
  0
LINE
  5
1A9C4
  8
0
 10
4348.1025762853878405
 20
309.2166776276910127
 30
0.0
 11
4348.1025762853878405
 21
309.2043725166909098
 31
0.0
  0
LINE
  5
1A9C5
  8
0
 10
4348.1321743885882825
 20
309.21355909814082
 30
0.0
 11
4348.1321743885882825
 21
309.1948051193908782
 31
0.0
  0
LINE
  5
1A9C6
  8
0
 10
4348.1596191491880745
 20
309.2102180810908862
 30
0.0
 11
4348.1596191491880745
 21
309.1979129701908846
 31
0.0
  0
LINE
  5
1A9C7
  8
0
 10
4348.1892172522875626
 20
309.2070995516351104
 30
0.0
 11
4348.1892172522875626
 21
309.1883455727909222
 31
0.0
  0
LINE
  5
1A9C8
  8
0
 10
4348.2166620128882641
 20
309.2037585345909179
 30
0.0
 11
4348.2166620128882641
 21
309.1914534235908718
 31
0.0
  0
LINE
  5
1A9C9
  8
0
 10
4348.1183153264400971
 20
309.2119696681613163
 30
0.0
 11
4348.1113896422875769
 21
309.201056949691008
 31
0.0
  0
LINE
  5
1A9CA
  8
0
 10
4348.1753581903267332
 20
309.2055101216822095
 30
0.0
 11
4348.1684325059877665
 21
309.1945974031909259
 31
0.0
  0
LINE
  5
1A9CB
  8
0
 10
4348.2320116120881721
 20
309.1984369359909124
 30
0.0
 11
4348.2254753697880005
 21
309.1881378565909131
 31
0.0
  0
LINE
  5
1A9CC
  8
0
 10
4348.2894439177598542
 20
309.1925910284783754
 30
0.0
 11
4348.2825182334881902
 21
309.1816783100910015
 31
0.0
  0
LINE
  5
1A9CD
  8
0
 10
4348.2737048766875887
 20
309.1972989880908926
 30
0.0
 11
4348.2737048766875887
 21
309.1849938769909159
 31
0.0
  0
LINE
  5
1A9CE
  8
0
 10
4348.2462601160868871
 20
309.2006400050349839
 30
0.0
 11
4348.2462601160868871
 21
309.1818860262910107
 31
0.0
  0
LINE
  5
1A9CF
  8
0
 10
4348.3033029797879863
 20
309.1941804584844817
 30
0.0
 11
4348.3033029797879863
 21
309.1754264796909979
 31
0.0
  0
LINE
  5
1A9D0
  8
0
 10
4348.3307477403868688
 20
309.1908394414908798
 30
0.0
 11
4348.3307477403868688
 21
309.1785343304910043
 31
0.0
  0
LINE
  5
1A9D1
  8
0
 10
4348.4448334679882464
 20
309.1779213928438139
 30
0.0
 11
4348.4448334679882464
 21
309.1656152373909094
 31
0.0
  0
LINE
  5
1A9D2
  8
0
 10
4348.4173887072884099
 20
309.1812613654292932
 30
0.0
 11
4348.4173887072884099
 21
309.162507386590903
 31
0.0
  0
LINE
  5
1A9D3
  8
0
 10
4348.4325619680876116
 20
309.1571412416870999
 30
0.0
 11
4348.4325619676892529
 21
309.1387673064908768
 31
0.0
  0
LINE
  5
1A9D4
  8
0
 10
4348.4263239042884379
 20
309.1327993998909847
 30
0.0
 11
4348.4062836914872605
 21
309.1412687597908757
 31
0.0
  0
LINE
  5
1A9D5
  8
0
 10
4348.4062836914872605
 20
309.1412687597908757
 30
0.0
 11
4348.3759065735866898
 21
309.1377849524909038
 31
0.0
  0
LINE
  5
1A9D6
  8
0
 10
4348.4188142345474262
 20
309.1555645794614975
 30
0.0
 11
4348.411888550286676
 21
309.1446518609909049
 31
0.0
  0
LINE
  5
1A9D7
  8
0
 10
4348.4030751934878936
 20
309.1602725389909097
 30
0.0
 11
4348.4030751934878936
 21
309.1479674279909204
 31
0.0
  0
LINE
  5
1A9D8
  8
0
 10
4348.3756304327880571
 20
309.1636135560294179
 30
0.0
 11
4348.3756304327880571
 21
309.144859577190914
 31
0.0
  0
LINE
  5
1A9D9
  8
0
 10
4348.3617713708263182
 20
309.1620241260816897
 30
0.0
 11
4348.354845686488261
 21
309.1511114075909177
 31
0.0
  0
LINE
  5
1A9DA
  8
0
 10
4348.34603232968675
 20
309.1667320855909225
 30
0.0
 11
4348.34603232968675
 21
309.1544269745908764
 31
0.0
  0
LINE
  5
1A9DB
  8
0
 10
4348.3185875690878675
 20
309.170073102629317
 30
0.0
 11
4348.3185875690878675
 21
309.1513191237909268
 31
0.0
  0
LINE
  5
1A9DC
  8
0
 10
4348.3047285071152146
 20
309.1684836726698222
 30
0.0
 11
4348.2978028227880714
 21
309.1575709540908861
 31
0.0
  0
LINE
  5
1A9DD
  8
0
 10
4348.2889894659883794
 20
309.1731916320910045
 30
0.0
 11
4348.2889894659883794
 21
309.1608865210909016
 31
0.0
  0
LINE
  5
1A9DE
  8
0
 10
4348.2615447052867239
 20
309.1765326491350834
 30
0.0
 11
4348.2615447052867239
 21
309.1577786702908952
 31
0.0
  0
LINE
  5
1A9DF
  8
0
 10
4348.2476852320123726
 20
309.1749431720103871
 30
0.0
 11
4348.2407640529881974
 21
309.1640268613908802
 31
0.0
  0
LINE
  5
1A9E0
  8
0
 10
4348.2319466021881453
 20
309.1796511786909036
 30
0.0
 11
4348.2319466021881453
 21
309.1673460676909144
 31
0.0
  0
LINE
  5
1A9E1
  8
0
 10
4348.2045018415883533
 20
309.1829921956351086
 30
0.0
 11
4348.2045018415883533
 21
309.164238216890908
 31
0.0
  0
LINE
  5
1A9E2
  8
0
 10
4348.1906423682430614
 20
309.1814027185025111
 30
0.0
 11
4348.1837211892880077
 21
309.170486407990893
 31
0.0
  0
LINE
  5
1A9E3
  8
0
 10
4348.1749037383879113
 20
309.186110725190872
 30
0.0
 11
4348.1749037383879113
 21
309.1738056141909965
 31
0.0
  0
LINE
  5
1A9E4
  8
0
 10
4348.1474589777881192
 20
309.1894517422293234
 30
0.0
 11
4348.1474589777881192
 21
309.1706977633908764
 31
0.0
  0
LINE
  5
1A9E5
  8
0
 10
4348.1335999158536652
 20
309.1878623122743761
 30
0.0
 11
4348.1266742315883675
 21
309.1769495937909937
 31
0.0
  0
LINE
  5
1A9E6
  8
0
 10
4348.1178608746877217
 20
309.1925702717908848
 30
0.0
 11
4348.1178608746877217
 21
309.1802651607910093
 31
0.0
  0
LINE
  5
1A9E7
  8
0
 10
4348.0904161140879296
 20
309.1959112888292793
 30
0.0
 11
4348.0904161140879296
 21
309.1771573099908892
 31
0.0
  0
LINE
  5
1A9E8
  8
0
 10
4348.0765566407299048
 20
309.194321811690088
 30
0.0
 11
4348.0696354617866746
 21
309.1834055010909879
 31
0.0
  0
LINE
  5
1A9E9
  8
0
 10
4348.0608180108883971
 20
309.1990298183910113
 30
0.0
 11
4348.0608180108883971
 21
309.1867247072909208
 31
0.0
  0
LINE
  5
1A9EA
  8
0
 10
4348.0333732502867861
 20
309.2023708353236202
 30
0.0
 11
4348.0333732502867861
 21
309.183616856590902
 31
0.0
  0
LINE
  5
1A9EB
  8
0
 10
4348.0195141883177712
 20
309.2007814053698098
 30
0.0
 11
4348.0125885039878995
 21
309.1898686868909181
 31
0.0
  0
LINE
  5
1A9EC
  8
0
 10
4348.0037751471882075
 20
309.2054893648909228
 30
0.0
 11
4348.0037751471882075
 21
309.1931842538908768
 31
0.0
  0
LINE
  5
1A9ED
  8
0
 10
4347.976330386488371
 20
309.2088303818787836
 30
0.0
 11
4347.976330386488371
 21
309.1900764030909272
 31
0.0
  0
LINE
  5
1A9EE
  8
0
 10
4347.9624713244556915
 20
309.2072409518775089
 30
0.0
 11
4347.9555456401867559
 21
309.1963282333908865
 31
0.0
  0
LINE
  5
1A9EF
  8
0
 10
4347.9467322833879734
 20
309.2119489114908788
 30
0.0
 11
4347.9467322833879734
 21
309.199643800390902
 31
0.0
  0
LINE
  5
1A9F0
  8
0
 10
4347.9194396002867506
 20
309.2153033730066909
 30
0.0
 11
4347.9194396008879266
 21
309.1968733971909273
 31
0.0
  0
LINE
  5
1A9F1
  8
0
 10
4348.2309755267879154
 20
309.2247473609351118
 30
0.0
 11
4348.2309755267879154
 21
309.2059933821909112
 31
0.0
  0
LINE
  5
1A9F2
  8
0
 10
4348.2584202873877075
 20
309.2214063439909069
 30
0.0
 11
4348.2584202873877075
 21
309.2091012329909177
 31
0.0
  0
LINE
  5
1A9F3
  8
0
 10
4348.2880183904881051
 20
309.2182878144237179
 30
0.0
 11
4348.2880183904881051
 21
309.1995338355910121
 31
0.0
  0
LINE
  5
1A9F4
  8
0
 10
4348.3154631511870321
 20
309.2149467973908941
 30
0.0
 11
4348.3154631511870321
 21
309.2026416863909049
 31
0.0
  0
LINE
  5
1A9F5
  8
0
 10
4348.3836466375159944
 20
309.1386726236420941
 30
0.0
 11
4348.3836443430882355
 21
309.123824942991007
 31
0.0
  0
LINE
  5
1A9F6
  8
0
 10
4348.3763492670877895
 20
309.1186239753909035
 30
0.0
 11
4348.3645254169878172
 21
309.1236209503910004
 31
0.0
  0
LINE
  5
1A9F7
  8
0
 10
4348.3645254169878172
 20
309.1236209503910004
 30
0.0
 11
4348.3341482990881559
 21
309.1201371430909148
 31
0.0
  0
LINE
  5
1A9F8
  8
0
 10
4348.3314057644884087
 20
309.1203939392909206
 30
0.0
 11
4348.3293795797881103
 21
309.1208264135909189
 31
0.0
  0
LINE
  5
1A9F9
  8
0
 10
4348.3293795797881103
 20
309.1208264135909189
 30
0.0
 11
4348.3074825531866736
 21
309.1300804969908995
 31
0.0
  0
LINE
  5
1A9FA
  8
0
 10
4348.3074825531866736
 20
309.1300804969908995
 30
0.0
 11
4348.2771054353879663
 21
309.1265966896909276
 31
0.0
  0
LINE
  5
1A9FB
  8
0
 10
4348.2743629006881747
 20
309.126853485790889
 30
0.0
 11
4348.2723367160879206
 21
309.1272859602909193
 31
0.0
  0
LINE
  5
1A9FC
  8
0
 10
4348.2723367160879206
 20
309.1272859602909193
 30
0.0
 11
4348.2504396895883474
 21
309.1365400434909247
 31
0.0
  0
LINE
  5
1A9FD
  8
0
 10
4348.2504396895883474
 20
309.1365400434909247
 30
0.0
 11
4348.2200625714867783
 21
309.1330562361910097
 31
0.0
  0
LINE
  5
1A9FE
  8
0
 10
4348.2173200369879851
 20
309.1333130323909018
 30
0.0
 11
4348.2152938521867327
 21
309.1337455068908753
 31
0.0
  0
LINE
  5
1A9FF
  8
0
 10
4348.2152938521867327
 20
309.1337455068908753
 30
0.0
 11
4348.1933968258872483
 21
309.1429995900908807
 31
0.0
  0
LINE
  5
1AA00
  8
0
 10
4348.1933968258872483
 20
309.1429995900908807
 30
0.0
 11
4348.1630197077884077
 21
309.1395157826909212
 31
0.0
  0
LINE
  5
1AA01
  8
0
 10
4348.1602771732314068
 20
309.1397725789396986
 30
0.0
 11
4348.1582509885884065
 21
309.1402050532909129
 31
0.0
  0
LINE
  5
1AA02
  8
0
 10
4348.1582509885884065
 20
309.1402050532909129
 30
0.0
 11
4348.1363539619869698
 21
309.1494591365909059
 31
0.0
  0
LINE
  5
1AA03
  8
0
 10
4348.1363539619869698
 20
309.1494591365909059
 30
0.0
 11
4348.1059768440882181
 21
309.1459753292908772
 31
0.0
  0
LINE
  5
1AA04
  8
0
 10
4348.1032343094893804
 20
309.1462321254908829
 30
0.0
 11
4348.1012076599881766
 21
309.1466666901910116
 31
0.0
  0
LINE
  5
1AA05
  8
0
 10
4348.1012076599881766
 20
309.1466666901910116
 30
0.0
 11
4348.0793110982867802
 21
309.155918683090988
 31
0.0
  0
LINE
  5
1AA06
  8
0
 10
4348.0793110982867802
 20
309.155918683090988
 30
0.0
 11
4348.048933980287984
 21
309.1524348757909024
 31
0.0
  0
LINE
  5
1AA07
  8
0
 10
4348.0461914456882369
 20
309.1526916719909082
 30
0.0
 11
4348.0441652609879384
 21
309.1531241463910078
 31
0.0
  0
LINE
  5
1AA08
  8
0
 10
4348.0441652609879384
 20
309.1531241463910078
 30
0.0
 11
4348.0222682344892746
 21
309.1623782296910008
 31
0.0
  0
LINE
  5
1AA09
  8
0
 10
4348.0222682344892746
 20
309.1623782296910008
 30
0.0
 11
4347.9918911165877944
 21
309.1588944223909152
 31
0.0
  0
LINE
  5
1AA0A
  8
0
 10
4347.9891485818880028
 20
309.159151218590921
 30
0.0
 11
4347.9871223972868393
 21
309.1595836928909193
 31
0.0
  0
LINE
  5
1AA0B
  8
0
 10
4347.9871223972868393
 20
309.1595836928909193
 30
0.0
 11
4347.9652253706881311
 21
309.1688377762908999
 31
0.0
  0
LINE
  5
1AA0C
  8
0
 10
4347.9652253706881311
 20
309.1688377762908999
 30
0.0
 11
4347.9488424054879943
 21
309.1669386698910102
 31
0.0
  0
LINE
  5
1AA0D
  8
0
 10
4347.9445009110750107
 20
309.1923204375312935
 30
0.0
 11
4347.9445009176870371
 21
309.1738731600909205
 31
0.0
  0
LINE
  5
1AA0E
  8
0
 10
4347.9620168726878546
 20
309.187841555490877
 30
0.0
 11
4347.9620168726878546
 21
309.1755364444908878
 31
0.0
  0
LINE
  5
1AA0F
  8
0
 10
4347.9777559137492062
 20
309.183133595966126
 30
0.0
 11
4347.9708302294875466
 21
309.1722208774908722
 31
0.0
  0
LINE
  5
1AA10
  8
0
 10
4347.9916149757882522
 20
309.1847230259787125
 30
0.0
 11
4347.9916149757882522
 21
309.165969047190913
 31
0.0
  0
LINE
  5
1AA11
  8
0
 10
4348.0190597364880887
 20
309.1813820089909086
 30
0.0
 11
4348.0190597363880443
 21
309.1690768979909194
 31
0.0
  0
LINE
  5
1AA12
  8
0
 10
4348.0486578395875767
 20
309.1782634794350884
 30
0.0
 11
4348.0486578395875767
 21
309.1595095005909002
 31
0.0
  0
LINE
  5
1AA13
  8
0
 10
4348.0761026001882783
 20
309.1749224623910095
 30
0.0
 11
4348.0761026001882783
 21
309.1626173513909066
 31
0.0
  0
LINE
  5
1AA14
  8
0
 10
4348.1057007032877664
 20
309.1718039328731038
 30
0.0
 11
4348.1057007032877664
 21
309.153049954090875
 31
0.0
  0
LINE
  5
1AA15
  8
0
 10
4348.1331454638875584
 20
309.1684629158909274
 30
0.0
 11
4348.1331454639876029
 21
309.1561578048909951
 31
0.0
  0
LINE
  5
1AA16
  8
0
 10
4348.1627435670880004
 20
309.1653443862845734
 30
0.0
 11
4348.1627435670880004
 21
309.146590407490919
 31
0.0
  0
LINE
  5
1AA17
  8
0
 10
4348.190188327686883
 20
309.1620033692909146
 30
0.0
 11
4348.190188327686883
 21
309.1496982582909254
 31
0.0
  0
LINE
  5
1AA18
  8
0
 10
4348.21978643078819
 20
309.1588848397234983
 30
0.0
 11
4348.21978643078819
 21
309.1401308609908938
 31
0.0
  0
LINE
  5
1AA19
  8
0
 10
4348.2472311914880265
 20
309.1555438226909018
 30
0.0
 11
4348.2472311914880265
 21
309.1432387117909002
 31
0.0
  0
LINE
  5
1AA1A
  8
0
 10
4348.2768292945884241
 20
309.152425293235126
 30
0.0
 11
4348.2768292945884241
 21
309.133671314390881
 31
0.0
  0
LINE
  5
1AA1B
  8
0
 10
4348.3042740552882606
 20
309.1490842761908766
 30
0.0
 11
4348.3042740552882606
 21
309.1367791651908874
 31
0.0
  0
LINE
  5
1AA1C
  8
0
 10
4348.3770559601571222
 20
309.1379167701746269
 30
0.0
 11
4348.3701302757881422
 21
309.1270040515909159
 31
0.0
  0
LINE
  5
1AA1D
  8
0
 10
4348.3338721583868391
 20
309.1459657466351132
 30
0.0
 11
4348.3338721583868391
 21
309.1272117678909126
 31
0.0
  0
LINE
  5
1AA1E
  8
0
 10
4348.3613169189884502
 20
309.1426247295909207
 30
0.0
 11
4348.3613169189884502
 21
309.130319618690919
 31
0.0
  0
LINE
  5
1AA1F
  8
0
 10
4348.3200130963596166
 20
309.1443763166745953
 30
0.0
 11
4348.3130874119869986
 21
309.1334635981908718
 31
0.0
  0
LINE
  5
1AA20
  8
0
 10
4348.2629702326266852
 20
309.1508358632822251
 30
0.0
 11
4348.256044548286809
 21
309.1399231447908846
 31
0.0
  0
LINE
  5
1AA21
  8
0
 10
4348.2059273688473695
 20
309.1572954097625257
 30
0.0
 11
4348.1990016845884384
 21
309.1463826912909099
 31
0.0
  0
LINE
  5
1AA22
  8
0
 10
4348.148884504952548
 20
309.1637549562768186
 30
0.0
 11
4348.1419588207891138
 21
309.1528422378909227
 31
0.0
  0
LINE
  5
1AA23
  8
0
 10
4348.0918412300416094
 20
309.170214455706116
 30
0.0
 11
4348.0849200510883747
 21
309.1592981450908724
 31
0.0
  0
LINE
  5
1AA24
  8
0
 10
4348.034798777512151
 20
309.1766740494691135
 30
0.0
 11
4348.0278730932877806
 21
309.1657613309909038
 31
0.0
  0
LINE
  5
1AA25
  8
0
 10
4348.3731640389878521
 20
309.1380417486909096
 30
0.0
 11
4348.3711378542893726
 21
309.1384742229909079
 31
0.0
  0
LINE
  5
1AA26
  8
0
 10
4348.3711378542893726
 20
309.1384742229909079
 30
0.0
 11
4348.3492408277879804
 21
309.1477283062909009
 31
0.0
  0
LINE
  5
1AA27
  8
0
 10
4348.3492408277879804
 20
309.1477283062909009
 30
0.0
 11
4348.3188637097882747
 21
309.1442444989908722
 31
0.0
  0
LINE
  5
1AA28
  8
0
 10
4348.3161211751867086
 20
309.144501295190878
 30
0.0
 11
4348.3140949905882735
 21
309.1449337694908763
 31
0.0
  0
LINE
  5
1AA29
  8
0
 10
4348.3140949905882735
 20
309.1449337694908763
 30
0.0
 11
4348.2921979639877463
 21
309.1541878528909137
 31
0.0
  0
LINE
  5
1AA2A
  8
0
 10
4348.2921979639877463
 20
309.1541878528909137
 30
0.0
 11
4348.2618208459880407
 21
309.150704045590885
 31
0.0
  0
LINE
  5
1AA2B
  8
0
 10
4348.2590783114883379
 20
309.1509608417910044
 30
0.0
 11
4348.2570521267880395
 21
309.1513933160908891
 31
0.0
  0
LINE
  5
1AA2C
  8
0
 10
4348.2570521267880395
 20
309.1513933160908891
 30
0.0
 11
4348.2351551001884218
 21
309.1606473993908821
 31
0.0
  0
LINE
  5
1AA2D
  8
0
 10
4348.2351551001884218
 20
309.1606473993908821
 30
0.0
 11
4348.204777982386986
 21
309.1571635920909102
 31
0.0
  0
LINE
  5
1AA2E
  8
0
 10
4348.2020354476881039
 20
309.157420388290916
 30
0.0
 11
4348.2000092629868959
 21
309.1578528626909019
 31
0.0
  0
LINE
  5
1AA2F
  8
0
 10
4348.2000092629868959
 20
309.1578528626909019
 30
0.0
 11
4348.1781122365873671
 21
309.1671069459910086
 31
0.0
  0
LINE
  5
1AA30
  8
0
 10
4348.1781122365873671
 20
309.1671069459910086
 30
0.0
 11
4348.1477351183875726
 21
309.1636231385908786
 31
0.0
  0
LINE
  5
1AA31
  8
0
 10
4348.1449925838878698
 20
309.1638799347908844
 30
0.0
 11
4348.1429663991875714
 21
309.1643124092909147
 31
0.0
  0
LINE
  5
1AA32
  8
0
 10
4348.1429663991875714
 20
309.1643124092909147
 30
0.0
 11
4348.1210693727880425
 21
309.1735664925909077
 31
0.0
  0
LINE
  5
1AA33
  8
0
 10
4348.1210693727880425
 20
309.1735664925909077
 30
0.0
 11
4348.0906922547883369
 21
309.1700826851908914
 31
0.0
  0
LINE
  5
1AA34
  8
0
 10
4348.0879497201867707
 20
309.1703394813908972
 30
0.0
 11
4348.0859235354882912
 21
309.1707719557909968
 31
0.0
  0
LINE
  5
1AA35
  8
0
 10
4348.0859235354882912
 20
309.1707719557909968
 30
0.0
 11
4348.0640265089878085
 21
309.1800260390908761
 31
0.0
  0
LINE
  5
1AA36
  8
0
 10
4348.0640265089878085
 20
309.1800260390908761
 30
0.0
 11
4348.0336493909881028
 21
309.1765422317909042
 31
0.0
  0
LINE
  5
1AA37
  8
0
 10
4348.0309068563883557
 20
309.17679902799091
 30
0.0
 11
4348.0288806716871477
 21
309.1772315023910096
 31
0.0
  0
LINE
  5
1AA38
  8
0
 10
4348.0288806716871477
 20
309.1772315023910096
 30
0.0
 11
4348.0069836451875744
 21
309.1864855856908889
 31
0.0
  0
LINE
  5
1AA39
  8
0
 10
4348.0069836451875744
 20
309.1864855856908889
 30
0.0
 11
4347.9766065272879132
 21
309.1830017782908726
 31
0.0
  0
LINE
  5
1AA3A
  8
0
 10
4347.973863992688166
 20
309.183258574490992
 30
0.0
 11
4347.9718378079878676
 21
309.1836910488909211
 31
0.0
  0
LINE
  5
1AA3B
  8
0
 10
4347.9718378079878676
 20
309.1836910488909211
 30
0.0
 11
4347.9499407814882943
 21
309.1929451321909141
 31
0.0
  0
LINE
  5
1AA3C
  8
0
 10
4347.9499407814882943
 20
309.1929451321909141
 30
0.0
 11
4347.9224387498879878
 21
309.189786900290926
 31
0.0
  0
LINE
  5
1AA3D
  8
0
 10
4348.0050073186866939
 20
309.1603797039908841
 30
0.0
 11
4348.0050073508882633
 21
309.1419676426908723
 31
0.0
  0
LINE
  5
1AA3E
  8
0
 10
4347.9784744727876387
 20
309.1632384637910036
 30
0.0
 11
4347.9784744779881294
 21
309.1535994341909941
 31
0.0
  0
LINE
  5
1AA3F
  8
0
 10
4348.0343443256879254
 20
309.1572746530910081
 30
0.0
 11
4348.0343443256879254
 21
309.1449695419909176
 31
0.0
  0
LINE
  5
1AA40
  8
0
 10
4348.0500829554275697
 20
309.1525666462894151
 30
0.0
 11
4348.0431617765880219
 21
309.1416503357909278
 31
0.0
  0
LINE
  5
1AA41
  8
0
 10
4348.0639424288883674
 20
309.1541561234350866
 30
0.0
 11
4348.0639424288883674
 21
309.135402144690886
 31
0.0
  0
LINE
  5
1AA42
  8
0
 10
4348.0913871894881595
 20
309.1508151064909953
 30
0.0
 11
4348.0913871894881595
 21
309.1385099954908924
 31
0.0
  0
LINE
  5
1AA43
  8
0
 10
4348.1071258193378526
 20
309.1461070998025207
 30
0.0
 11
4348.1002046403873464
 21
309.135190789190915
 31
0.0
  0
LINE
  5
1AA44
  8
0
 10
4348.1209852925867381
 20
309.1476965769293201
 30
0.0
 11
4348.1209852925867381
 21
309.1289425981909176
 31
0.0
  0
LINE
  5
1AA45
  8
0
 10
4348.1484300531883491
 20
309.1443555599909132
 30
0.0
 11
4348.1484300531883491
 21
309.1320504488908796
 31
0.0
  0
LINE
  5
1AA46
  8
0
 10
4348.1641686830453182
 20
309.139647553206089
 30
0.0
 11
4348.1572475040884456
 21
309.1287312426910034
 31
0.0
  0
LINE
  5
1AA47
  8
0
 10
4348.1780281563878816
 20
309.141237030378818
 30
0.0
 11
4348.1780281563878816
 21
309.1224830515909048
 31
0.0
  0
LINE
  5
1AA48
  8
0
 10
4348.2054729169867642
 20
309.1378960133909004
 30
0.0
 11
4348.2054729169867642
 21
309.1255909023909112
 31
0.0
  0
LINE
  5
1AA49
  8
0
 10
4348.2212115468100819
 20
309.1331880067098723
 30
0.0
 11
4348.2142903677877257
 21
309.122271696090877
 31
0.0
  0
LINE
  5
1AA4A
  8
0
 10
4348.3352972742322891
 20
309.1202689135902801
 30
0.0
 11
4348.3295920806867798
 21
309.1112704950908778
 31
0.0
  0
LINE
  5
1AA4B
  8
0
 10
4348.3190516211880094
 20
309.1251911975909934
 30
0.0
 11
4348.319051627187946
 21
309.1121923511909131
 31
0.0
  0
LINE
  5
1AA4C
  8
0
 10
4348.2934991053170961
 20
309.1284768017986835
 30
0.0
 11
4348.293499080788024
 21
309.1092987751910073
 31
0.0
  0
LINE
  5
1AA4D
  8
0
 10
4348.2841402281883347
 20
309.1046497710909193
 30
0.0
 11
4348.2657242788882286
 21
309.1124326875909105
 31
0.0
  0
LINE
  5
1AA4E
  8
0
 10
4348.2657242788882286
 20
309.1124326875909105
 30
0.0
 11
4348.235347160787569
 21
309.1089488802908818
 31
0.0
  0
LINE
  5
1AA4F
  8
0
 10
4348.2326046262878663
 20
309.1092056764908875
 30
0.0
 11
4348.2305784415875678
 21
309.1096381508908735
 31
0.0
  0
LINE
  5
1AA50
  8
0
 10
4348.2305784415875678
 20
309.1096381508908735
 30
0.0
 11
4348.2086814149879501
 21
309.1188922341909233
 31
0.0
  0
LINE
  5
1AA51
  8
0
 10
4348.2086814149879501
 20
309.1188922341909233
 30
0.0
 11
4348.1783042971883333
 21
309.1154084268910083
 31
0.0
  0
LINE
  5
1AA52
  8
0
 10
4348.1794532723288285
 20
309.1155401973904873
 30
0.0
 11
4348.1729328294868537
 21
309.1052559408909133
 31
0.0
  0
LINE
  5
1AA53
  8
0
 10
4348.1755617624867227
 20
309.1156652229909128
 30
0.0
 11
4348.1735355778873782
 21
309.1160976973910124
 31
0.0
  0
LINE
  5
1AA54
  8
0
 10
4348.1735355778873782
 20
309.1160976973910124
 30
0.0
 11
4348.1516385513878049
 21
309.1253517806908917
 31
0.0
  0
LINE
  5
1AA55
  8
0
 10
4348.1516385513878049
 20
309.1253517806908917
 30
0.0
 11
4348.1212614332880548
 21
309.1218679732908754
 31
0.0
  0
LINE
  5
1AA56
  8
0
 10
4348.1185188986883077
 20
309.1221247695909256
 30
0.0
 11
4348.1164927139870997
 21
309.1225572439909115
 31
0.0
  0
LINE
  5
1AA57
  8
0
 10
4348.1164927139870997
 20
309.1225572439909115
 30
0.0
 11
4348.0945956875875709
 21
309.1318113271909169
 31
0.0
  0
LINE
  5
1AA58
  8
0
 10
4348.0945956875875709
 20
309.1318113271909169
 30
0.0
 11
4348.0642185695878652
 21
309.1283275198910019
 31
0.0
  0
LINE
  5
1AA59
  8
0
 10
4348.0653675448447757
 20
309.1284592904028159
 30
0.0
 11
4348.0612938820868294
 21
309.1220341758909171
 31
0.0
  0
LINE
  5
1AA5A
  8
0
 10
4348.0614760349872085
 20
309.1285843160910076
 30
0.0
 11
4348.0594493854878237
 21
309.129018880790909
 31
0.0
  0
LINE
  5
1AA5B
  8
0
 10
4348.0594493854878237
 20
309.129018880790909
 30
0.0
 11
4348.0375528236882019
 21
309.1382708737908729
 31
0.0
  0
LINE
  5
1AA5C
  8
0
 10
4348.0375528236882019
 20
309.1382708737908729
 30
0.0
 11
4348.0119687674878151
 21
309.1353298337908768
 31
0.0
  0
LINE
  5
1AA5D
  8
0
 10
4347.9930400917337465
 20
309.1590261928903942
 30
0.0
 11
4347.9858647914879839
 21
309.1477090738908942
 31
0.0
  0
LINE
  5
1AA5E
  8
0
 10
4348.163755391587074
 20
309.1202309826908845
 30
0.0
 11
4348.1637553916880279
 21
309.1083275901909246
 31
0.0
  0
LINE
  5
1AA5F
  8
0
 10
4348.1069472551880608
 20
309.126591329191001
 30
0.0
 11
4348.1069472553881496
 21
309.1151573565908848
 31
0.0
  0
LINE
  5
1AA60
  8
0
 10
4348.0530187253880285
 20
309.1317347012910091
 30
0.0
 11
4348.0530187193180609
 21
309.1265289229198174
 31
0.0
  0
ARC
  5
1AA61
  8
0
 10
4348.4090413511994484
 20
309.3181399014748081
 30
0.0
 40
0.0154422523832267
 50
334.7793611918132797
 51
0.741653575484081
  0
ARC
  5
1AA62
  8
0
 10
4348.4244541356656555
 20
309.3147860007470058
 30
0.0
 40
0.0035339674381654
 50
245.9078230260114992
 51
274.939940006323809
  0
ARC
  5
1AA63
  8
0
 10
4348.4222635603291565
 20
309.3176002305036718
 30
0.0
 40
0.0060864893371198
 50
248.0630364498929055
 51
277.0591174667806058
  0
ARC
  5
1AA64
  8
0
 10
4348.398290252546758
 20
309.3282595071157175
 30
0.0
 40
0.0065393765233236
 50
275.3712783974881972
 51
325.8438849846239123
  0
ARC
  5
1AA65
  8
0
 10
4348.4020539536022625
 20
309.3281952349626067
 30
0.0
 40
0.0071755309014245
 50
182.3006852900234094
 51
243.9466014306186992
  0
LINE
  5
1AA66
  8
0
 10
4348.3989023986132452
 20
309.321748844898309
 30
0.0
 11
4348.398092704787814
 21
309.3212085140909267
 31
0.0
  0
ARC
  5
1AA67
  8
0
 10
4348.351998489262769
 20
309.3245994477979934
 30
0.0
 40
0.0154422506210126
 50
334.7793588370898874
 51
0.7416543159703344
  0
ARC
  5
1AA68
  8
0
 10
4348.3674065456680182
 20
309.3212175344668253
 30
0.0
 40
0.0035064728216507
 50
245.7914742499035015
 51
275.0562951603777719
  0
ARC
  5
1AA69
  8
0
 10
4348.3652206966571612
 20
309.3240597779869745
 30
0.0
 40
0.0060864902971816
 50
248.063038786832891
 51
277.0591151297970214
  0
ARC
  5
1AA6A
  8
0
 10
4348.3412473887219676
 20
309.3347190539520852
 30
0.0
 40
0.006539376759897
 50
275.3712786715410061
 51
325.8438838875600254
  0
ARC
  5
1AA6B
  8
0
 10
4348.3450110896355909
 20
309.3346547814725227
 30
0.0
 40
0.0071755307318423
 50
182.3006846241760002
 51
243.9466024922083136
  0
ARC
  5
1AA6C
  8
0
 10
4348.2947964066079294
 20
309.3310935334200735
 30
0.0
 40
0.01560105199106
 50
334.913765386247178
 51
0.6072493810545546
  0
ARC
  5
1AA6D
  8
0
 10
4348.310368407956048
 20
309.3277050927079017
 30
0.0
 40
0.0035339663127818
 50
245.9078185895540969
 51
274.9399433667305743
  0
ARC
  5
1AA6E
  8
0
 10
4348.2841444861478521
 20
309.3412800900181878
 30
0.0
 40
0.0066462309396709
 50
275.8046917723390834
 51
325.4104697203496244
  0
ARC
  5
1AA6F
  8
0
 10
4348.2879674946552768
 20
309.3411138508935778
 30
0.0
 40
0.0071747809036584
 50
182.2971123083223119
 51
243.950174889595786
  0
ARC
  5
1AA70
  8
0
 10
4348.2374162998703468
 20
309.3376262375667807
 30
0.0
 40
0.015937685335124
 50
335.1896033344614807
 51
0.3314130470318434
  0
ARC
  5
1AA71
  8
0
 10
4348.3185374033137123
 20
309.2928996154531092
 30
0.0
 40
0.0071755295813301
 50
182.3006792443206052
 51
243.9466084071966918
  0
ARC
  5
1AA72
  8
0
 10
4348.3147136645247883
 20
309.2930653781558021
 30
0.0
 40
0.0066462310055746
 50
275.8046932617820062
 51
325.4104707665273963
  0
LINE
  5
1AA73
  8
0
 10
4348.3271066989273095
 20
309.3002087150816806
 30
0.0
 11
4348.3201810145883428
 21
309.2892959965909085
 31
0.0
  0
ARC
  5
1AA74
  8
0
 10
4348.2576311230359352
 20
309.2995919960125093
 30
0.0
 40
0.0067170508083796
 50
276.083544039625906
 51
325.1316192217556136
  0
ARC
  5
1AA75
  8
0
 10
4348.2614945405130129
 20
309.2993591626038778
 30
0.0
 40
0.007175530506844
 50
182.3006841481557103
 51
243.946603194528592
  0
ARC
  5
1AA76
  8
0
 10
4348.3521266823690894
 20
309.3453529016986181
 30
0.0
 40
0.0035339659038653
 50
245.9078171605941918
 51
274.9399437194197731
  0
ARC
  5
1AA77
  8
0
 10
4348.3499361075146226
 20
309.3481671334751013
 30
0.0
 40
0.0060864898812181
 50
248.0630356084066079
 51
277.0591150664197926
  0
LINE
  5
1AA78
  8
0
 10
4348.3536295065277955
 20
309.3419680885817797
 30
0.0
 11
4348.3524291972880746
 21
309.3418323076908791
 31
0.0
  0
LINE
  5
1AA79
  8
0
 10
4348.350885486855077
 20
309.3425026813446834
 30
0.0
 11
4348.3506840965892479
 21
309.342126779990906
 31
0.0
  0
LINE
  5
1AA7A
  8
0
 10
4348.3476636408877312
 20
309.3425204823909098
 30
0.0
 11
4348.3451534609912414
 21
309.343581462126906
 31
0.0
  0
LINE
  5
1AA7B
  8
0
 10
4348.2939134094867768
 20
309.3490943528909156
 30
0.0
 11
4348.2936412327881044
 21
309.3485863264909881
 31
0.0
  0
ARC
  5
1AA7C
  8
0
 10
4348.2950838187762201
 20
309.3518124504149114
 30
0.0
 40
0.0035339680116543
 50
245.9078287616260923
 51
274.9399406485707118
  0
ARC
  5
1AA7D
  8
0
 10
4348.2928932435288516
 20
309.3546266795037809
 30
0.0
 40
0.0060864893371751
 50
248.0630364500053986
 51
277.0591174666233769
  0
ARC
  5
1AA7E
  8
0
 10
4348.2271616615025778
 20
309.3476381466683165
 30
0.0
 40
0.0065393763684733
 50
275.3712766199162729
 51
325.8438845662689118
  0
ARC
  5
1AA7F
  8
0
 10
4348.2309253622815959
 20
309.3475738746565753
 30
0.0
 40
0.007175530881423
 50
182.3006852481327087
 51
243.9466018701673988
  0
ARC
  5
1AA80
  8
0
 10
4348.1808698978265966
 20
309.343978087093717
 30
0.0
 40
0.0154422506618652
 50
334.7793605669784256
 51
0.7416558145117212
  0
ARC
  5
1AA81
  8
0
 10
4348.1962826805720397
 20
309.3406241864000208
 30
0.0
 40
0.0035339669011971
 50
245.9078207718814042
 51
274.9399422603858056
  0
ARC
  5
1AA82
  8
0
 10
4348.1940921051282203
 20
309.3434384151623249
 30
0.0
 40
0.0060864878320395
 50
248.0630327862068896
 51
277.0591211303328123
  0
LINE
  5
1AA83
  8
0
 10
4348.1977359708307631
 20
309.3372351168906107
 30
0.0
 11
4348.1908147918884424
 21
309.326318806290999
 31
0.0
  0
ARC
  5
1AA84
  8
0
 10
4348.1854033869340128
 20
309.3299903372886774
 30
0.0
 40
0.0065393763795921
 50
275.3712767611295931
 51
325.8438854745764957
  0
ARC
  5
1AA85
  8
0
 10
4348.1891670880131642
 20
309.3299260653928968
 30
0.0
 40
0.0071755311174823
 50
182.3006862610818075
 51
243.9466002933206141
  0
ARC
  5
1AA86
  8
0
 10
4348.1389524076512316
 20
309.3263648164602273
 30
0.0
 40
0.0156010489561676
 50
334.9137628444236725
 51
0.6072519228987777
  0
ARC
  5
1AA87
  8
0
 10
4348.1545244060325786
 20
309.322976376869974
 30
0.0
 40
0.0035339667664442
 50
245.9078204938840884
 51
274.9399414622715767
  0
ARC
  5
1AA88
  8
0
 10
4348.1523338309343671
 20
309.3257906086772095
 30
0.0
 40
0.0060864906873093
 50
248.0630394978138042
 51
277.059114905639376
  0
LINE
  5
1AA89
  8
0
 10
4348.1406931069359416
 20
309.3436946634013225
 30
0.0
 11
4348.1337719280882084
 21
309.3327783528910118
 31
0.0
  0
ARC
  5
1AA8A
  8
0
 10
4348.1239193834217076
 20
309.3503886511094834
 30
0.0
 40
0.015337833712413
 50
334.7978987932373229
 51
356.6361929979423735
  0
ARC
  5
1AA8B
  8
0
 10
4348.1392398167654392
 20
309.3470837330546033
 30
0.0
 40
0.0035339670387357
 50
245.9078219246086121
 51
274.9399389555790094
  0
ARC
  5
1AA8C
  8
0
 10
4348.1370492417281639
 20
309.3498979638698074
 30
0.0
 40
0.0060864899737548
 50
248.0630358336777874
 51
277.0591148411597828
  0
ARC
  5
1AA8D
  8
0
 10
4348.1282608065102977
 20
309.336618444563328
 30
0.0
 40
0.006717050327171
 50
276.0835425206047944
 51
325.1316210317033892
  0
ARC
  5
1AA8E
  8
0
 10
4348.1321242236781472
 20
309.3363856117169917
 30
0.0
 40
0.0071755305722962
 50
182.3006842316235918
 51
243.9466041016023041
  0
ARC
  5
1AA8F
  8
0
 10
4348.0819095438291697
 20
309.3328243629671874
 30
0.0
 40
0.015601048978356
 50
334.9137628540166816
 51
0.6072522634449409
  0
ARC
  5
1AA90
  8
0
 10
4348.0974815424197004
 20
309.3294359255705785
 30
0.0
 40
0.0035339688517743
 50
245.9078322884238048
 51
274.9399371220969215
  0
ARC
  5
1AA91
  8
0
 10
4348.0952909674533657
 20
309.3322501556245925
 30
0.0
 40
0.0060864910920109
 50
248.0630387943056974
 51
277.0591113936793022
  0
ARC
  5
1AA92
  8
0
 10
4348.0711764902980576
 20
309.3432363500368183
 30
0.0
 40
0.006878953961617
 50
276.2870762101579203
 51
317.2152021353319924
  0
LINE
  5
1AA93
  8
0
 10
4348.0719298053018065
 20
309.3363987682977267
 30
0.0
 11
4348.0706783078685476
 21
309.3373046619341267
 31
0.0
  0
LINE
  5
1AA94
  8
0
 10
4348.0719298053018065
 20
309.3363987682977267
 30
0.0
 11
4348.0711201115882432
 21
309.3358584374909128
 31
0.0
  0
LINE
  5
1AA95
  8
0
 10
4348.0399384657303017
 20
309.329425271533978
 30
0.0
 11
4348.0349707898867564
 21
309.3215900900909219
 31
0.0
  0
ARC
  5
1AA96
  8
0
 10
4348.0866022489071838
 20
309.3188020741525861
 30
0.0
 40
0.006539376047849
 50
275.3712754413235189
 51
325.8438870608014213
  0
ARC
  5
1AA97
  8
0
 10
4348.0903659495770626
 20
309.3187378024437066
 30
0.0
 40
0.0071755308759784
 50
182.3006851468074956
 51
243.9466015111837009
  0
ARC
  5
1AA98
  8
0
 10
4348.0295593851706144
 20
309.3252616206905259
 30
0.0
 40
0.0065393759601273
 50
275.3712750919011114
 51
325.8438871976891278
  0
ARC
  5
1AA99
  8
0
 10
4348.0333230741307489
 20
309.3251973414501208
 30
0.0
 40
0.0071755189379454
 50
178.5012338285536089
 51
243.9466584273802994
  0
ARC
  5
1AA9A
  8
0
 10
4348.0448439742121991
 20
309.3011542649373951
 30
0.0
 40
0.0065393762306952
 50
275.371277252288678
 51
325.8438861914016229
  0
ARC
  5
1AA9B
  8
0
 10
4348.0486437779927655
 20
309.3011135494805899
 30
0.0
 40
0.0072125841549517
 50
182.4761505947975877
 51
243.7711362282952052
  0
ARC
  5
1AA9C
  8
0
 10
4347.9983929911177256
 20
309.2975287450914266
 30
0.0
 40
0.0156010527790736
 50
334.9137660462345139
 51
0.6072487210548596
  0
ARC
  5
1AA9D
  8
0
 10
4348.0139744375028386
 20
309.2941962839394137
 30
0.0
 40
0.0035889530507436
 50
246.1349889530187056
 51
274.7127719270238231
  0
ARC
  5
1AA9E
  8
0
 10
4348.0117744181188755
 20
309.2969545356003209
 30
0.0
 40
0.0060864898312168
 50
248.0630374139061871
 51
277.0591169894811969
  0
ARC
  5
1AA9F
  8
0
 10
4348.0030856999737807
 20
309.2835064553884763
 30
0.0
 40
0.0065393759574048
 50
275.3712750699182834
 51
325.8438872017524091
  0
ARC
  5
1AAA0
  8
0
 10
4348.0068855031649946
 20
309.283465739965493
 30
0.0
 40
0.0072125838228132
 50
182.4761497944724908
 51
243.7711377206117902
  0
ARC
  5
1AAA1
  8
0
 10
4347.9566347174077237
 20
309.2798809356200991
 30
0.0
 40
0.0156010519911043
 50
334.9137653862737238
 51
0.6072493810122176
  0
ARC
  5
1AAA2
  8
0
 10
4347.9722161626841626
 20
309.2765484724429825
 30
0.0
 40
0.003588950912701
 50
246.1349794371766961
 51
274.7127846711399002
  0
ARC
  5
1AAA3
  8
0
 10
4347.9700161437313
 20
309.2793067264859133
 30
0.0
 40
0.0060864901007876
 50
248.0630383087058988
 51
277.0591156077799155
  0
ARC
  5
1AAA4
  8
0
 10
4347.9459431192808552
 20
309.2901345629979915
 30
0.0
 40
0.0067170503702771
 50
276.0835423347228925
 51
325.1316209266972237
  0
ARC
  5
1AAA5
  8
0
 10
4347.9613274254998032
 20
309.2658586460968877
 30
0.0
 40
0.0065393760783251
 50
275.3712754417418864
 51
325.8438867733382267
  0
ARC
  5
1AAA6
  8
0
 10
4347.9651272288410837
 20
309.2658179307276214
 30
0.0
 40
0.0072125840017667
 50
182.4761502256820904
 51
243.771137764990101
  0
ARC
  5
1AAA7
  8
0
 10
4347.9148764459287122
 20
309.262233125467219
 30
0.0
 40
0.015601048978301
 50
334.913762853981325
 51
0.6072522634970482
  0
ARC
  5
1AAA8
  8
0
 10
4347.9304578882465648
 20
309.2589006646280723
 30
0.0
 40
0.0035889524790551
 50
246.1349894063116892
 51
274.7127800041603791
  0
ARC
  5
1AAA9
  8
0
 10
4347.9282578695529082
 20
309.2616589181150175
 30
0.0
 40
0.0060864910825723
 50
248.0630387713804055
 51
277.0591114166259104
  0
ARC
  5
1AAAA
  8
0
 10
4347.9195091116826006
 20
309.2483123267957126
 30
0.0
 40
0.0066462309237587
 50
275.804692351543622
 51
325.4104709098538137
  0
ARC
  5
1AAAB
  8
0
 10
4347.9233689541861168
 20
309.2481701210904248
 30
0.0
 40
0.0072125837360285
 50
182.4761484318399027
 51
243.7711379145237061
  0
ARC
  5
1AAAC
  8
0
 10
4347.9301610361699204
 20
309.2381257694761985
 30
0.0
 40
0.015601048037699
 50
334.9137620127247033
 51
0.6072526342785182
  0
ARC
  5
1AAAD
  8
0
 10
4347.9457424777801862
 20
309.2347933078171991
 30
0.0
 40
0.0035889516517091
 50
246.1349793580234007
 51
274.7127773527396926
  0
ARC
  5
1AAAE
  8
0
 10
4347.9435399381982279
 20
309.2381268117075024
 30
0.0
 40
0.0066580391233167
 50
267.8901067707419088
 51
276.4722682198267876
  0
ARC
  5
1AAAF
  8
0
 10
4347.9386535437033672
 20
309.2240627654489913
 30
0.0
 40
0.0072125840639164
 50
182.4761503754494925
 51
243.7711372760392976
  0
ARC
  5
1AAB0
  8
0
 10
4347.9347937007532892
 20
309.224204971284621
 30
0.0
 40
0.0066462313340381
 50
275.8046939860237217
 51
325.4104692753542167
  0
ARC
  5
1AAB1
  8
0
 10
4347.9454456207186013
 20
309.2140184144914201
 30
0.0
 40
0.0156010527790293
 50
334.9137660461769883
 51
0.6072487210874266
  0
ARC
  5
1AAB2
  8
0
 10
4347.9610270671028047
 20
309.2106859533394072
 30
0.0
 40
0.0035889530507285
 50
246.1349889530704047
 51
274.712771927232609
  0
ARC
  5
1AAB3
  8
0
 10
4347.9588245274599103
 20
309.2140194392511034
 30
0.0
 40
0.0066580226767155
 50
267.8901018810007031
 51
276.4722846022704061
  0
ARC
  5
1AAB4
  8
0
 10
4347.9500876967158547
 20
309.2000690436585728
 30
0.0
 40
0.00661685789432
 50
275.7486798207650054
 51
325.5737190665232106
  0
ARC
  5
1AAB5
  8
0
 10
4347.9539381331833283
 20
309.1999554096205998
 30
0.0
 40
0.0072125842523435
 50
182.47615167449311
 51
243.7711355234197868
  0
ARC
  5
1AAB6
  8
0
 10
4347.929343526271623
 20
309.1968870402351968
 30
0.0
 40
0.0099039347803307
 50
180.0789271254494111
 51
225.7992037418713949
  0
ARC
  5
1AAB7
  8
0
 10
4347.976551975682014
 20
309.2418527799829917
 30
0.0
 40
0.0066462305825567
 50
275.8046900603904987
 51
325.4104721546958103
  0
ARC
  5
1AAB8
  8
0
 10
4347.9804118183828905
 20
309.241710574920603
 30
0.0
 40
0.0072125842523396
 50
182.4761516744802066
 51
243.7711355234197868
  0
ARC
  5
1AAB9
  8
0
 10
4347.9878011106957274
 20
309.3076138113751767
 30
0.0
 40
0.006539376043032
 50
275.3712749742409756
 51
325.8438857346508826
  0
ARC
  5
1AABA
  8
0
 10
4347.9916009141779796
 20
309.3075730960753162
 30
0.0
 40
0.0072125841398003
 50
182.4761505582804091
 51
243.771136373291796
  0
LINE
  5
1AABB
  8
0
 10
4348.0571765580307328
 20
309.3083990446896792
 30
0.0
 11
4348.0502553790884122
 21
309.2974827340909201
 31
0.0
  0
ARC
  5
1AABC
  8
0
 10
4348.0401512660901062
 20
309.3151765541588816
 30
0.0
 40
0.0156010522105912
 50
334.9137664171261122
 51
0.6072499643500088
  0
ARC
  5
1AABD
  8
0
 10
4348.0557232678329456
 20
309.3117881140698842
 30
0.0
 40
0.0035339667663433
 50
245.9078204934318137
 51
274.9399414627421834
  0
ARC
  5
1AABE
  8
0
 10
4348.0535326926055859
 20
309.3146023449033919
 30
0.0
 40
0.0060864897365573
 50
248.063037183516002
 51
277.0591172198876961
  0
ARC
  5
1AABF
  8
0
 10
4348.0971941331499693
 20
309.3087170070601815
 30
0.0
 40
0.0156010489561454
 50
334.9137628444000825
 51
0.6072519228987777
  0
ARC
  5
1AAC0
  8
0
 10
4348.11276613199243
 20
309.3053285701898858
 30
0.0
 40
0.0035339694367821
 50
245.9078317033790029
 51
274.9399302527913278
  0
ARC
  5
1AAC1
  8
0
 10
4348.1105755565267827
 20
309.3081427985691789
 30
0.0
 40
0.0060864899731671
 50
248.0630358322227096
 51
277.0591148426299242
  0
ARC
  5
1AAC2
  8
0
 10
4348.1018868377468607
 20
309.2946947186594002
 30
0.0
 40
0.0065393765747626
 50
275.3712793498673932
 51
325.8438858854732985
  0
ARC
  5
1AAC3
  8
0
 10
4348.1056505270871639
 20
309.2946304387589862
 30
0.0
 40
0.0071755187837517
 50
182.300626816010606
 51
243.9466592429124034
  0
ARC
  5
1AAC4
  8
0
 10
4348.1124787224498505
 20
309.2846096511602241
 30
0.0
 40
0.0156010489561675
 50
334.9137628444029815
 51
0.6072519228727242
  0
ARC
  5
1AAC5
  8
0
 10
4348.1280507212231896
 20
309.2812212138753125
 30
0.0
 40
0.003533969029613
 50
245.9078299941587034
 51
274.9399319619976154
  0
ARC
  5
1AAC6
  8
0
 10
4348.125860145732986
 20
309.2840354433772063
 30
0.0
 40
0.0060864906873474
 50
248.0630394978767015
 51
277.0591149055343863
  0
ARC
  5
1AAC7
  8
0
 10
4348.1589297017471836
 20
309.2882351719678127
 30
0.0
 40
0.0065393763575401
 50
275.3712767038697962
 51
325.8438855647410719
  0
ARC
  5
1AAC8
  8
0
 10
4348.1626934030382472
 20
309.2881709002419939
 30
0.0
 40
0.0071755313481391
 50
182.300687379191487
 51
243.9465992299305981
  0
ARC
  5
1AAC9
  8
0
 10
4348.1696808008609878
 20
309.2781155663528239
 30
0.0
 40
0.0154422518224973
 50
334.7793607121996047
 51
0.7416540550748746
  0
ARC
  5
1AACA
  8
0
 10
4348.1850935845077402
 20
309.2747616643293895
 30
0.0
 40
0.0035339660393665
 50
245.9078174417871878
 51
274.9399445144479728
  0
ARC
  5
1AACB
  8
0
 10
4348.1829004891469594
 20
309.278151148064012
 30
0.0
 40
0.0066580404769531
 50
267.8901076448057097
 51
276.4722673457873725
  0
LINE
  5
1AACC
  8
0
 10
4348.2283055607258575
 20
309.2890204522817044
 30
0.0
 11
4348.2213798763868908
 21
309.2781077337908755
 31
0.0
  0
ARC
  5
1AACD
  8
0
 10
4348.2197362660817817
 20
309.281711353233618
 30
0.0
 40
0.0071755305718815
 50
182.3006835650548965
 51
243.9466027813006122
  0
ARC
  5
1AACE
  8
0
 10
4348.2159219325203594
 20
309.2818485444976204
 30
0.0
 40
0.0066168584703982
 50
275.748682778302225
 51
325.5737178772818083
  0
ARC
  5
1AACF
  8
0
 10
4348.2267236632997083
 20
309.2716560199903029
 30
0.0
 40
0.0154422530803558
 50
334.7793619448258937
 51
0.7416531136054582
  0
ARC
  5
1AAD0
  8
0
 10
4348.2421364483980142
 20
309.268302118736699
 30
0.0
 40
0.0035339670267064
 50
245.9078215728044086
 51
274.9399400566931035
  0
ARC
  5
1AAD1
  8
0
 10
4348.2399433529108137
 20
309.2716915823352792
 30
0.0
 40
0.0066580213637092
 50
267.8901010280555965
 51
276.4722856048517201
  0
LINE
  5
1AAD2
  8
0
 10
4348.3114326676877681
 20
309.3237024318909221
 30
0.0
 11
4348.3049005193879566
 21
309.3133997131909041
 31
0.0
  0
ARC
  5
1AAD3
  8
0
 10
4348.2994891145426664
 20
309.3170712439745103
 30
0.0
 40
0.0065393761704405
 50
275.3712767621241255
 51
325.8438864992485833
  0
ARC
  5
1AAD4
  8
0
 10
4348.2838947227546669
 20
309.2859499274080122
 30
0.0
 40
0.0035339663127939
 50
245.907818589605597
 51
274.9399433666781079
  0
ARC
  5
1AAD5
  8
0
 10
4348.2817016274111666
 20
309.2893393917203184
 30
0.0
 40
0.0066580213486786
 50
267.8901010234146725
 51
276.4722854596851107
  0
ARC
  5
1AAD6
  8
0
 10
4348.2684819384703587
 20
309.2893038292809251
 30
0.0
 40
0.0154422524110251
 50
334.7793612155821279
 51
0.7416535517132563
  0
LINE
  5
1AAD7
  8
0
 10
4348.3114326675877237
 20
309.3237024318909221
 30
0.0
 11
4348.3048964252893711
 21
309.3134033525909103
 31
0.0
  0
ARC
  5
1AAD8
  8
0
 10
4348.2511349692058502
 20
309.3369788712757895
 30
0.0
 40
0.0060864904906932
 50
248.0630390191811898
 51
277.0591153841991741
  0
ARC
  5
1AAD9
  8
0
 10
4348.4705576664400724
 20
309.297794094829726
 30
0.0
 40
0.0066462313700683
 50
275.8046931977228837
 51
325.4104690173242034
  0
ARC
  5
1AADA
  8
0
 10
4348.4743814063122045
 20
309.2976283323538951
 30
0.0
 40
0.0071755306037478
 50
182.3006837168994991
 51
243.9466026294502967
  0
ARC
  5
1AADB
  8
0
 10
4348.4813688052536236
 20
309.2875729987459863
 30
0.0
 40
0.0154422513315833
 50
334.7793602923366052
 51
358.6570214942360053
  0
ARC
  5
1AADC
  8
0
 10
4348.4967815886629978
 20
309.2842190982300963
 30
0.0
 40
0.0035339674215751
 50
245.9078229563700972
 51
274.939940075941081
  0
ARC
  5
1AADD
  8
0
 10
4348.4945884945045691
 20
309.2876085430303874
 30
0.0
 40
0.0066580029189189
 50
267.8900840432036716
 51
276.4722913848082158
  0
ARC
  5
1AADE
  8
0
 10
4348.4858422558054372
 20
309.2736867389529039
 30
0.0
 40
0.0066462313864774
 50
275.8046926205087743
 51
325.4104678258526064
  0
ARC
  5
1AADF
  8
0
 10
4348.4896659958931195
 20
309.2735209766292996
 30
0.0
 40
0.0071755308950226
 50
182.3006858244899888
 51
243.9466013537534934
  0
ARC
  5
1AAE0
  8
0
 10
4348.4966533948390861
 20
309.2634656427841264
 30
0.0
 40
0.0154422510468597
 50
334.779360048785918
 51
0.7416547184870284
  0
ARC
  5
1AAE1
  8
0
 10
4348.5120661777400528
 20
309.2601117412194185
 30
0.0
 40
0.0035339663168894
 50
245.9078188944812098
 51
274.9399419857348903
  0
ARC
  5
1AAE2
  8
0
 10
4348.50987308376898
 20
309.2635011698728817
 30
0.0
 40
0.0066579857753952
 50
267.8900780534517025
 51
276.4723084298361186
  0
ARC
  5
1AAE3
  8
0
 10
4348.5111966157146526
 20
309.2395191112128146
 30
0.0
 40
0.016182372912479
 50
335.3827204269052231
 51
0.1382952571618647
  0
ARC
  5
1AAE4
  8
0
 10
4348.5273507670563049
 20
309.236004386169725
 30
0.0
 40
0.0035339671714397
 50
245.9078254714976026
 51
274.9399421777447969
  0
ARC
  5
1AAE5
  8
0
 10
4348.5251576730561283
 20
309.2393938316615731
 30
0.0
 40
0.0066580034516107
 50
267.8900837689702144
 51
276.4722915979426148
  0
ARC
  5
1AAE6
  8
0
 10
4348.5164114342505854
 20
309.2254720269884842
 30
0.0
 40
0.0066462313381068
 50
275.8046940022607032
 51
325.4104692591279218
  0
ARC
  5
1AAE7
  8
0
 10
4348.5202351742473184
 20
309.225306264693188
 30
0.0
 40
0.0071755307442758
 50
182.3006847849258065
 51
243.9466028665731869
  0
ARC
  5
1AAE8
  8
0
 10
4348.4701797102516139
 20
309.2217104773509959
 30
0.0
 40
0.0154422504354318
 50
334.7793595258278856
 51
0.7416552414470724
  0
ARC
  5
1AAE9
  8
0
 10
4348.4855924924686406
 20
309.2183565754987171
 30
0.0
 40
0.0035339659038727
 50
245.9078171607092997
 51
274.9399437195239102
  0
ARC
  5
1AAEA
  8
0
 10
4348.4833993971978998
 20
309.2217460579813064
 30
0.0
 40
0.0066580390972102
 50
267.8901067539511018
 51
276.4722682367665811
  0
ARC
  5
1AAEB
  8
0
 10
4348.5011228007106183
 20
309.2495862192440086
 30
0.0
 40
0.0066534425063625
 50
275.8333877370835125
 51
325.3817752730968778
  0
ARC
  5
1AAEC
  8
0
 10
4348.5049505850111018
 20
309.2494136206349253
 30
0.0
 40
0.0071755308099259
 50
182.300685097686312
 51
243.9466025538100098
  0
ARC
  5
1AAED
  8
0
 10
4348.4546242672231529
 20
309.2458765892984047
 30
0.0
 40
0.0157124442772257
 50
335.0063822416411767
 51
0.5146329365914228
  0
ARC
  5
1AAEE
  8
0
 10
4348.4703079033670292
 20
309.2424639330700984
 30
0.0
 40
0.0035339674696318
 50
245.9078267741240893
 51
274.9399415602380827
  0
ARC
  5
1AAEF
  8
0
 10
4348.4681148093022784
 20
309.2458533797681071
 30
0.0
 40
0.0066580049551801
 50
267.8900847080075778
 51
276.4722902823206141
  0
ARC
  5
1AAF0
  8
0
 10
4348.4440839810531543
 20
309.2560389297843813
 30
0.0
 40
0.0066462316422029
 50
275.804694571146797
 51
325.4104669215088848
  0
ARC
  5
1AAF1
  8
0
 10
4348.4479077211453841
 20
309.2558731670753218
 30
0.0
 40
0.0071755306374714
 50
182.3006838775908136
 51
243.9466024688358914
  0
ARC
  5
1AAF2
  8
0
 10
4348.3978522570187124
 20
309.2522773800159257
 30
0.0
 40
0.0154422506661293
 50
334.7793592773982141
 51
0.7416546188535649
  0
ARC
  5
1AAF3
  8
0
 10
4348.4132650399251361
 20
309.2489234795045263
 30
0.0
 40
0.0035339674645498
 50
245.9078203837161993
 51
274.9399341183546994
  0
ARC
  5
1AAF4
  8
0
 10
4348.4110719441468973
 20
309.2523129618384132
 30
0.0
 40
0.0066580404514462
 50
267.8901076283278258
 51
276.4722673622031834
  0
ARC
  5
1AAF5
  8
0
 10
4348.428799391940629
 20
309.2801462854292822
 30
0.0
 40
0.0066462313696462
 50
275.8046931960467987
 51
325.4104690189907956
  0
ARC
  5
1AAF6
  8
0
 10
4348.4326231320774241
 20
309.2799805231267101
 30
0.0
 40
0.007175530875405
 50
182.3006850111389099
 51
243.9466013352009099
  0
ARC
  5
1AAF7
  8
0
 10
4348.3825676665428546
 20
309.2763847360567979
 30
0.0
 40
0.0154422518406976
 50
334.7793607277966998
 51
0.7416540395218393
  0
ARC
  5
1AAF8
  8
0
 10
4348.4135148026516617
 20
309.3042536412851859
 30
0.0
 40
0.0066462313346096
 50
275.8046939883282107
 51
325.4104692730701913
  0
ARC
  5
1AAF9
  8
0
 10
4348.4173385431322458
 20
309.3040878793094066
 30
0.0
 40
0.0071755312413593
 50
182.3006871531879085
 51
243.9466004983154903
  0
ARC
  5
1AAFA
  8
0
 10
4348.3672830778059506
 20
309.3004920918345988
 30
0.0
 40
0.0154422512791915
 50
334.7793602475134094
 51
0.7416545197776571
  0
ARC
  5
1AAFB
  8
0
 10
4348.3826958611261944
 20
309.2971381912167885
 30
0.0
 40
0.0035339673032136
 50
245.907822747112192
 51
274.9399392090463152
  0
ARC
  5
1AAFC
  8
0
 10
4348.38050276560989
 20
309.3005276545458173
 30
0.0
 40
0.0066580213741335
 50
267.8901010399449092
 51
276.4722854433225052
  0
ARC
  5
1AAFD
  8
0
 10
4348.3565319784829626
 20
309.3106116970678272
 30
0.0
 40
0.0065393757430444
 50
275.3712749971135167
 51
325.8438882642830094
  0
ARC
  5
1AAFE
  8
0
 10
4348.3602956675276801
 20
309.310547418091403
 30
0.0
 40
0.0071755190335695
 50
182.3006285931764978
 51
243.9466577531939038
  0
ARC
  5
1AAFF
  8
0
 10
4348.3102402126605739
 20
309.3069516386510145
 30
0.0
 40
0.0154422527211016
 50
334.7793614698214242
 51
0.7416536476335038
  0
ARC
  5
1AB00
  8
0
 10
4348.3256529971704367
 20
309.3035977363986717
 30
0.0
 40
0.0035339659038968
 50
245.9078171607675074
 51
274.9399437193151812
  0
ARC
  5
1AB01
  8
0
 10
4348.3234624222141065
 20
309.3064119674046992
 30
0.0
 40
0.006086489129057
 50
248.0630337774634881
 51
277.0591168972773062
  0
ARC
  5
1AB02
  8
0
 10
4348.3255248030409348
 20
309.2828442826187825
 30
0.0
 40
0.0154422516420595
 50
334.7793601526873886
 51
0.7416538188269434
  0
ARC
  5
1AB03
  8
0
 10
4348.3409375867386188
 20
309.2794903821582011
 30
0.0
 40
0.0035339676337537
 50
245.9078240694265105
 51
274.9399369138207021
  0
ARC
  5
1AB04
  8
0
 10
4348.3387444924555894
 20
309.2828798272619792
 30
0.0
 40
0.0066580034520203
 50
267.8900837692308983
 51
276.4722917361337977
  0
ARC
  5
1AB05
  8
0
 10
4348.2462099509211839
 20
309.3234665184024266
 30
0.0
 40
0.0071755302054651
 50
182.3006826344922899
 51
243.9466045634237048
  0
ARC
  5
1AB06
  8
0
 10
4348.1961544877531196
 20
309.3198707310579039
 30
0.0
 40
0.0154422500379254
 50
334.779360033309672
 51
0.7416563481815396
  0
ARC
  5
1AB07
  8
0
 10
4348.2115672697091213
 20
309.3165168296288243
 30
0.0
 40
0.00353396603877
 50
245.9078174392807057
 51
274.9399445169585192
  0
ARC
  5
1AB08
  8
0
 10
4348.2093766950292775
 20
309.3193310629147277
 30
0.0
 40
0.0060864914820691
 50
248.0630395051209121
 51
277.0591111696793973
  0
ARC
  5
1AB09
  8
0
 10
4348.2006879762484459
 20
309.3058829813668922
 30
0.0
 40
0.0065393763563199
 50
275.3712768192269778
 51
325.843885566606275
  0
ARC
  5
1AB0A
  8
0
 10
4348.2044516770583868
 20
309.3058187093378137
 30
0.0
 40
0.0071755308567171
 50
182.3006851061533951
 51
243.9466016976132039
  0
ARC
  5
1AB0B
  8
0
 10
4348.1543962109662971
 20
309.3022229223818726
 30
0.0
 40
0.0154422524156303
 50
334.7793612195353035
 51
0.7416535477688209
  0
ARC
  5
1AB0C
  8
0
 10
4348.169808995373387
 20
309.2988690211000744
 30
0.0
 40
0.003533966901267
 50
245.9078207722174056
 51
274.9399422601243259
  0
ARC
  5
1AB0D
  8
0
 10
4348.1676184201287469
 20
309.3016832514038015
 30
0.0
 40
0.0060864893371991
 50
248.0630364500597977
 51
277.059117466518785
  0
ARC
  5
1AB0E
  8
0
 10
4348.1436451125064195
 20
309.3123425276402259
 30
0.0
 40
0.0065393761247921
 50
275.3712763440317985
 51
325.8438876503576012
  0
ARC
  5
1AB0F
  8
0
 10
4348.147408802071368
 20
309.312278248527889
 30
0.0
 40
0.0071755193850665
 50
182.3006303705734865
 51
243.9466561917780041
  0
ARC
  5
1AB10
  8
0
 10
4348.07101730080376
 20
309.2877367343781998
 30
0.0
 40
0.0035889500490719
 50
246.1349764741030128
 51
274.7127854822155086
  0
ARC
  5
1AB11
  8
0
 10
4348.0554358577073799
 20
309.2910691977563147
 30
0.0
 40
0.0156010498987329
 50
334.9137644808503183
 51
0.6072519006136403
  0
ARC
  5
1AB12
  8
0
 10
4348.0688172817017403
 20
309.2904949874481986
 30
0.0
 40
0.0060864882181983
 50
248.0630334874772984
 51
277.0591209157839785
  0
ARC
  5
1AB13
  8
0
 10
4348.0600288467821883
 20
309.2772154698980103
 30
0.0
 40
0.0067170503702813
 50
276.0835423347231767
 51
325.1316209266892088
  0
ARC
  5
1AB14
  8
0
 10
4348.0639283668861026
 20
309.27700619329039
 30
0.0
 40
0.0072125837360217
 50
182.4761484318138969
 51
243.771137914576201
  0
ARC
  5
1AB15
  8
0
 10
4348.0136775832070271
 20
309.2734213883563257
 30
0.0
 40
0.0156010498987896
 50
334.9137644809225094
 51
0.6072519005745597
  0
ARC
  5
1AB16
  8
0
 10
4348.029259026840009
 20
309.2700889281529157
 30
0.0
 40
0.0035889531690796
 50
246.1349891599788009
 51
274.712772796189995
  0
ARC
  5
1AB17
  8
0
 10
4348.0270590072041159
 20
309.2728471780584982
 30
0.0
 40
0.0060864882282002
 50
248.0630335119132894
 51
277.0591208915773791
  0
ARC
  5
1AB18
  8
0
 10
4351.8588740878758472
 20
306.812709360022609
 30
0.0
 40
4.6245597351715011
 50
147.5881918034179989
 51
147.6642358567341091
  0
ARC
  5
1AB19
  8
0
 10
4347.9714102811158227
 20
309.2558840021636115
 30
0.0
 40
0.0161092949954895
 50
335.3256733699050187
 51
0.1953413973750088
  0
ARC
  5
1AB1A
  8
0
 10
4347.9875007523032764
 20
309.2524411186394104
 30
0.0
 40
0.0035889530507336
 50
246.1349889530704047
 51
274.7127719271804267
  0
ARC
  5
1AB1B
  8
0
 10
4347.9852982127113137
 20
309.255774603220118
 30
0.0
 40
0.0066580213484124
 50
267.8901010233104216
 51
276.4722854599477273
  0
ARC
  5
1AB1C
  8
0
 10
4348.0183102498685912
 20
309.2595005898515979
 30
0.0
 40
0.0066462310802167
 50
275.8046923322680186
 51
325.4104691604305231
  0
ARC
  5
1AB1D
  8
0
 10
4348.0221700925258119
 20
309.2593583840869087
 30
0.0
 40
0.007212583884497
 50
182.4761499430858009
 51
243.7711372548378108
  0
ARC
  5
1AB1E
  8
0
 10
4348.0753625197721703
 20
309.253012472376497
 30
0.0
 40
0.0066168585536049
 50
275.7486831129170923
 51
325.5737175426557997
  0
ARC
  5
1AB1F
  8
0
 10
4348.0792129561859838
 20
309.2528988373903758
 30
0.0
 40
0.0072125837360297
 50
182.4761484318235887
 51
243.7711379145237061
  0
ARC
  5
1AB20
  8
0
 10
4348.0860050334176776
 20
309.242854486691499
 30
0.0
 40
0.0156010527790727
 50
334.9137660462286021
 51
0.6072487210548596
  0
ARC
  5
1AB21
  8
0
 10
4348.1015864794017034
 20
309.2395220242765959
 30
0.0
 40
0.0035889517337214
 50
246.1349866499176073
 51
274.7127816844027279
  0
ARC
  5
1AB22
  8
0
 10
4348.0993839407874475
 20
309.2428555032009854
 30
0.0
 40
0.0066580144085839
 50
267.8900934458825986
 51
276.4722872512401182
  0
ARC
  5
1AB23
  8
0
 10
4348.1171113881691781
 20
309.2706888526515741
 30
0.0
 40
0.0066462310802606
 50
275.8046923324251907
 51
325.410469160245384
  0
ARC
  5
1AB24
  8
0
 10
4348.1209712309128008
 20
309.2705466470603142
 30
0.0
 40
0.0072125840780947
 50
182.4761512546045026
 51
243.7711372484407093
  0
ARC
  5
1AB25
  8
0
 10
4348.1278372172209856
 20
309.2604862630013258
 30
0.0
 40
0.0155273266562477
 50
334.851716892428783
 51
0.6692978748633707
  0
ARC
  5
1AB26
  8
0
 10
4348.1433447543404327
 20
309.2571698350528777
 30
0.0
 40
0.0035889531690849
 50
246.1349891599801083
 51
274.712772796138097
  0
ARC
  5
1AB27
  8
0
 10
4348.1411422147102712
 20
309.2605033195720807
 30
0.0
 40
0.0066580214003068
 50
267.8901010568400238
 51
276.472285426435576
  0
ARC
  5
1AB28
  8
0
 10
4348.1741636582000865
 20
309.264200734790677
 30
0.0
 40
0.0066168581468515
 50
275.7486814770800265
 51
325.5737191784920128
  0
ARC
  5
1AB29
  8
0
 10
4348.177977980380092
 20
309.264063536525498
 30
0.0
 40
0.007175519087159
 50
182.3006288484799029
 51
243.9466574979103939
  0
ARC
  5
1AB2A
  8
0
 10
4348.1844689313320487
 20
309.2541159067773719
 30
0.0
 40
0.015937683473905
 50
335.1896009913530747
 51
0.3314141260927806
  0
ARC
  5
1AB2B
  8
0
 10
4348.1981896185943697
 20
309.2534840100818201
 30
0.0
 40
0.0061015956560652
 50
248.0997138648806128
 51
277.022440051625324
  0
ARC
  5
1AB2C
  8
0
 10
4348.3717565280512645
 20
309.2866058322888989
 30
0.0
 40
0.0066462316469061
 50
275.8046945898985882
 51
325.4104669027919954
  0
ARC
  5
1AB2D
  8
0
 10
4348.3755802567293358
 20
309.2864400621311916
 30
0.0
 40
0.0071755189357271
 50
182.3006289421579993
 51
243.9466582557425909
  0
ARC
  5
1AB2E
  8
0
 10
4348.3870411173693356
 20
309.2624984761262112
 30
0.0
 40
0.0066462314833685
 50
275.8046945809418844
 51
325.4104686804329845
  0
ARC
  5
1AB2F
  8
0
 10
4348.3908648466222076
 20
309.2623327066295928
 30
0.0
 40
0.0071755196438486
 50
182.3006318992229922
 51
243.9466557522717949
  0
ARC
  5
1AB30
  8
0
 10
4348.3408093921652835
 20
309.25873692659178
 30
0.0
 40
0.0154422517192863
 50
334.7793607907913724
 51
0.741654286362981
  0
ARC
  5
1AB31
  8
0
 10
4348.3562221759566455
 20
309.2553830258723906
 30
0.0
 40
0.0035339672650969
 50
245.9078222846810888
 51
274.9399403992874795
  0
ARC
  5
1AB32
  8
0
 10
4348.3540290804112374
 20
309.2587724892358096
 30
0.0
 40
0.0066580213640794
 50
267.8901010283685196
 51
276.4722856150257826
  0
LINE
  5
1AB33
  8
0
 10
4348.3576754661353334
 20
309.2519939559911109
 30
0.0
 11
4348.3507542871875557
 21
309.2410776454909183
 31
0.0
  0
ARC
  5
1AB34
  8
0
 10
4348.3452828435765696
 20
309.2448506656306222
 30
0.0
 40
0.0066462302223294
 50
275.8046895571350774
 51
325.4104737042687816
  0
ARC
  5
1AB35
  8
0
 10
4348.3491065828420687
 20
309.2446849042128179
 30
0.0
 40
0.0071755305361847
 50
182.3006842101326868
 51
243.9466029877447966
  0
ARC
  5
1AB36
  8
0
 10
4348.3560939807994146
 20
309.2346295708748016
 30
0.0
 40
0.015442252383224
 50
334.7793611918074248
 51
0.741653575484081
  0
LINE
  5
1AB37
  8
0
 10
4348.4021881981880142
 20
309.2312386369910087
 30
0.0
 11
4348.371811080288353
 21
309.2277548295908787
 31
0.0
  0
LINE
  5
1AB38
  8
0
 10
4348.3670423609892168
 20
309.2284441001909272
 30
0.0
 11
4348.3451453344869151
 21
309.2376981834909202
 31
0.0
  0
ARC
  5
1AB39
  8
0
 10
4348.3715067652656217
 20
309.2312756701469993
 30
0.0
 40
0.0035339674381621
 50
245.9078230260114992
 51
274.9399400063758776
  0
ARC
  5
1AB3A
  8
0
 10
4348.3693312005107146
 20
309.2342048634537832
 30
0.0
 40
0.0061988047017666
 50
248.331317114931295
 51
276.7908368015663996
  0
ARC
  5
1AB3B
  8
0
 10
4348.3605674322516279
 20
309.2207433106851227
 30
0.0
 40
0.0066462313345374
 50
275.8046939880661057
 51
325.4104692733600928
  0
ARC
  5
1AB3C
  8
0
 10
4348.3643911611279691
 20
309.2205775410214983
 30
0.0
 40
0.0071755192379079
 50
182.3006295667036909
 51
243.9466567796517893
  0
ARC
  5
1AB3D
  8
0
 10
4348.3713785713880497
 20
309.2105222147586119
 30
0.0
 40
0.0154422510964524
 50
334.7793594302070801
 51
0.7416544396351511
  0
ARC
  5
1AB3E
  8
0
 10
4348.386791354367233
 20
309.2071683142693814
 30
0.0
 40
0.0035339674689622
 50
245.9078267713250909
 51
274.9399415631144166
  0
ARC
  5
1AB3F
  8
0
 10
4348.3845982595867099
 20
309.2105577703874246
 30
0.0
 40
0.0066580143950853
 50
267.8900932797989753
 51
276.4722872638798208
  0
ARC
  5
1AB40
  8
0
 10
4348.4176102964393067
 20
309.2142837635556134
 30
0.0
 40
0.0066462306590626
 50
275.8046903651826938
 51
325.4104718499028763
  0
ARC
  5
1AB41
  8
0
 10
4348.4214340245816857
 20
309.2141179943656084
 30
0.0
 40
0.0071755189898189
 50
182.3006291998563029
 51
243.9466579980322081
  0
ARC
  5
1AB42
  8
0
 10
4348.4284214351901028
 20
309.2040626678667081
 30
0.0
 40
0.0154422509971616
 50
334.7793608537596128
 51
0.7416555277384073
  0
ARC
  5
1AB43
  8
0
 10
4348.4438342182356791
 20
309.2007087669858834
 30
0.0
 40
0.0035339667820596
 50
245.9078205594157964
 51
274.9399413967340138
  0
ARC
  5
1AB44
  8
0
 10
4348.4416411241063543
 20
309.2040982143909105
 30
0.0
 40
0.0066580048780937
 50
267.8900846583127873
 51
276.4722903321952003
  0
ARC
  5
1AB45
  8
0
 10
4348.4746625661191501
 20
309.2077956463980968
 30
0.0
 40
0.0066168584709353
 50
275.7486827804494851
 51
325.5737178751429042
  0
ARC
  5
1AB46
  8
0
 10
4348.4784768998870277
 20
309.2076584553844896
 30
0.0
 40
0.0071755308878941
 50
182.3006854691371075
 51
243.9466021823450887
  0
ARC
  5
1AB47
  8
0
 10
4348.485464297937142
 20
309.1976031217707828
 30
0.0
 40
0.0154422520459084
 50
334.7793610356632144
 51
0.7416539775220523
  0
ARC
  5
1AB48
  8
0
 10
4348.500877081803992
 20
309.1942492196100147
 30
0.0
 40
0.0035339659207039
 50
245.9078169326060959
 51
274.9399447485628798
  0
ARC
  5
1AB49
  8
0
 10
4348.4986839865123329
 20
309.1976386843361979
 30
0.0
 40
0.0066580213645616
 50
267.8901010286292035
 51
276.4722855794682914
  0
ARC
  5
1AB4A
  8
0
 10
4348.5179651236976497
 20
309.2020483207487018
 30
0.0
 40
0.0122919051017743
 50
316.8694993788993202
 51
357.1883005503053141
  0
ARC
  5
1AB4B
  8
0
 10
4348.5001605970528544
 20
309.1773905061824053
 30
0.0
 40
0.0067895645895228
 50
292.1723504708650125
 51
4.5557985891291306
  0
ARC
  5
1AB4C
  8
0
 10
4348.4678521549503785
 20
309.1561226017830109
 30
0.0
 40
0.005853987348033
 50
275.7215530962802177
 51
5.5241299070629566
  0
ARC
  5
1AB4D
  8
0
 10
4348.4265223062111545
 20
309.1388356127557131
 30
0.0
 40
0.0060400477238462
 50
268.1146660910346782
 51
359.3520342411146089
  0
ARC
  5
1AB4E
  8
0
 10
4348.4481888808722942
 20
309.1660404811769922
 30
0.0
 40
0.0066168585541353
 50
275.7486831150644093
 51
325.5737175405275252
  0
ARC
  5
1AB4F
  8
0
 10
4348.4520393172861077
 20
309.165926846190473
 30
0.0
 40
0.0072125837360249
 50
182.4761484317976112
 51
243.771137914519386
  0
ARC
  5
1AB50
  8
0
 10
4348.4019477515103063
 20
309.1623075023823048
 30
0.0
 40
0.0154422494813003
 50
334.7793589777003831
 51
0.7416562846081332
  0
ARC
  5
1AB51
  8
0
 10
4348.4173605329087877
 20
309.1589536009346944
 30
0.0
 40
0.0035339660445755
 50
245.9078174635968139
 51
274.9399444925326179
  0
ARC
  5
1AB52
  8
0
 10
4348.4151674381855628
 20
309.1623430586012091
 30
0.0
 40
0.0066580144088295
 50
267.8900932851699963
 51
276.4722872509786953
  0
ARC
  5
1AB53
  8
0
 10
4348.4064212001258056
 20
309.1484212431860783
 30
0.0
 40
0.0066462315270096
 50
275.8046931804374253
 51
325.4104672659980793
  0
ARC
  5
1AB54
  8
0
 10
4348.4102449402871571
 20
309.148255480737987
 30
0.0
 40
0.0071755308900798
 50
182.3006858961890089
 51
243.9466013017301123
  0
ARC
  5
1AB55
  8
0
 10
4348.4437060244872555
 20
309.1799553121734903
 30
0.0
 40
0.0154422509984841
 50
334.7793600074234064
 51
0.7416547598723254
  0
ARC
  5
1AB56
  8
0
 10
4348.4591188074182355
 20
309.1766014110813217
 30
0.0
 40
0.0035339667704617
 50
245.9078207984805999
 51
274.9399400817467836
  0
ARC
  5
1AB57
  8
0
 10
4348.4569257120110706
 20
309.1799908749198948
 30
0.0
 40
0.0066580213482545
 50
267.890101023206114
 51
276.4722854600523192
  0
ARC
  5
1AB58
  8
0
 10
4348.4899377490528423
 20
309.1837168616851272
 30
0.0
 40
0.006646231334557
 50
275.8046939881189132
 51
325.4104692732850026
  0
ARC
  5
1AB59
  8
0
 10
4348.4937614892996862
 20
309.1835510995580876
 30
0.0
 40
0.0071755310035101
 50
182.3006860199652124
 51
243.9466016314858905
  0
ARC
  5
1AB5A
  8
0
 10
4348.4328948852589747
 20
309.1901764083673925
 30
0.0
 40
0.0066462315152694
 50
275.8046937761943127
 51
325.4104684388707938
  0
ARC
  5
1AB5B
  8
0
 10
4348.4367186142117134
 20
309.190010638576382
 30
0.0
 40
0.0071755193243608
 50
182.3006299785776037
 51
243.9466563677638078
  0
ARC
  5
1AB5C
  8
0
 10
4348.3758614280013717
 20
309.1966073832908251
 30
0.0
 40
0.0066168581468364
 50
275.7486814770275032
 51
325.5737191785216282
  0
ARC
  5
1AB5D
  8
0
 10
4348.3797265250295823
 20
309.196503314597976
 30
0.0
 40
0.0072276496811679
 50
182.5468883543809113
 51
243.7003979919986136
  0
ARC
  5
1AB5E
  8
0
 10
4348.3866631606942974
 20
309.1864148584659802
 30
0.0
 40
0.0154422509945623
 50
334.7793608515227106
 51
0.74165552996335
  0
LINE
  5
1AB5F
  8
0
 10
4348.3423908768463662
 20
309.2761013119065865
 30
0.0
 11
4348.3354696978876746
 21
309.2651850013908756
 31
0.0
  0
ARC
  5
1AB60
  8
0
 10
4348.3299982542821454
 20
309.2689580215209162
 30
0.0
 40
0.0066462302121347
 50
275.804689516541373
 51
325.4104737449179083
  0
ARC
  5
1AB61
  8
0
 10
4348.3338219936122186
 20
309.2687922601538162
 30
0.0
 40
0.0071755306036012
 50
182.3006837161802878
 51
243.9466026301977024
  0
ARC
  5
1AB62
  8
0
 10
4348.283766528185879
 20
309.2651964732659735
 30
0.0
 40
0.0154422519972538
 50
334.7793605796338738
 51
0.741653997993251
  0
ARC
  5
1AB63
  8
0
 10
4348.2991793121909723
 20
309.261842573410604
 30
0.0
 40
0.0035339681967014
 50
245.9078298262195972
 51
274.9399385082182903
  0
ARC
  5
1AB64
  8
0
 10
4348.2969862180070777
 20
309.2652320192389084
 30
0.0
 40
0.0066580048261622
 50
267.8900846247310028
 51
276.4722903656025892
  0
ARC
  5
1AB65
  8
0
 10
4348.2729553899516759
 20
309.2754175690851071
 30
0.0
 40
0.0066462313345468
 50
275.8046939880663899
 51
325.4104692733359911
  0
ARC
  5
1AB66
  8
0
 10
4348.2767791304013372
 20
309.2752518070894894
 30
0.0
 40
0.0071755312099385
 50
182.3006870034855069
 51
243.9466006480741953
  0
LINE
  5
1AB67
  8
0
 10
4348.2853480131379911
 20
309.2825608585025066
 30
0.0
 11
4348.2784268341883944
 21
309.2716445478909009
 31
0.0
  0
LINE
  5
1AB68
  8
0
 10
4348.3006314682343145
 20
309.2584517138643037
 30
0.0
 11
4348.2937114234882756
 21
309.2475371919908866
 31
0.0
  0
ARC
  5
1AB69
  8
0
 10
4348.2882399792415526
 20
309.2513102132259064
 30
0.0
 40
0.0066462313660286
 50
275.8046931816426763
 51
325.4104690334190195
  0
ARC
  5
1AB6A
  8
0
 10
4348.2920637078495929
 20
309.2511444434049963
 30
0.0
 40
0.007175519054846
 50
182.3006286945212082
 51
243.9466576518026102
  0
ARC
  5
1AB6B
  8
0
 10
4348.2990511204743598
 20
309.2410891166207989
 30
0.0
 40
0.0154422489172836
 50
334.779358227362593
 51
0.741656539939945
  0
ARC
  5
1AB6C
  8
0
 10
4348.3144639018091766
 20
309.2377352186712756
 30
0.0
 40
0.0035339694167881
 50
245.9078316055405082
 51
274.9399300177349232
  0
ARC
  5
1AB6D
  8
0
 10
4348.3122708072569367
 20
309.241124662049117
 30
0.0
 40
0.0066580035391465
 50
267.8900837885768738
 51
276.4722913545479059
  0
ARC
  5
1AB6E
  8
0
 10
4348.257292842264178
 20
309.2234413080503828
 30
0.0
 40
0.0154422527183251
 50
334.7793614674429818
 51
0.7416536499952244
  0
ARC
  5
1AB6F
  8
0
 10
4348.2727056268104207
 20
309.2200874059346916
 30
0.0
 40
0.0035339660445376
 50
245.9078174635359062
 51
274.9399444927938134
  0
ARC
  5
1AB70
  8
0
 10
4348.2705125314587349
 20
309.2234768718768123
 30
0.0
 40
0.0066580227023516
 50
267.8901018975828947
 51
276.472284585698219
  0
LINE
  5
1AB71
  8
0
 10
4348.2741589171300802
 20
309.2166983372896993
 30
0.0
 11
4348.2672377381877595
 21
309.2057820266909971
 31
0.0
  0
ARC
  5
1AB72
  8
0
 10
4348.2617662941820527
 20
309.2095550474953143
 30
0.0
 40
0.0066462309233491
 50
275.8046923499196055
 51
325.4104709114722027
  0
ARC
  5
1AB73
  8
0
 10
4348.2655900226291124
 20
309.2093892780915212
 30
0.0
 40
0.0071755190336082
 50
182.3006285933327035
 51
243.9466577530118911
  0
ARC
  5
1AB74
  8
0
 10
4348.2725774328537227
 20
309.199333951845972
 30
0.0
 40
0.0154422513314726
 50
334.7793602922317859
 51
0.7416544750601682
  0
ARC
  5
1AB75
  8
0
 10
4348.2879902166150714
 20
309.1959800535220211
 30
0.0
 40
0.0035339695663563
 50
245.9078322473762057
 51
274.9399297089291281
  0
ARC
  5
1AB76
  8
0
 10
4348.2857971207586161
 20
309.1993695138907015
 30
0.0
 40
0.0066580207175776
 50
267.8901012659957814
 51
276.4722856549881271
  0
ARC
  5
1AB77
  8
0
 10
4348.2770508832527412
 20
309.1854476919846775
 30
0.0
 40
0.006646231334112
 50
275.8046939863377247
 51
325.4104692750295271
  0
ARC
  5
1AB78
  8
0
 10
4348.2809107259863595
 20
309.1853054858905239
 30
0.0
 40
0.0072125837360427
 50
182.4761484318887028
 51
243.7711379144597004
  0
ARC
  5
1AB79
  8
0
 10
4348.287776712599225
 20
309.1752451019841033
 30
0.0
 40
0.0155273265794432
 50
334.8517172632776919
 51
0.6692983107951728
  0
ARC
  5
1AB7A
  8
0
 10
4348.3032842493457792
 20
309.1719286735279866
 30
0.0
 40
0.0035889524790306
 50
246.1349894061941086
 51
274.7127800042648005
  0
ARC
  5
1AB7B
  8
0
 10
4348.301081710010294
 20
309.1752621585475254
 30
0.0
 40
0.0066580212758568
 50
267.8901010080838887
 51
276.4722859834479891
  0
ARC
  5
1AB7C
  8
0
 10
4348.292344879087068
 20
309.161311764744994
 30
0.0
 40
0.006616858301686
 50
275.7486814591156872
 51
325.5737174282152182
  0
ARC
  5
1AB7D
  8
0
 10
4348.2960016537917909
 20
309.1610717697478208
 30
0.0
 40
0.0070146343358411
 50
181.5132934702660918
 51
244.7339937276304909
  0
ARC
  5
1AB7E
  8
0
 10
4348.3030613028886364
 20
309.151137745969379
 30
0.0
 40
0.015527325589924
 50
334.8517159906310781
 51
0.6692987766762777
  0
ARC
  5
1AB7F
  8
0
 10
4348.3185688384028253
 20
309.1478213150780903
 30
0.0
 40
0.0035889500490579
 50
246.1349764740486989
 51
274.7127854822676909
  0
ARC
  5
1AB80
  8
0
 10
4348.3163662999977532
 20
309.1511547759681093
 30
0.0
 40
0.0066579946894475
 50
267.8900868278288954
 51
276.472305530600579
  0
ARC
  5
1AB81
  8
0
 10
4348.3493877427627012
 20
309.154852218031408
 30
0.0
 40
0.0066168582011945
 50
275.7486826303994008
 51
325.5737190734287196
  0
ARC
  5
1AB82
  8
0
 10
4348.3532381793029344
 20
309.1547385836490776
 30
0.0
 40
0.0072125840639164
 50
182.4761503754332068
 51
243.7711372760379049
  0
ARC
  5
1AB83
  8
0
 10
4348.3601894775893015
 20
309.1446596929188217
 30
0.0
 40
0.0154422489027646
 50
334.7793586454251908
 51
0.7416565479265144
  0
ARC
  5
1AB84
  8
0
 10
4348.3756117022203398
 20
309.1413617688535282
 30
0.0
 40
0.0035889503222026
 50
246.1349772410239041
 51
274.7127848664840144
  0
ARC
  5
1AB85
  8
0
 10
4348.3734091630467447
 20
309.144695275338222
 30
0.0
 40
0.0066580404512991
 50
267.8901076282234044
 51
276.4722673623077753
  0
ARC
  5
1AB86
  8
0
 10
4348.3775698984518385
 20
309.1246285311884208
 30
0.0
 40
0.0061273673998437
 50
258.5092484770926262
 51
352.4641000508606226
  0
ARC
  5
1AB87
  8
0
 10
4348.3646723319543526
 20
309.130744862470408
 30
0.0
 40
0.0066168585393686
 50
275.7486824149863764
 51
325.5737164723233832
  0
ARC
  5
1AB88
  8
0
 10
4348.3684874143300476
 20
309.1306081597431898
 30
0.0
 40
0.0071762984474998
 50
182.3043414814538892
 51
243.9429448648762957
  0
ARC
  5
1AB89
  8
0
 10
4348.3183458920093472
 20
309.1270303901550278
 30
0.0
 40
0.0155273257698874
 50
334.8517155661078846
 51
0.6692984531667695
  0
ARC
  5
1AB8A
  8
0
 10
4348.3338534282393084
 20
309.123713962352781
 30
0.0
 40
0.0035889531690625
 50
246.1349891599788009
 51
274.7127727962949848
  0
ARC
  5
1AB8B
  8
0
 10
4348.3316508899142718
 20
309.1270474126075101
 30
0.0
 40
0.006657987207029
 50
267.8900789777837872
 51
276.4723075052926902
  0
ARC
  5
1AB8C
  8
0
 10
4348.3241523701517508
 20
309.115195762461326
 30
0.0
 40
0.0067080678764434
 50
275.9841848160044719
 51
324.1859758578527249
  0
ARC
  5
1AB8D
  8
0
 10
4348.3234412703877751
 20
309.1127136895178751
 30
0.0
 40
0.004420493307738
 50
186.7730377259090062
 51
288.6066302023924095
  0
ARC
  5
1AB8E
  8
0
 10
4348.2869145437325642
 20
309.1108094280169212
 30
0.0
 40
0.0067556050942261
 50
245.7531517428614904
 51
347.0785671801335184
  0
LINE
  5
1AB8F
  8
0
 10
4348.2782544105311899
 20
309.1267284601905772
 30
0.0
 11
4348.2713332315879597
 21
309.1158121495909086
 31
0.0
  0
ARC
  5
1AB90
  8
0
 10
4348.2613883369531322
 20
309.1334714306460114
 30
0.0
 40
0.015442251331501
 50
334.7793602922495211
 51
0.7416544750341153
  0
ARC
  5
1AB91
  8
0
 10
4348.2768105641462171
 20
309.1301735082279833
 30
0.0
 40
0.0035889524790063
 50
246.1349894061345083
 51
274.7127800043695061
  0
ARC
  5
1AB92
  8
0
 10
4348.2746080248116414
 20
309.1335069932944748
 30
0.0
 40
0.0066580213228663
 50
267.890101006832424
 51
276.4722854764669933
  0
ARC
  5
1AB93
  8
0
 10
4348.2658617879769736
 20
309.1195851697299872
 30
0.0
 40
0.0066462302216862
 50
275.8046895545684833
 51
325.4104737067862061
  0
ARC
  5
1AB94
  8
0
 10
4348.2697216297374325
 20
309.1194429644680213
 30
0.0
 40
0.0072125833823556
 50
182.476147579601502
 51
243.7711396183489114
  0
LINE
  5
1AB95
  8
0
 10
4348.2625157806878633
 20
309.1314364668908752
 30
0.0
 11
4348.2625157806878633
 21
309.1191313557910121
 31
0.0
  0
LINE
  5
1AB96
  8
0
 10
4348.2350710200880712
 20
309.1347774838295095
 30
0.0
 11
4348.2350710200880712
 21
309.1160235050908796
 31
0.0
  0
ARC
  5
1AB97
  8
0
 10
4348.2461037467746792
 20
309.157578786649708
 30
0.0
 40
0.0154422522088531
 50
334.7793614260555159
 51
0.7416540480620332
  0
ARC
  5
1AB98
  8
0
 10
4348.2615259747835808
 20
309.1542808635679194
 30
0.0
 40
0.0035889519176612
 50
246.1349873115304092
 51
274.7127801338843938
  0
ARC
  5
1AB99
  8
0
 10
4348.2593234369051061
 20
309.1576143306185145
 30
0.0
 40
0.0066580027071919
 50
267.8900839751016747
 51
276.4722919816264834
  0
ARC
  5
1AB9A
  8
0
 10
4348.250586604601267
 20
309.1436639551901067
 30
0.0
 40
0.0066168581460981
 50
275.7486814740424279
 51
325.5737191815354095
  0
ARC
  5
1AB9B
  8
0
 10
4348.2544370407849783
 20
309.1435503205905206
 30
0.0
 40
0.0072125837360344
 50
182.4761484318366911
 51
243.7711379144683121
  0
ARC
  5
1AB9C
  8
0
 10
4348.2196300623572824
 20
309.1158236212622796
 30
0.0
 40
0.0154422514287104
 50
334.7793608269902279
 51
0.741654780766884
  0
ARC
  5
1AB9D
  8
0
 10
4348.2350522894830647
 20
309.1125256965260064
 30
0.0
 40
0.0035889501899621
 50
246.1349770162912876
 51
274.7127840287416802
  0
ARC
  5
1AB9E
  8
0
 10
4348.2328497503503968
 20
309.1158592010742154
 30
0.0
 40
0.0066580383887883
 50
267.8901069464723719
 51
276.4722684817870118
  0
ARC
  5
1AB9F
  8
0
 10
4348.2289231069762536
 20
309.1066362625854254
 30
0.0
 40
0.0050955876101264
 50
267.7047159651535253
 51
324.2895894323185075
  0
ARC
  5
1ABA0
  8
0
 10
4348.2281775513611137
 20
309.1063149690319278
 30
0.0
 40
0.0048008399214771
 50
187.5887404767015028
 51
276.4760866077526771
  0
LINE
  5
1ABA1
  8
0
 10
4348.2234179210881848
 20
309.1126643175908839
 30
0.0
 11
4348.2234187595404364
 21
309.1056809624391235
 31
0.0
  0
LINE
  5
1ABA2
  8
0
 10
4348.2364961629564277
 20
309.1090806538887819
 30
0.0
 11
4348.2330605010893123
 21
309.1036621628909984
 31
0.0
  0
ARC
  5
1ABA3
  8
0
 10
4348.1693777059572312
 20
309.1078177321198268
 30
0.0
 40
0.0043819718869522
 50
262.4711767694400919
 51
324.2238051925089053
  0
ARC
  5
1ABA4
  8
0
 10
4348.1687966828749268
 20
309.108518434316295
 30
0.0
 40
0.0050449022106422
 50
182.167965230111605
 51
270.0780863468502844
  0
ARC
  5
1ABA5
  8
0
 10
4348.1126246348885616
 20
309.1136163974761075
 30
0.0
 40
0.0037832783828572
 50
256.7996065861410102
 51
323.9805077401327935
  0
ARC
  5
1ABA6
  8
0
 10
4348.1123595161443518
 20
309.1153144070382837
 30
0.0
 40
0.0054145388847198
 50
181.6621156859627035
 51
263.6503785398627997
  0
LINE
  5
1ABA7
  8
0
 10
4348.1224104318398531
 20
309.1219997464777975
 30
0.0
 11
4348.1156844532879404
 21
309.1113919041910094
 31
0.0
  0
ARC
  5
1ABA8
  8
0
 10
4348.0586965931852319
 20
309.1239645962588156
 30
0.0
 40
0.0032361137866071
 50
250.0124857646900978
 51
323.3786307231324031
  0
ARC
  5
1ABA9
  8
0
 10
4348.0589339149928492
 20
309.1266861497300056
 30
0.0
 40
0.0059172779138917
 50
181.5224715194520115
 51
256.8769701133833223
  0
ARC
  5
1ABAA
  8
0
 10
4348.0485014701698674
 20
309.1352022611807797
 30
0.0
 40
0.015442252410863
 50
334.7793612154302991
 51
0.7416535518272378
  0
ARC
  5
1ABAB
  8
0
 10
4348.0639236982042348
 20
309.1319043359781062
 30
0.0
 40
0.0035889500490278
 50
246.1349764738224906
 51
274.7127854822679183
  0
ARC
  5
1ABAC
  8
0
 10
4348.061721159058834
 20
309.135237825002207
 30
0.0
 40
0.0066580227276848
 50
267.8901019139565847
 51
276.4722845693356135
  0
ARC
  5
1ABAD
  8
0
 10
4348.0947331959559961
 20
309.1389638107401083
 30
0.0
 40
0.0066462316973851
 50
275.8046945017449048
 51
325.4104677133228734
  0
ARC
  5
1ABAE
  8
0
 10
4348.0985930387860208
 20
309.1388216042905128
 30
0.0
 40
0.0072125837360142
 50
182.4761484317716054
 51
243.7711379145806063
  0
ARC
  5
1ABAF
  8
0
 10
4348.1055443343611842
 20
309.1287427144209801
 30
0.0
 40
0.0154422519247197
 50
334.7793610373913111
 51
0.7416545394347022
  0
ARC
  5
1ABB0
  8
0
 10
4348.1209665625310663
 20
309.1254447929048865
 30
0.0
 40
0.0035889535123966
 50
246.1349905073221009
 51
274.7127708863555995
  0
ARC
  5
1ABB1
  8
0
 10
4348.1187640241560075
 20
309.1287782591617201
 30
0.0
 40
0.0066580034517796
 50
267.890083768970328
 51
276.4722915387329181
  0
ARC
  5
1ABB2
  8
0
 10
4348.1517760598699169
 20
309.132504263622593
 30
0.0
 40
0.0066462311711161
 50
275.8046939795808044
 51
325.4104710505528146
  0
ARC
  5
1ABB3
  8
0
 10
4348.1556359031610555
 20
309.1323620581827072
 30
0.0
 40
0.0072125844317566
 50
182.4761521068168122
 51
243.7711355446809876
  0
ARC
  5
1ABB4
  8
0
 10
4348.1625871982578246
 20
309.1222831679448859
 30
0.0
 40
0.0154422518262248
 50
334.7793607558695044
 51
0.7416540844614526
  0
ARC
  5
1ABB5
  8
0
 10
4348.1780094258347162
 20
309.1189852447357111
 30
0.0
 40
0.0035889517981336
 50
246.1349866143580982
 51
274.7127826750839859
  0
ARC
  5
1ABB6
  8
0
 10
4348.1758068866101894
 20
309.1223187304477733
 30
0.0
 40
0.0066580212761741
 50
267.8901010082923904
 51
276.4722855796779868
  0
ARC
  5
1ABB7
  8
0
 10
4348.208828329960852
 20
309.1260161462188876
 30
0.0
 40
0.0066168585869328
 50
275.7486823121773227
 51
325.5737172951086791
  0
ARC
  5
1ABB8
  8
0
 10
4348.2126787662864444
 20
309.1259025111904748
 30
0.0
 40
0.0072125837360277
 50
182.4761484318106
 51
243.7711379145237061
  0
ARC
  5
1ABB9
  8
0
 10
4348.2043454760969325
 20
309.139930976571975
 30
0.0
 40
0.0154422483964345
 50
334.7793579354972167
 51
0.7416571171385877
  0
ARC
  5
1ABBA
  8
0
 10
4348.2197677007043239
 20
309.1366330553394164
 30
0.0
 40
0.0035889530507353
 50
246.1349889530715984
 51
274.7127719271804267
  0
ARC
  5
1ABBB
  8
0
 10
4348.2175651610596105
 20
309.1399665412769195
 30
0.0
 40
0.0066580227024845
 50
267.890101897635077
 51
276.4722845855935134
  0
ARC
  5
1ABBC
  8
0
 10
4348.2352926091298286
 20
309.1677998821805886
 30
0.0
 40
0.0066462307944836
 50
275.8046911939201209
 51
325.41047029876529
  0
ARC
  5
1ABBD
  8
0
 10
4348.2391524516251593
 20
309.167657676686872
 30
0.0
 40
0.007212583884501
 50
182.4761499430987897
 51
243.7711372548378108
  0
ARC
  5
1ABBE
  8
0
 10
4348.2308191584470478
 20
309.1816861425871252
 30
0.0
 40
0.0154422513373654
 50
334.7793597425427947
 51
0.7416543220876065
  0
ARC
  5
1ABBF
  8
0
 10
4348.2462413860257584
 20
309.1783882227422282
 30
0.0
 40
0.0035889551363783
 50
246.1350004298977012
 51
274.7127672254301274
  0
ARC
  5
1ABC0
  8
0
 10
4348.2440388476052249
 20
309.1817216866064086
 30
0.0
 40
0.0066580027950286
 50
267.8900839949690749
 51
276.4722918066710804
  0
ARC
  5
1ABC1
  8
0
 10
4348.2200080195516421
 20
309.1919072384852143
 30
0.0
 40
0.0066462313345893
 50
275.8046939882235051
 51
325.4104692731455089
  0
ARC
  5
1ABC2
  8
0
 10
4348.2238678625026296
 20
309.191765032649073
 30
0.0
 40
0.0072125840639017
 50
182.4761503753680927
 51
243.7711372760932989
  0
ARC
  5
1ABC3
  8
0
 10
4348.1737762936882064
 20
309.1881456891957214
 30
0.0
 40
0.0154422522947527
 50
334.7793613840693752
 51
0.741653873481714
  0
ARC
  5
1ABC4
  8
0
 10
4348.1891985222282528
 20
309.1848477675619051
 30
0.0
 40
0.0035889534697363
 50
246.1349902888514976
 51
274.7127709825114152
  0
ARC
  5
1ABC5
  8
0
 10
4348.1869959825089609
 20
309.1881812514723151
 30
0.0
 40
0.0066580211007247
 50
267.8901009685574763
 51
276.4722859988668233
  0
ARC
  5
1ABC6
  8
0
 10
4348.1890608828689437
 20
309.1640383333813134
 30
0.0
 40
0.0154422524128822
 50
334.7793612171641939
 51
0.7416535501142583
  0
ARC
  5
1ABC7
  8
0
 10
4348.2044831109387815
 20
309.1607404082914741
 30
0.0
 40
0.0035889501673531
 50
246.134976680725714
 51
274.7127863514342039
  0
ARC
  5
1ABC8
  8
0
 10
4348.2022805718115706
 20
309.1640738957941039
 30
0.0
 40
0.0066580213224942
 50
267.8901010065716832
 51
276.4722854766774276
  0
ARC
  5
1ABC9
  8
0
 10
4348.1935437407064455
 20
309.1501235020426748
 30
0.0
 40
0.0066168585065448
 50
275.7486819888748073
 51
325.5737176184143777
  0
ARC
  5
1ABCA
  8
0
 10
4348.1973588233722694
 20
309.1499867995657951
 30
0.0
 40
0.007176298797369
 50
182.3043431479217134
 51
243.9429431984241887
  0
ARC
  5
1ABCB
  8
0
 10
4348.1473026084540834
 20
309.1463905238995835
 30
0.0
 40
0.015442252328583
 50
334.7793614220198037
 51
0.7416538570135699
  0
ARC
  5
1ABCC
  8
0
 10
4348.1627248370277812
 20
309.1430926022733843
 30
0.0
 40
0.003588953481243
 50
246.1349903772243977
 51
274.7127709565249916
  0
ARC
  5
1ABCD
  8
0
 10
4348.1605222973103082
 20
309.1464260863476738
 30
0.0
 40
0.0066580212760886
 50
267.8901010082923904
 51
276.4722858210798222
  0
ARC
  5
1ABCE
  8
0
 10
4348.1364914705527553
 20
309.1566116197847123
 30
0.0
 40
0.0066462313341187
 50
275.804693986389907
 51
325.4104692750187269
  0
ARC
  5
1ABCF
  8
0
 10
4348.1403513135019239
 20
309.1564694139490257
 30
0.0
 40
0.007212584063914
 50
182.476150375407201
 51
243.7711372760392976
  0
ARC
  5
1ABD0
  8
0
 10
4348.0902597488129686
 20
309.1528500696387027
 30
0.0
 40
0.0154422481817713
 50
334.7793576962786233
 51
0.7416572507993057
  0
ARC
  5
1ABD1
  8
0
 10
4348.1056819727409675
 20
309.1495521460112172
 30
0.0
 40
0.003588950676968
 50
246.1349787226156138
 51
274.7127840667023975
  0
ARC
  5
1ABD2
  8
0
 10
4348.1034794335491824
 20
309.1528856501258815
 30
0.0
 40
0.0066580384403533
 50
267.8901069797411765
 51
276.4722684484846127
  0
ARC
  5
1ABD3
  8
0
 10
4348.0125469670092571
 20
309.1429055266947898
 30
0.0
 40
0.0075977258216182
 50
187.09083418787759
 51
265.635476501899177
  0
ARC
  5
1ABD4
  8
0
 10
4347.9857667231517553
 20
309.153852531798691
 30
0.0
 40
0.0072966360691975
 50
181.9878111145470996
 51
244.2307835588815124
  0
ARC
  5
1ABD5
  8
0
 10
4347.9839989989013702
 20
309.1492596144412914
 30
0.0
 40
0.0024259756750394
 50
234.624720420511494
 51
320.2722032153566829
  0
ARC
  5
1ABD6
  8
0
 10
4347.9760148038385523
 20
309.1658037016887874
 30
0.0
 40
0.0156010481681867
 50
334.9137621844392925
 51
0.6072525828431089
  0
ARC
  5
1ABD7
  8
0
 10
4347.9915962452478198
 20
309.1624712392296033
 30
0.0
 40
0.0035889507943897
 50
246.1349792303344088
 51
274.7127838019735009
  0
ARC
  5
1ABD8
  8
0
 10
4347.98939370601056
 20
309.1658047261454954
 30
0.0
 40
0.0066580213738025
 50
267.8901010396318725
 51
276.4722854434792794
  0
ARC
  5
1ABD9
  8
0
 10
4348.0224151493721365
 20
309.1695021417766043
 30
0.0
 40
0.006616858553673
 50
275.7486831132310954
 51
325.5737175423980716
  0
ARC
  5
1ABDA
  8
0
 10
4348.0262655860024097
 20
309.1693885070491206
 30
0.0
 40
0.0072125840639223
 50
182.4761503754461955
 51
243.7711372760321922
  0
ARC
  5
1ABDB
  8
0
 10
4348.0330576630185533
 20
309.1593441560913789
 30
0.0
 40
0.0156010527790727
 50
334.9137660462375266
 51
0.607248721061373
  0
ARC
  5
1ABDC
  8
0
 10
4348.048639109440046
 20
309.1560116950528254
 30
0.0
 40
0.0035889531690537
 50
246.1349891599219006
 51
274.7127727962949848
  0
ARC
  5
1ABDD
  8
0
 10
4348.046436569810794
 20
309.1593451794479961
 30
0.0
 40
0.0066580212764239
 50
267.8901010085010057
 51
276.4722858191390742
  0
ARC
  5
1ABDE
  8
0
 10
4348.0794486067707112
 20
309.1630711664229239
 30
0.0
 40
0.0066462314797964
 50
275.8046945667471164
 51
325.4104686946786273
  0
ARC
  5
1ABDF
  8
0
 10
4348.0833084498026437
 20
309.1629289604491078
 30
0.0
 40
0.0072125840639199
 50
182.4761503754332068
 51
243.7711372760336133
  0
ARC
  5
1ABE0
  8
0
 10
4348.0376903327469336
 20
309.1454233563187017
 30
0.0
 40
0.0066462306315803
 50
275.8046911875297837
 51
325.410472073859296
  0
ARC
  5
1ABE1
  8
0
 10
4348.0415501753122953
 20
309.1452811511603045
 30
0.0
 40
0.0072125840780952
 50
182.476151254620703
 51
243.771137248445001
  0
ARC
  5
1ABE2
  8
0
 10
4347.9653722857192406
 20
309.1759616880278259
 30
0.0
 40
0.0066168582913911
 50
275.7486820583748113
 51
325.5737185972232055
  0
ARC
  5
1ABE3
  8
0
 10
4347.9692227219848064
 20
309.1758480532905082
 30
0.0
 40
0.0072125837360372
 50
182.4761484318659939
 51
243.7711379145179933
  0
ARC
  5
1ABE4
  8
0
 10
4347.952343722004116
 20
309.1739570312790875
 30
0.0
 40
0.0078432527642118
 50
180.6126994546519029
 51
243.4863324531079058
  0
ARC
  5
1ABE5
  8
0
 10
4347.9607302109561715
 20
309.1899110581579748
 30
0.0
 40
0.0156010517462827
 50
334.9137660282810884
 51
0.6072503532447771
  0
ARC
  5
1ABE6
  8
0
 10
4347.9763045729769146
 20
309.1865562861883063
 30
0.0
 40
0.0035656844607172
 50
246.0940306416183887
 51
274.8789121212503233
  0
ARC
  5
1ABE7
  8
0
 10
4347.9741091167579725
 20
309.1899120834028167
 30
0.0
 40
0.0066580227282804
 50
267.8901019143215763
 51
276.472284568968405
  0
ARC
  5
1ABE8
  8
0
 10
4348.0071305601186396
 20
309.1936094975981177
 30
0.0
 40
0.0066168584708738
 50
275.7486827801880054
 51
325.5737178753602734
  0
ARC
  5
1ABE9
  8
0
 10
4348.0109809964860688
 20
309.1934958626903835
 30
0.0
 40
0.0072125837360225
 50
182.4761484317976112
 51
243.7711379145733872
  0
ARC
  5
1ABEA
  8
0
 10
4348.0177730775276359
 20
309.1834515111672204
 30
0.0
 40
0.0156010489783542
 50
334.9137628540137257
 51
0.6072522634514544
  0
ARC
  5
1ABEB
  8
0
 10
4348.0333545197017884
 20
309.1801190495766036
 30
0.0
 40
0.0035889517337338
 50
246.1349866500816006
 51
274.7127816844025006
  0
ARC
  5
1ABEC
  8
0
 10
4348.031151981856965
 20
309.1834525177376918
 30
0.0
 40
0.0066580036276598
 50
267.890083808965926
 51
276.472291519747273
  0
ARC
  5
1ABED
  8
0
 10
4348.0641640178682792
 20
309.1871785217517754
 30
0.0
 40
0.0066462307720452
 50
275.8046917471447159
 51
325.4104715142865984
  0
ARC
  5
1ABEE
  8
0
 10
4348.068023860512767
 20
309.187036316460194
 30
0.0
 40
0.0072125840780947
 50
182.4761512545914002
 51
243.7711372484407093
  0
ARC
  5
1ABEF
  8
0
 10
4348.0749751553703391
 20
309.1769574264808966
 30
0.0
 40
0.0154422524111518
 50
334.7793612156955874
 51
0.7416535516025313
  0
ARC
  5
1ABF0
  8
0
 10
4348.0903973839385799
 20
309.1736595044529281
 30
0.0
 40
0.0035889531690778
 50
246.1349891599774935
 51
274.712772796138097
  0
ARC
  5
1ABF1
  8
0
 10
4348.0881948443093279
 20
309.1769929889716195
 30
0.0
 40
0.0066580213998796
 50
267.8901010565272145
 51
276.4722854266977947
  0
ARC
  5
1ABF2
  8
0
 10
4348.1212162876609
 20
309.1806904046188151
 30
0.0
 40
0.0066168585867829
 50
275.7486823116008168
 51
325.5737172957258849
  0
ARC
  5
1ABF3
  8
0
 10
4348.1250667239846734
 20
309.1805767695904024
 30
0.0
 40
0.0072125837360248
 50
182.476148431826914
 51
243.7711379145748083
  0
ARC
  5
1ABF4
  8
0
 10
4348.1320180196044021
 20
309.170497879710922
 30
0.0
 40
0.0154422518801742
 50
334.7793609949716256
 51
0.7416542080734893
  0
ARC
  5
1ABF5
  8
0
 10
4348.1474402477124386
 20
309.1671999583774095
 30
0.0
 40
0.0035889536777714
 50
246.134991502622313
 51
274.712769377666973
  0
ARC
  5
1ABF6
  8
0
 10
4348.145237708012246
 20
309.170533442294925
 30
0.0
 40
0.0066580213233171
 50
267.8901010070409825
 51
276.4722854760480004
  0
ARC
  5
1ABF7
  8
0
 10
4348.1782497451158633
 20
309.1742594288435839
 30
0.0
 40
0.0066462310877429
 50
275.8046936474469248
 51
325.4104713826803277
  0
ARC
  5
1ABF8
  8
0
 10
4348.1821095883606176
 20
309.1741172234827104
 30
0.0
 40
0.0072125844317602
 50
182.4761521068298009
 51
243.7711355446766959
  0
ARC
  5
1ABF9
  8
0
 10
4348.3076200620216696
 20
309.1372329800323087
 30
0.0
 40
0.006646231165441
 50
275.8046926717875067
 51
325.410468820909216
  0
ARC
  5
1ABFA
  8
0
 10
4348.3114799044542451
 20
309.137090774126591
 30
0.0
 40
0.0072125837102644
 50
182.4761495232752111
 51
243.7711389797509014
  0
ARC
  5
1ABFB
  8
0
 10
4348.3188091580477703
 20
309.2030955010183106
 30
0.0
 40
0.0066462309397418
 50
275.8046917726530864
 51
325.4104697200784813
  0
ARC
  5
1ABFC
  8
0
 10
4348.3226328977552839
 20
309.2029297389864837
 30
0.0
 40
0.0071755306519008
 50
182.3006847614281867
 51
243.9466024364677992
  0
LINE
  5
1ABFD
  8
0
 10
4348.3312021922429267
 20
309.2102388379615263
 30
0.0
 11
4348.324276507986724
 21
309.199326119391003
 31
0.0
  0
ARC
  5
1ABFE
  8
0
 10
4348.3035245684986876
 20
309.2272028572050999
 30
0.0
 40
0.0066462312501523
 50
275.8046936518468897
 51
325.4104696095212717
  0
ARC
  5
1ABFF
  8
0
 10
4348.3073844111850121
 20
309.2270606511905271
 30
0.0
 40
0.0072125837360304
 50
182.4761484318366911
 51
243.7711379145208923
  0
ARC
  5
1AC00
  8
0
 10
4348.2311971156686923
 20
309.2577697595515929
 30
0.0
 40
0.0066462310802626
 50
275.8046923324251907
 51
325.4104691602292974
  0
ARC
  5
1AC01
  8
0
 10
4348.2350201244989876
 20
309.2576035205684093
 30
0.0
 40
0.0071747812571915
 50
182.2971143915737002
 51
243.9501741114960964
  0
LINE
  5
1AC02
  8
0
 10
4348.2435897385230419
 20
309.2649130490884772
 30
0.0
 11
4348.2366685596880416
 21
309.2539967384909119
 31
0.0
  0
LINE
  5
1AC03
  8
0
 10
4348.3757145129893615
 20
309.1894834716910054
 30
0.0
 11
4348.3976115394880253
 21
309.1802293883908987
 31
0.0
  0
LINE
  5
1AC04
  8
0
 10
4348.3877906041880124
 20
309.1843798949909115
 30
0.0
 11
4348.3877906041880124
 21
309.1720747838908778
 31
0.0
  0
LINE
  5
1AC05
  8
0
 10
4348.3603458435873108
 20
309.1877209119787153
 30
0.0
 11
4348.3603458435873108
 21
309.1689669331909158
 31
0.0
  0
LINE
  5
1AC06
  8
0
 10
4348.3464863702338334
 20
309.1861314347942198
 30
0.0
 11
4348.3395651912869653
 21
309.1752151241909132
 31
0.0
  0
LINE
  5
1AC07
  8
0
 10
4348.4035280999069073
 20
309.1796700995730021
 30
0.0
 11
4348.3966080550881088
 21
309.1687555776910017
 31
0.0
  0
LINE
  5
1AC08
  8
0
 10
4348.3909991022883332
 20
309.1653761156908899
 30
0.0
 11
4348.3606219842868086
 21
309.1618923083909181
 31
0.0
  0
LINE
  5
1AC09
  8
0
 10
4348.3578794496206683
 20
309.1621491045401058
 30
0.0
 11
4348.3558532649876724
 21
309.1625815789909097
 31
0.0
  0
LINE
  5
1AC0A
  8
0
 10
4348.3558532649876724
 20
309.1625815789909097
 30
0.0
 11
4348.3339562384880992
 21
309.1718356622909027
 31
0.0
  0
LINE
  5
1AC0B
  8
0
 10
4348.3757145129893615
 20
309.1894834716910054
 30
0.0
 11
4348.3453373950869718
 21
309.1859996642908754
 31
0.0
  0
ARC
  5
1AC0C
  8
0
 10
4348.3340937470529752
 20
309.1789881453851194
 30
0.0
 40
0.0066462313345374
 50
275.8046939880661057
 51
325.4104692733600928
  0
ARC
  5
1AC0D
  8
0
 10
4348.3449048861893971
 20
309.1687670494586087
 30
0.0
 40
0.0154422510964524
 50
334.7793594302070801
 51
0.7416544396351511
  0
ARC
  5
1AC0E
  8
0
 10
4348.3603176691658518
 20
309.1654131489693782
 30
0.0
 40
0.0035339674689622
 50
245.9078267713250909
 51
274.9399415631144166
  0
ARC
  5
1AC0F
  8
0
 10
4348.3581245743871477
 20
309.1688026050874214
 30
0.0
 40
0.0066580143950853
 50
267.8900932797989753
 51
276.4722872638798208
  0
ARC
  5
1AC10
  8
0
 10
4348.391136611238835
 20
309.1725285982556102
 30
0.0
 40
0.0066462306590626
 50
275.8046903651826938
 51
325.4104718499028763
  0
ARC
  5
1AC11
  8
0
 10
4348.3949603393821235
 20
309.1723628290656052
 30
0.0
 40
0.0071755189898189
 50
182.3006291998563029
 51
243.9466579980322081
  0
ARC
  5
1AC12
  8
0
 10
4348.402085387502666
 20
309.1831169355766065
 30
0.0
 40
0.0035889517337057
 50
246.1349866499110135
 51
274.7127816844549102
  0
ARC
  5
1AC13
  8
0
 10
4348.3999409171528896
 20
309.1863006247442058
 30
0.0
 40
0.006502761810578
 50
249.0094729498017045
 51
276.1126777250253213
  0
ARC
  5
1AC14
  8
0
 10
4348.3448838097719999
 20
309.1886357232697264
 30
0.0
 40
0.0026747984180817
 50
241.0845149280056887
 51
279.7632481045127975
  0
ARC
  5
1AC15
  8
0
 10
4348.3428445242625457
 20
309.1923502018822205
 30
0.0
 40
0.006101592433964
 50
248.0997060617299894
 51
277.0224478546762157
  0
ARC
  5
1AC16
  8
0
 10
4348.3291238347355829
 20
309.1929821024609737
 30
0.0
 40
0.0159376861663782
 50
335.1896031546834251
 51
0.3314116125930195
  0
ARC
  5
1AC17
  8
0
 10
4348.3379174760621027
 20
309.1788223759255061
 30
0.0
 40
0.0071755194802082
 50
182.300631119597
 51
243.9466565318579967
  0
ARC
  5
1AC18
  8
0
 10
4348.4593685706704491
 20
309.2319315733515168
 30
0.0
 40
0.0066462310802091
 50
275.8046923322680186
 51
325.4104691605057269
  0
ARC
  5
1AC19
  8
0
 10
4348.4631923106562681
 20
309.2317658113179846
 30
0.0
 40
0.0071755308586085
 50
182.3006857462459038
 51
243.9466014516679024
  0
ARC
  5
1AC1A
  8
0
 10
4348.413136847705573
 20
309.2281700235520816
 30
0.0
 40
0.0154422491850882
 50
334.7793585726191736
 51
0.7416564105851468
  0
ARC
  5
1AC1B
  8
0
 10
4348.4285496288666764
 20
309.2248161236699957
 30
0.0
 40
0.0035339674695653
 50
245.907826773781494
 51
274.9399415604993919
  0
ARC
  5
1AC1C
  8
0
 10
4348.4263565348055636
 20
309.228205570290811
 30
0.0
 40
0.0066580048779518
 50
267.890084658260605
 51
276.4722903322997922
  0
ARC
  5
1AC1D
  8
0
 10
4348.4023257067883605
 20
309.2383911200490729
 30
0.0
 40
0.0066462312850501
 50
275.8046928590417224
 51
325.4104693560483952
  0
ARC
  5
1AC1E
  8
0
 10
4348.4061494353809394
 20
309.2382253503255924
 30
0.0
 40
0.0071755190873214
 50
182.3006288492532008
 51
243.946657497104809
  0
ARC
  5
1AC1F
  8
0
 10
4348.4397387251838154
 20
309.290678646245226
 30
0.0
 40
0.0035339688948815
 50
245.9078297163347031
 51
274.9399311638832728
  0
ARC
  5
1AC20
  8
0
 10
4348.4375456293482785
 20
309.2940681271122116
 30
0.0
 40
0.0066580404253367
 50
267.8901076114325974
 51
276.4722673790897147
  0
ARC
  5
1AC21
  8
0
 10
4348.3979804504651838
 20
309.2730308354470026
 30
0.0
 40
0.0035339674381758
 50
245.9078230260168993
 51
274.9399400062716268
  0
ARC
  5
1AC22
  8
0
 10
4348.3957873549079522
 20
309.2764202986975874
 30
0.0
 40
0.0066580214258546
 50
267.8901010733180215
 51
276.4722854099676965
  0
ARC
  5
1AC23
  8
0
 10
4348.455023314067148
 20
309.2665712889699989
 30
0.0
 40
0.0035339674695813
 50
245.9078267738925945
 51
274.9399415604991077
  0
ARC
  5
1AC24
  8
0
 10
4348.4528302200033067
 20
309.2699607356423144
 30
0.0
 40
0.0066580049294336
 50
267.8900846915294096
 51
276.4722902990504281
  0
ARC
  5
1AC25
  8
0
 10
4348.2155345681194376
 20
309.2057934986704026
 30
0.0
 40
0.0154422523629223
 50
334.7793611744409077
 51
0.741653592847794
  0
ARC
  5
1AC26
  8
0
 10
4348.2309567966749455
 20
309.2024955767664096
 30
0.0
 40
0.0035889532874455
 50
246.1349893671068116
 51
274.7127736652000181
  0
ARC
  5
1AC27
  8
0
 10
4348.2287542570102232
 20
309.2058290611456073
 30
0.0
 40
0.0066580213739335
 50
267.8901010396841116
 51
276.4722854433746875
  0
ARC
  5
1AC28
  8
0
 10
4348.2047328366115835
 20
309.2159860232490018
 30
0.0
 40
0.0066168584227378
 50
275.7486828806926269
 51
325.5737170548831045
  0
ARC
  5
1AC29
  8
0
 10
4348.2085832728544119
 20
309.2158723884265896
 30
0.0
 40
0.0072125837102569
 50
182.4761495232654056
 51
243.7711389798091943
  0
LINE
  5
1AC2A
  8
0
 10
4348.201377423588383
 20
309.2278658904909889
 30
0.0
 11
4348.201377423588383
 21
309.215560779490886
 31
0.0
  0
LINE
  5
1AC2B
  8
0
 10
4348.2171164647606929
 20
309.2231579309745939
 30
0.0
 11
4348.2101907803871654
 21
309.2122452124909273
 31
0.0
  0
LINE
  5
1AC2C
  8
0
 10
4348.1739326629867719
 20
309.2312069075293266
 30
0.0
 11
4348.1739326629867719
 21
309.2124529286908796
 31
0.0
  0
ARC
  5
1AC2D
  8
0
 10
4348.1584917070931624
 20
309.2122530445012103
 30
0.0
 40
0.0154422495976533
 50
334.7793591048546773
 51
0.7416562087226976
  0
ARC
  5
1AC2E
  8
0
 10
4348.1739139324899952
 20
309.2089551220764747
 30
0.0
 40
0.0035889520253099
 50
246.1349877812399995
 51
274.7127798912202934
  0
ARC
  5
1AC2F
  8
0
 10
4348.1717113945560413
 20
309.2122885897618971
 30
0.0
 40
0.0066580034520169
 50
267.8900837691787729
 51
276.4722915864571178
  0
ARC
  5
1AC30
  8
0
 10
4348.1476899727722412
 20
309.2224455698770953
 30
0.0
 40
0.006616858554134
 50
275.7486831150644093
 51
325.5737175405488983
  0
ARC
  5
1AC31
  8
0
 10
4348.1515404096744533
 20
309.2223319352094109
 30
0.0
 40
0.0072125842381604
 50
182.4761507952958937
 51
243.771135551066493
  0
ARC
  5
1AC32
  8
0
 10
4348.1432071190665738
 20
309.2363604002555917
 30
0.0
 40
0.0154422483263313
 50
334.7793578886099226
 51
0.7416571811386108
  0
ARC
  5
1AC33
  8
0
 10
4348.1586293431028025
 20
309.233062475977988
 30
0.0
 40
0.0035889500490194
 50
246.134976473875497
 51
274.7127854823726238
  0
ARC
  5
1AC34
  8
0
 10
4348.1564268039446688
 20
309.2363959827899862
 30
0.0
 40
0.0066580405029881
 50
267.8901076615965735
 51
276.4722673289529098
  0
ARC
  5
1AC35
  8
0
 10
4348.1323959775008916
 20
309.2465814966990933
 30
0.0
 40
0.0066462310249277
 50
275.8046921120155162
 51
325.4104693807128115
  0
ARC
  5
1AC36
  8
0
 10
4348.1362558198552506
 20
309.2464392909266166
 30
0.0
 40
0.0072125837102633
 50
182.4761495232621087
 51
243.7711389798020036
  0
ARC
  5
1AC37
  8
0
 10
4348.0906377026485643
 20
309.2289336878926065
 30
0.0
 40
0.0066462316509184
 50
275.80469460587409
 51
325.4104668868313865
  0
ARC
  5
1AC38
  8
0
 10
4348.0944975457123292
 20
309.2287914817603109
 30
0.0
 40
0.0072125840781015
 50
182.4761512546305084
 51
243.7711372484378956
  0
ARC
  5
1AC39
  8
0
 10
4348.2420082532698871
 20
309.2475486639809219
 30
0.0
 40
0.0154422524111269
 50
334.7793612156690983
 51
0.7416535516155579
  0
ARC
  5
1AC3A
  8
0
 10
4348.4243259419108654
 20
309.294032545352195
 30
0.0
 40
0.015442250973919
 50
334.7793596704594279
 51
0.7416544689787186
  0
ARC
  5
1AC3B
  8
0
 10
4348.4396105312853251
 20
309.2699251894313193
 30
0.0
 40
0.0154422508974251
 50
334.7793591952158749
 51
0.7416541791988744
  0
ARC
  5
1AC3C
  8
0
 10
4348.3143357067474426
 20
309.2169817613175837
 30
0.0
 40
0.0154422519371163
 50
334.7793610736653136
 51
0.7416541802507611
  0
ARC
  5
1AC3D
  8
0
 10
4348.0289621737465495
 20
309.2493140323364855
 30
0.0
 40
0.0156010486610875
 50
334.9137628602611017
 51
0.6072523885553033
  0
ARC
  5
1AC3E
  8
0
 10
4348.0442467627290171
 20
309.2252066764672236
 30
0.0
 40
0.0156010489783506
 50
334.9137628540108267
 51
0.6072522634514544
  0
ARC
  5
1AC3F
  8
0
 10
4348.0335948390420526
 20
309.2353932341263771
 30
0.0
 40
0.0066462313665642
 50
275.8046931837899933
 51
325.4104690312908019
  0
ARC
  5
1AC40
  8
0
 10
4348.0374693425310397
 20
309.2352605938980901
 30
0.0
 40
0.0072276496813704
 50
182.5468883553267858
 51
243.7003979910622036
  0
ARC
  5
1AC41
  8
0
 10
4347.9873252198385671
 20
309.2316399050316136
 30
0.0
 40
0.0154800385181036
 50
334.8115990798538064
 51
0.7094156874428523
  0
ARC
  5
1AC42
  8
0
 10
4348.0005873417458133
 20
309.231107480194396
 30
0.0
 40
0.0061015914556033
 50
248.099701528057409
 51
277.0224491468014207
  0
ARC
  5
1AC43
  8
0
 10
4347.9956964068369416
 20
309.2176032184680139
 30
0.0
 40
0.0072125833823698
 50
182.4761475796406103
 51
243.7711396182891974
  0
ARC
  5
1AC44
  8
0
 10
4348.0595313520489071
 20
309.2010993205601039
 30
0.0
 40
0.0156010489561312
 50
334.9137628443853032
 51
0.6072519229118046
  0
ARC
  5
1AC45
  8
0
 10
4348.1097821350031154
 20
309.204684125749111
 30
0.0
 40
0.0072125840639046
 50
182.4761503753942122
 51
243.7711372760975905
  0
ARC
  5
1AC46
  8
0
 10
4348.1059316983719327
 20
309.2047977604771063
 30
0.0
 40
0.0066168585541861
 50
275.7486831152738205
 51
325.5737175402886123
  0
ARC
  5
1AC47
  8
0
 10
4348.1167334311321611
 20
309.1946052356656764
 30
0.0
 40
0.0154422511518269
 50
334.7793594959636039
 51
0.7416544103592982
  0
ARC
  5
1AC48
  8
0
 10
4348.132155658046031
 20
309.191307313127993
 30
0.0
 40
0.00358895247902
 50
246.1349894061370946
 51
274.7127800042648005
  0
ARC
  5
1AC49
  8
0
 10
4348.129953120056598
 20
309.1946407805376111
 30
0.0
 40
0.006658003627521
 50
267.89008380907012
 51
276.4722913179937791
  0
ARC
  5
1AC4A
  8
0
 10
4348.1629745620721224
 20
309.1983382139766263
 30
0.0
 40
0.0066168585536788
 50
275.7486831132310954
 51
325.5737175423283247
  0
ARC
  5
1AC4B
  8
0
 10
4348.1668249984850263
 20
309.1982245789905051
 30
0.0
 40
0.0072125837360253
 50
182.4761484318106
 51
243.7711379145237061
  0
ARC
  5
1AC4C
  8
0
 10
4348.1014488405608063
 20
309.2187125917827757
 30
0.0
 40
0.0154422524198484
 50
334.7793612231344014
 51
0.7416535441565603
  0
ARC
  5
1AC4D
  8
0
 10
4348.116871069139961
 20
309.2154146697528745
 30
0.0
 40
0.0035889531690796
 50
246.1349891599788009
 51
274.712772796189995
  0
ARC
  5
1AC4E
  8
0
 10
4348.1146685295079806
 20
309.2187481542973728
 30
0.0
 40
0.0066580214255478
 50
267.8901010731095198
 51
276.4722854101254939
  0
ARC
  5
1AC4F
  8
0
 10
4348.0751127942376115
 20
309.1977668590901089
 30
0.0
 40
0.0035889518520821
 50
246.1349868570455897
 51
274.7127825534644785
  0
ARC
  5
1AC50
  8
0
 10
4348.0729102563573178
 20
309.2011003270333731
 30
0.0
 40
0.0066580035234331
 50
267.8900837835187758
 51
276.4722912068115761
  0
LINE
  5
1AC51
  8
0
 10
4348.5170836194101867
 20
309.2188598746690786
 30
0.0
 11
4348.5164442092882382
 21
309.2182949309909077
 31
0.0
  0
LINE
  5
1AC52
  8
0
 10
4348.5017990301439568
 20
309.2429672305797226
 30
0.0
 11
4348.5009893362876028
 21
309.2424268997909849
 31
0.0
  0
LINE
  5
1AC53
  8
0
 10
4348.4865144408877313
 20
309.2670745865909225
 30
0.0
 11
4348.4857047470868565
 21
309.2665342556908854
 31
0.0
  0
LINE
  5
1AC54
  8
0
 10
4348.4712298515878501
 20
309.2911819424908799
 30
0.0
 11
4348.4704201578870197
 21
309.2906416115908996
 31
0.0
  0
LINE
  5
1AC55
  8
0
 10
4348.414186987886751
 20
309.2976414889909051
 30
0.0
 11
4348.4133772940876952
 21
309.2971011580909249
 31
0.0
  0
LINE
  5
1AC56
  8
0
 10
4348.357144124088336
 20
309.3041010355909179
 30
0.0
 11
4348.3563344303884151
 21
309.3035607046909945
 31
0.0
  0
LINE
  5
1AC57
  8
0
 10
4348.34185953483302
 20
309.3282083914846226
 30
0.0
 11
4348.3410498410876244
 21
309.3276680605910087
 31
0.0
  0
LINE
  5
1AC58
  8
0
 10
4348.2945059177309304
 20
309.3509169443980227
 30
0.0
 11
4348.2939134094867768
 21
309.3490943528909156
 31
0.0
  0
LINE
  5
1AC59
  8
0
 10
4348.3001012603881463
 20
309.3105605820908863
 30
0.0
 11
4348.2992915664881366
 21
309.3100202512910073
 31
0.0
  0
LINE
  5
1AC5A
  8
0
 10
4348.2840069772882998
 20
309.3341276071909078
 30
0.0
 11
4348.2536298591867308
 21
309.3306437997910052
 31
0.0
  0
LINE
  5
1AC5B
  8
0
 10
4348.2960830683878157
 20
309.3290240304909275
 30
0.0
 11
4348.2960830684878601
 21
309.3167189194908815
 31
0.0
  0
LINE
  5
1AC5C
  8
0
 10
4348.2686383077880237
 20
309.3323650474787883
 30
0.0
 11
4348.2686383077880237
 21
309.3136110686908751
 31
0.0
  0
LINE
  5
1AC5D
  8
0
 10
4348.2547788344445507
 20
309.3307755703061162
 30
0.0
 11
4348.2478576554867686
 21
309.3198592597909169
 31
0.0
  0
LINE
  5
1AC5E
  8
0
 10
4348.3118216982311424
 20
309.32431602378972
 30
0.0
 11
4348.3049005192879122
 21
309.3133997131909041
 31
0.0
  0
LINE
  5
1AC5F
  8
0
 10
4348.2992915664881366
 20
309.3100202512910073
 30
0.0
 11
4348.2689144485875659
 21
309.3065364439909217
 31
0.0
  0
LINE
  5
1AC60
  8
0
 10
4348.2641457292884297
 20
309.3072257144909258
 30
0.0
 11
4348.242248702787947
 21
309.3164797977909188
 31
0.0
  0
LINE
  5
1AC61
  8
0
 10
4348.3059040037878731
 20
309.3248735238909148
 30
0.0
 11
4348.2840069772882998
 21
309.3341276071909078
 31
0.0
  0
ARC
  5
1AC62
  8
0
 10
4348.3103684080651874
 20
309.327705093846987
 30
0.0
 40
0.0035339674381621
 50
245.9078230260114992
 51
274.9399400063758776
  0
ARC
  5
1AC63
  8
0
 10
4348.3081928433102803
 20
309.3306342871538277
 30
0.0
 40
0.0061988047017666
 50
248.331317114931295
 51
276.7908368015663996
  0
ARC
  5
1AC64
  8
0
 10
4348.2994290750530126
 20
309.3171727343851103
 30
0.0
 40
0.0066462313345374
 50
275.8046939880661057
 51
325.4104692733600928
  0
ARC
  5
1AC65
  8
0
 10
4348.3032528039266253
 20
309.3170069647213722
 30
0.0
 40
0.0071755192379079
 50
182.3006295667036909
 51
243.9466567796517893
  0
ARC
  5
1AC66
  8
0
 10
4348.2423862113000723
 20
309.3236322809050876
 30
0.0
 40
0.0066462312501523
 50
275.8046936518468897
 51
325.4104696095212717
  0
ARC
  5
1AC67
  8
0
 10
4348.2531973495470083
 20
309.3134111850176282
 30
0.0
 40
0.0154422519371163
 50
334.7793610736653136
 51
0.7416541802507611
  0
LINE
  5
1AC68
  8
0
 10
4348.2310596069883104
 20
309.2506172764909138
 30
0.0
 11
4348.2006824888867413
 21
309.2471334690908975
 31
0.0
  0
LINE
  5
1AC69
  8
0
 10
4348.2431356980878263
 20
309.2455136997908767
 30
0.0
 11
4348.2431356981869612
 21
309.2332085887908875
 31
0.0
  0
LINE
  5
1AC6A
  8
0
 10
4348.2156909374880343
 20
309.2488547167789079
 30
0.0
 11
4348.2156909374880343
 21
309.230100737990881
 31
0.0
  0
LINE
  5
1AC6B
  8
0
 10
4348.2018314641445613
 20
309.2472652396061221
 30
0.0
 11
4348.1949102851876887
 21
309.2363489290909229
 31
0.0
  0
LINE
  5
1AC6C
  8
0
 10
4348.2588743280057315
 20
309.240805693209893
 30
0.0
 11
4348.2519531489870133
 21
309.2298893824909101
 31
0.0
  0
LINE
  5
1AC6D
  8
0
 10
4348.2463441961881472
 20
309.2265099205908996
 30
0.0
 11
4348.2159670782875764
 21
309.2230261132909277
 31
0.0
  0
LINE
  5
1AC6E
  8
0
 10
4348.2111983589884403
 20
309.223715383790875
 30
0.0
 11
4348.1893013324879576
 21
309.2329694670909248
 31
0.0
  0
LINE
  5
1AC6F
  8
0
 10
4348.2529566334878837
 20
309.2413631931909208
 30
0.0
 11
4348.2310596069883104
 21
309.2506172764909138
 31
0.0
  0
ARC
  5
1AC70
  8
0
 10
4348.257421037765198
 20
309.2441947631468793
 30
0.0
 40
0.0035339674381621
 50
245.9078230260114992
 51
274.9399400063758776
  0
ARC
  5
1AC71
  8
0
 10
4348.2552454730102909
 20
309.2471239564537768
 30
0.0
 40
0.0061988047017666
 50
248.331317114931295
 51
276.7908368015663996
  0
ARC
  5
1AC72
  8
0
 10
4348.2464817047530232
 20
309.2336624036851163
 30
0.0
 40
0.0066462313345374
 50
275.8046939880661057
 51
325.4104692733600928
  0
ARC
  5
1AC73
  8
0
 10
4348.2503054336266359
 20
309.2334966340213782
 30
0.0
 40
0.0071755192379079
 50
182.3006295667036909
 51
243.9466567796517893
  0
ARC
  5
1AC74
  8
0
 10
4348.1894388410000829
 20
309.2401219502050935
 30
0.0
 40
0.0066462312501523
 50
275.8046936518468897
 51
325.4104696095212717
  0
ARC
  5
1AC75
  8
0
 10
4348.2002499792470189
 20
309.2299008543175773
 30
0.0
 40
0.0154422519371163
 50
334.7793610736653136
 51
0.7416541802507611
  0
LINE
  5
1AC76
  8
0
 10
4348.0334573305881349
 20
309.2282407508909046
 30
0.0
 11
4348.0030802124883849
 21
309.2247569434908883
 31
0.0
  0
LINE
  5
1AC77
  8
0
 10
4348.0455334216876508
 20
309.2231371741909243
 30
0.0
 11
4348.0455334217876953
 21
309.2108320631908782
 31
0.0
  0
LINE
  5
1AC78
  8
0
 10
4348.0180886610869493
 20
309.226478191178785
 30
0.0
 11
4348.0180886610869493
 21
309.2077242123908718
 31
0.0
  0
LINE
  5
1AC79
  8
0
 10
4348.0042291877452953
 20
309.2248887140062266
 30
0.0
 11
4347.9973080087884227
 21
309.2139724034909136
 31
0.0
  0
LINE
  5
1AC7A
  8
0
 10
4348.061272051614651
 20
309.2184291676226735
 30
0.0
 11
4348.0543508725877473
 21
309.2075128568909008
 31
0.0
  0
LINE
  5
1AC7B
  8
0
 10
4348.0487419197879717
 20
309.2041333949908903
 30
0.0
 11
4348.0183648018883105
 21
309.2006495876909185
 31
0.0
  0
LINE
  5
1AC7C
  8
0
 10
4348.0135960825882648
 20
309.2013388581909226
 30
0.0
 11
4347.9916990560877821
 21
309.2105929414909156
 31
0.0
  0
LINE
  5
1AC7D
  8
0
 10
4348.0553543570877082
 20
309.2189866675909116
 30
0.0
 11
4348.0334573305881349
 21
309.2282407508909046
 31
0.0
  0
ARC
  5
1AC7E
  8
0
 10
4348.059818761365932
 20
309.2218182375469837
 30
0.0
 40
0.0035339674381621
 50
245.9078230260114992
 51
274.9399400063758776
  0
ARC
  5
1AC7F
  8
0
 10
4348.0576431966110249
 20
309.2247474308538244
 30
0.0
 40
0.0061988047017666
 50
248.331317114931295
 51
276.7908368015663996
  0
ARC
  5
1AC80
  8
0
 10
4348.0488794283528478
 20
309.211285878085107
 30
0.0
 40
0.0066462313345374
 50
275.8046939880661057
 51
325.4104692733600928
  0
ARC
  5
1AC81
  8
0
 10
4348.0527031572282795
 20
309.2111201084214258
 30
0.0
 40
0.0071755192379079
 50
182.3006295667036909
 51
243.9466567796517893
  0
ARC
  5
1AC82
  8
0
 10
4347.9918365645999074
 20
309.2177454246050843
 30
0.0
 40
0.0066462312501523
 50
275.8046936518468897
 51
325.4104696095212717
  0
ARC
  5
1AC83
  8
0
 10
4348.0026477028468435
 20
309.2075243287176249
 30
0.0
 40
0.0154422519371163
 50
334.7793610736653136
 51
0.7416541802507611
  0
ARC
  5
1AC84
  8
0
 10
4348.0180699305201415
 20
309.2042264052877272
 30
0.0
 40
0.0035889515521374
 50
246.1349855870249996
 51
274.7127832296399106
  0
ARC
  5
1AC85
  8
0
 10
4348.0158661064560874
 20
309.2069555146380253
 30
0.0
 40
0.0060580390670305
 50
247.9934450533858126
 51
277.1287059244609736
  0
ARC
  5
1AC86
  8
0
 10
4348.0863018905038189
 20
309.2636293814393866
 30
0.0
 40
0.0035889530507754
 50
246.1349889532409918
 51
274.712771926971584
  0
ARC
  5
1AC87
  8
0
 10
4348.084079680562354
 20
309.2674793377859146
 30
0.0
 40
0.0071735229183275
 50
268.198977351268411
 51
276.1633976390672274
  0
ARC
  5
1AC88
  8
0
 10
4348.0707204479276697
 20
309.2669618417672268
 30
0.0
 40
0.0156010489783578
 50
334.9137628540196943
 51
0.6072522634579677
  0
ARC
  5
1AC89
  8
0
 10
4348.0445436155669086
 20
309.2459815689646803
 30
0.0
 40
0.0035889499307395
 50
246.1349762671495114
 51
274.7127846131011779
  0
ARC
  5
1AC8A
  8
0
 10
4348.04230330863993
 20
309.2503066872791919
 30
0.0
 40
0.0076479495947814
 50
268.4463686586011022
 51
275.9160063319652068
  0
LINE
  5
1AC8B
  8
0
 10
4348.0342670241880114
 20
309.2287810817908849
 30
0.0
 11
4348.0334573305881349
 21
309.2282407508909046
 31
0.0
  0
ARC
  5
1AC8C
  8
0
 10
4348.002683152982172
 20
309.2277280509885031
 30
0.0
 40
0.0029975216451733
 50
243.2358358476807894
 51
277.6119197304037129
  0
LINE
  5
1AC8D
  8
0
 10
4347.9466549819171632
 20
309.2834553401989979
 30
0.0
 11
4347.9455972467440006
 21
309.2841452207251791
 31
0.0
  0
LINE
  5
1AC8E
  8
0
 10
4347.9466549818880594
 20
309.2834553401909261
 30
0.0
 11
4347.9458452880880941
 21
309.2829150092910027
 31
0.0
  0
LINE
  5
1AC8F
  8
0
 10
4347.961939571208859
 20
309.2593479842979036
 30
0.0
 11
4347.9611298774880197
 21
309.2588076533908747
 31
0.0
  0
LINE
  5
1AC90
  8
0
 10
4348.4294715770884068
 20
309.2735341330908909
 30
0.0
 11
4348.4286618832884415
 21
309.2729938021909106
 31
0.0
  0
LINE
  5
1AC91
  8
0
 10
4348.4600407556881692
 20
309.2253194212909193
 30
0.0
 11
4348.4594013454880042
 21
309.2247544775909205
 31
0.0
  0
LINE
  5
1AC92
  8
0
 10
4348.444756166388288
 20
309.2494267771908767
 30
0.0
 11
4348.4439464726883671
 21
309.2488864462910101
 31
0.0
  0
LINE
  5
1AC93
  8
0
 10
4348.3724287133882171
 20
309.2799936796909037
 30
0.0
 11
4348.3716190195882518
 21
309.2794533487909234
 31
0.0
  0
LINE
  5
1AC94
  8
0
 10
4348.3153858496880275
 20
309.2864532261908721
 30
0.0
 11
4348.3145761557880178
 21
309.2859128952908918
 31
0.0
  0
LINE
  5
1AC95
  8
0
 10
4348.2848166710882651
 20
309.3346679380910018
 30
0.0
 11
4348.2840069772882998
 21
309.3341276071909078
 31
0.0
  0
ARC
  5
1AC96
  8
0
 10
4348.2532351364097849
 20
309.333628757955978
 30
0.0
 40
0.0030109435926808
 50
243.314827038350586
 51
277.532932765809619
  0
LINE
  5
1AC97
  8
0
 10
4348.2430583965879123
 20
309.3170201286910128
 30
0.0
 11
4348.242248702787947
 21
309.3164797977909188
 31
0.0
  0
LINE
  5
1AC98
  8
0
 10
4348.2277738073507862
 20
309.3411274845859111
 30
0.0
 11
4348.2269641134880658
 21
309.3405871536908762
 31
0.0
  0
ARC
  5
1AC99
  8
0
 10
4348.17001908016573
 20
309.3542662552770253
 30
0.0
 40
0.0067170518279032
 50
276.0835480072336168
 51
325.131615254154724
  0
ARC
  5
1AC9A
  8
0
 10
4348.1739034186430217
 20
309.3540693664514833
 30
0.0
 40
0.0072170125187492
 50
193.6247375574938019
 51
243.9227305571419038
  0
LINE
  5
1AC9B
  8
0
 10
4348.1755294647882693
 20
309.3504249120908867
 30
0.0
 11
4348.1772595590618948
 21
309.3531537577169956
 31
0.0
  0
LINE
  5
1AC9C
  8
0
 10
4348.170730943586932
 20
309.3475870310908817
 30
0.0
 11
4348.1699212497869667
 21
309.3470467001909014
 31
0.0
  0
LINE
  5
1AC9D
  8
0
 10
4348.1289726691329633
 20
309.3299392218013963
 30
0.0
 11
4348.1281629752884328
 21
309.3293988908909
 31
0.0
  0
LINE
  5
1AC9E
  8
0
 10
4348.1442572583000583
 20
309.305831865797586
 30
0.0
 11
4348.1434475646883584
 21
309.3052915349908858
 31
0.0
  0
LINE
  5
1AC9F
  8
0
 10
4348.1595418476035775
 20
309.2817245098974013
 30
0.0
 11
4348.1587321538881952
 21
309.2811841790909284
 31
0.0
  0
LINE
  5
1ACA0
  8
0
 10
4348.1748264368879973
 20
309.2576171539909069
 30
0.0
 11
4348.1740167431880764
 21
309.2570768230909266
 31
0.0
  0
ARC
  5
1ACA1
  8
0
 10
4348.2003739417286852
 20
309.2506292226003097
 30
0.0
 40
0.0035093438057477
 50
245.8037054975274032
 51
275.044050080463478
  0
LINE
  5
1ACA2
  8
0
 10
4348.2165847113883501
 20
309.2752649633910096
 30
0.0
 11
4348.2157750176884292
 21
309.2747246324909156
 31
0.0
  0
LINE
  5
1ACA3
  8
0
 10
4348.2736275751876747
 20
309.2688054167909968
 30
0.0
 11
4348.2728178814877538
 21
309.2682650858909028
 31
0.0
  0
LINE
  5
1ACA4
  8
0
 10
4348.2318693006882313
 20
309.2511576074909954
 30
0.0
 11
4348.2310596069883104
 21
309.2506172764909138
 31
0.0
  0
LINE
  5
1ACA5
  8
0
 10
4348.2889121643884209
 20
309.2446980608909257
 30
0.0
 11
4348.2881024706875905
 21
309.2441577299910023
 31
0.0
  0
LINE
  5
1ACA6
  8
0
 10
4348.3041967536883021
 20
309.2205907049909115
 30
0.0
 11
4348.3033870599883812
 21
309.2200503740908744
 31
0.0
  0
ARC
  5
1ACA7
  8
0
 10
4348.3297579345289705
 20
309.2136838385256965
 30
0.0
 40
0.0035889521791176
 50
246.134988136346692
 51
274.7127806803358112
  0
ARC
  5
1ACA8
  8
0
 10
4348.3275553952180417
 20
309.2170173236644928
 30
0.0
 40
0.0066580210932353
 50
267.8901008902349759
 51
276.4722859253395768
  0
LINE
  5
1ACA9
  8
0
 10
4348.3612396174876267
 20
309.2141311583908987
 30
0.0
 11
4348.3604299236876614
 21
309.213590827590906
 31
0.0
  0
LINE
  5
1ACAA
  8
0
 10
4348.3194813429881833
 20
309.196483349091011
 30
0.0
 11
4348.318671649188218
 21
309.195943018190917
 31
0.0
  0
LINE
  5
1ACAB
  8
0
 10
4348.3347659322880645
 20
309.1723759930910091
 30
0.0
 11
4348.3339562384880992
 21
309.1718356622909027
 31
0.0
  0
LINE
  5
1ACAC
  8
0
 10
4348.3500505215870362
 20
309.1482686371909949
 30
0.0
 11
4348.3492408277879804
 21
309.1477283062909009
 31
0.0
  0
LINE
  5
1ACAD
  8
0
 10
4348.365335110786873
 20
309.1241612812909239
 30
0.0
 11
4348.3645254169878172
 21
309.1236209503910004
 31
0.0
  0
LINE
  5
1ACAE
  8
0
 10
4348.3082922470875928
 20
309.1306208278909935
 30
0.0
 11
4348.3074825531866736
 21
309.1300804969908995
 31
0.0
  0
LINE
  5
1ACAF
  8
0
 10
4348.4070933852881353
 20
309.1418090906909129
 30
0.0
 11
4348.4062836914872605
 21
309.1412687597908757
 31
0.0
  0
LINE
  5
1ACB0
  8
0
 10
4348.4753253449871409
 20
309.2012120652909175
 30
0.0
 11
4348.4745156512881294
 21
309.2006717344909248
 31
0.0
  0
LINE
  5
1ACB1
  8
0
 10
4348.4182824811878163
 20
309.2076716118908735
 30
0.0
 11
4348.4174727874869859
 21
309.2071312809910069
 31
0.0
  0
LINE
  5
1ACB2
  8
0
 10
4348.4029978918879351
 20
309.2317789677910014
 30
0.0
 11
4348.4021881981880142
 21
309.2312386369910087
 31
0.0
  0
LINE
  5
1ACB3
  8
0
 10
4348.3877133026871888
 20
309.2558863236909019
 30
0.0
 11
4348.3869036087880886
 21
309.2553459927909216
 31
0.0
  0
LINE
  5
1ACB4
  8
0
 10
4348.3306704388878643
 20
309.2623458702909147
 30
0.0
 11
4348.3300310287877437
 21
309.2617809265909159
 31
0.0
  0
ARC
  5
1ACB5
  8
0
 10
4348.2686138508570366
 20
309.3100793191471212
 30
0.0
 40
0.0035556045095384
 50
245.998082675468595
 51
274.8496872172402163
  0
ARC
  5
1ACB6
  8
0
 10
4348.266416134474639
 20
309.3128452920462905
 30
0.0
 40
0.0060608903315861
 50
248.0004516063534936
 51
277.1217027971259199
  0
LINE
  5
1ACB7
  8
0
 10
4348.2583429858950694
 20
309.292912772797024
 30
0.0
 11
4348.2575332921878726
 21
309.2923724418909046
 31
0.0
  0
ARC
  5
1ACB8
  8
0
 10
4348.2109177808206368
 20
309.2958764596697279
 30
0.0
 40
0.0159624885646108
 50
335.2094545373378196
 51
0.3115605801458606
  0
ARC
  5
1ACB9
  8
0
 10
4348.2268488411409635
 20
309.2923915873632268
 30
0.0
 40
0.00351640891612
 50
245.8337393106899071
 51
275.0140290237641807
  0
ARC
  5
1ACBA
  8
0
 10
4348.2246573876418552
 20
309.2951938631268263
 30
0.0
 40
0.0060573573646055
 50
247.9917695599478122
 51
277.1303806280196227
  0
LINE
  5
1ACBB
  8
0
 10
4348.2013001221166633
 20
309.299372319298925
 30
0.0
 11
4348.200490428386729
 21
309.2988319884909174
 31
0.0
  0
LINE
  5
1ACBC
  8
0
 10
4348.1860155328004112
 20
309.3234796751968929
 30
0.0
 11
4348.1852058391878018
 21
309.3229393443908748
 31
0.0
  0
LINE
  5
1ACBD
  8
0
 10
4348.0872143946071446
 20
309.3122914123977125
 30
0.0
 11
4348.0864047008881244
 21
309.311751081490911
 31
0.0
  0
LINE
  5
1ACBE
  8
0
 10
4348.0301715308069106
 20
309.3187509589984074
 30
0.0
 11
4348.0293618370869808
 21
309.3182106280909238
 31
0.0
  0
LINE
  5
1ACBF
  8
0
 10
4348.0454561201204342
 20
309.2946436029990878
 30
0.0
 11
4348.044646426386862
 21
309.2941032721909096
 31
0.0
  0
LINE
  5
1ACC0
  8
0
 10
4348.1024989839243062
 20
309.2881840564010076
 30
0.0
 11
4348.1016892900879611
 21
309.2876437255910105
 31
0.0
  0
LINE
  5
1ACC1
  8
0
 10
4348.1177835731868981
 20
309.2640767005909197
 30
0.0
 11
4348.1169738793869328
 21
309.2635363696908826
 31
0.0
  0
LINE
  5
1ACC2
  8
0
 10
4348.1330681624867793
 20
309.2399693446909055
 30
0.0
 11
4348.1322584685867696
 21
309.2394290137909252
 31
0.0
  0
LINE
  5
1ACC3
  8
0
 10
4348.1483527516884351
 20
309.2158619886909037
 30
0.0
 11
4348.1475430578875603
 21
309.2153216577909234
 31
0.0
  0
ARC
  5
1ACC4
  8
0
 10
4348.1935278474420556
 20
309.240129269050783
 30
0.0
 40
0.0074492995153209
 50
183.5490464556519044
 51
242.6982398906908998
  0
ARC
  5
1ACC5
  8
0
 10
4348.2156629719120247
 20
309.2265481914703855
 30
0.0
 40
0.0035351825116802
 50
245.9129251114364934
 51
274.9348437052140071
  0
ARC
  5
1ACC6
  8
0
 10
4348.2134871983071207
 20
309.2294761440489879
 30
0.0
 40
0.00619880174168
 50
248.3313082579250022
 51
276.7908422329737164
  0
LINE
  5
1ACC7
  8
0
 10
4348.2053956154877596
 20
309.2094024421908784
 30
0.0
 11
4348.2045859216877943
 21
309.2088621112908982
 31
0.0
  0
LINE
  5
1ACC8
  8
0
 10
4348.2206802047876408
 20
309.1852950861908766
 30
0.0
 11
4348.2198705109876755
 21
309.18475475529101
 31
0.0
  0
LINE
  5
1ACC9
  8
0
 10
4348.2359647939883871
 20
309.1611877303909068
 30
0.0
 11
4348.2351551001884218
 21
309.1606473993908821
 31
0.0
  0
LINE
  5
1ACCA
  8
0
 10
4348.2512493832882683
 20
309.137080374390905
 30
0.0
 11
4348.2504396895883474
 21
309.1365400434909247
 31
0.0
  0
LINE
  5
1ACCB
  8
0
 10
4348.2930076577877117
 20
309.1547281837910077
 30
0.0
 11
4348.2921979639877463
 21
309.1541878528909137
 31
0.0
  0
LINE
  5
1ACCC
  8
0
 10
4348.2777230684878305
 20
309.1788355396909083
 30
0.0
 11
4348.2769133746878651
 21
309.178295208790928
 31
0.0
  0
LINE
  5
1ACCD
  8
0
 10
4348.2665339725881495
 20
309.1129730183909032
 30
0.0
 11
4348.2657242788882286
 21
309.1124326875909105
 31
0.0
  0
LINE
  5
1ACCE
  8
0
 10
4348.2094911087879154
 20
309.119432564990916
 30
0.0
 11
4348.2086814149879501
 21
309.1188922341909233
 31
0.0
  0
LINE
  5
1ACCF
  8
0
 10
4348.1524482450868163
 20
309.1258921114908844
 30
0.0
 11
4348.1516385513878049
 21
309.1253517806908917
 31
0.0
  0
LINE
  5
1ACD0
  8
0
 10
4348.0954053812893108
 20
309.1323516580910109
 30
0.0
 11
4348.0945956875875709
 21
309.1318113271909169
 31
0.0
  0
LINE
  5
1ACD1
  8
0
 10
4348.0383625175882116
 20
309.13881120469091
 30
0.0
 11
4348.0375528236882019
 21
309.1382708737908729
 31
0.0
  0
LINE
  5
1ACD2
  8
0
 10
4348.0801207920867455
 20
309.1564590139909114
 30
0.0
 11
4348.0793110982867802
 21
309.155918683090988
 31
0.0
  0
LINE
  5
1ACD3
  8
0
 10
4348.1371636557869351
 20
309.1499994674908862
 30
0.0
 11
4348.1363539619869698
 21
309.1494591365909059
 31
0.0
  0
LINE
  5
1ACD4
  8
0
 10
4348.1218790664879634
 20
309.1741068233909004
 30
0.0
 11
4348.1210693727880425
 21
309.1735664925909077
 31
0.0
  0
LINE
  5
1ACD5
  8
0
 10
4348.1065944772881267
 20
309.1982141792909147
 30
0.0
 11
4348.1057847834881613
 21
309.197673848490922
 31
0.0
  0
LINE
  5
1ACD6
  8
0
 10
4348.0913098879882455
 20
309.2223215352909165
 30
0.0
 11
4348.0905001940882357
 21
309.2217812043908793
 31
0.0
  0
LINE
  5
1ACD7
  8
0
 10
4348.049551613587937
 20
309.2046737257909967
 30
0.0
 11
4348.0487419197879717
 21
309.2041333949908903
 31
0.0
  0
LINE
  5
1ACD8
  8
0
 10
4347.9925087497867935
 20
309.2111332723910095
 30
0.0
 11
4347.9916990560877821
 21
309.2105929414909156
 31
0.0
  0
LINE
  5
1ACD9
  8
0
 10
4347.9354658859883784
 20
309.2175928189909087
 30
0.0
 11
4347.9346561921884131
 21
309.2170524880909284
 31
0.0
  0
LINE
  5
1ACDA
  8
0
 10
4347.9507504751882152
 20
309.1934854630910081
 30
0.0
 11
4347.9499407814882943
 21
309.1929451321909141
 31
0.0
  0
LINE
  5
1ACDB
  8
0
 10
4347.9660350644880964
 20
309.1693781070908926
 30
0.0
 11
4347.9652253706881311
 21
309.1688377762908999
 31
0.0
  0
LINE
  5
1ACDC
  8
0
 10
4348.0230779282883304
 20
309.1629185605909242
 30
0.0
 11
4348.0222682344892746
 21
309.1623782296910008
 31
0.0
  0
LINE
  5
1ACDD
  8
0
 10
4348.1942065194880342
 20
309.1435399208908734
 30
0.0
 11
4348.1933968258872483
 21
309.1429995900908807
 31
0.0
  0
LINE
  5
1ACDE
  8
0
 10
4348.3918087959882541
 20
309.1659164465909271
 30
0.0
 11
4348.3909991022883332
 21
309.1653761156908899
 31
0.0
  0
LINE
  5
1ACDF
  8
0
 10
4348.3765242066883729
 20
309.1900238024908845
 30
0.0
 11
4348.3757145129893615
 21
309.1894834716910054
 31
0.0
  0
LINE
  5
1ACE0
  8
0
 10
4348.4335670704876975
 20
309.1835642558908717
 30
0.0
 11
4348.4327573766868227
 21
309.1830239250909926
 31
0.0
  0
LINE
  5
1ACE1
  8
0
 10
4348.4488516597875787
 20
309.1594568999909143
 30
0.0
 11
4348.4480419660867483
 21
309.1589165690908771
 31
0.0
  0
LINE
  5
1ACE2
  8
0
 10
4348.490609934287022
 20
309.1771047093909033
 30
0.0
 11
4348.4898002405880106
 21
309.176564378490923
 31
0.0
  0
LINE
  5
1ACE3
  8
0
 10
4348.3459550281877455
 20
309.2382385143909005
 30
0.0
 11
4348.3451453344869151
 21
309.2376981834909202
 31
0.0
  0
LINE
  5
1ACE4
  8
0
 10
4348.2624384791879493
 20
309.2029428955909225
 30
0.0
 11
4348.261628785387984
 21
309.2024025646908854
 31
0.0
  0
LINE
  5
1ACE5
  8
0
 10
4348.2471538899881125
 20
309.227050251391006
 30
0.0
 11
4348.2463441961881472
 21
309.2265099205908996
 31
0.0
  0
LINE
  5
1ACE6
  8
0
 10
4348.0607407093875736
 20
309.2705362470908881
 30
0.0
 11
4348.0599310155866988
 21
309.2699959161909078
 31
0.0
  0
LINE
  5
1ACE7
  8
0
 10
4348.0036978456082579
 20
309.2769957936989726
 30
0.0
 11
4348.0028881517882837
 21
309.2764554627909206
 31
0.0
  0
LINE
  5
1ACE8
  8
0
 10
4348.0189824348881302
 20
309.2528884377908867
 30
0.0
 11
4348.0181727410872554
 21
309.2523481067909188
 31
0.0
  0
LINE
  5
1ACE9
  8
0
 10
4348.0760252986883643
 20
309.2464288911908739
 30
0.0
 11
4348.0752156048893085
 21
309.2458885602908936
 31
0.0
  0
LINE
  5
1ACEA
  8
0
 10
4348.1636373409883163
 20
309.1917546327910031
 30
0.0
 11
4348.1628276471892605
 21
309.1912143018909092
 31
0.0
  0
LINE
  5
1ACEB
  8
0
 10
4348.1789219302881975
 20
309.1676472767908876
 30
0.0
 11
4348.1781122365873671
 21
309.1671069459910086
 31
0.0
  0
LINE
  5
1ACEC
  8
0
 10
4348.0648362027868643
 20
309.1805663699909132
 30
0.0
 11
4348.0640265089878085
 21
309.1800260390908761
 31
0.0
  0
LINE
  5
1ACED
  8
0
 10
4348.0077933389893587
 20
309.1870259164909953
 30
0.0
 11
4348.0069836451875744
 21
309.1864855856908889
 31
0.0
  0
LINE
  5
1ACEE
  8
0
 10
4347.9772241603868679
 20
309.2352406283908977
 30
0.0
 11
4347.9764144667879009
 21
309.2347002974909174
 31
0.0
  0
LINE
  5
1ACEF
  8
0
 10
4347.9201812966875877
 20
309.2417001748909229
 30
0.0
 11
4347.9193716029867574
 21
309.2411598439908857
 31
0.0
  0
LINE
  5
1ACF0
  8
0
 10
4347.9884132563265666
 20
309.3011031495993848
 30
0.0
 11
4347.9876035625893564
 21
309.300562818690878
 31
0.0
  0
ARC
  5
1ACF1
  8
0
 10
4348.58134307045475
 20
309.8250057417482139
 30
0.0
 40
0.0974494451901379
 50
1.6234374944595871
 51
39.8883428729589227
  0
LINE
  5
1ACF2
  8
0
 10
4347.7673360774870162
 20
309.8277665369909073
 30
0.0
 11
4347.7673360774870162
 21
309.4156515833909111
 31
0.0
  0
ARC
  5
1ACF3
  8
0
 10
4348.3971387548863277
 20
309.4079158522433772
 30
0.0
 40
0.6298501837688248
 50
179.2962836221223881
 51
199.2875257082833116
  0
ARC
  5
1ACF4
  8
0
 10
4347.9568074788148806
 20
309.2690845695095163
 30
0.0
 40
0.1689913972071418
 50
204.1778383457516099
 51
243.1417192738715016
  0
ARC
  5
1ACF5
  8
0
 10
4348.1124119750829777
 20
309.5313467802350829
 30
0.0
 40
0.4736989150242975
 50
240.6816377819079946
 51
255.162546639777787
  0
ARC
  5
1ACF6
  8
0
 10
4347.9059867137939364
 20
309.2212308397349716
 30
0.0
 40
0.0795925910335543
 50
136.7928667665674141
 51
222.5787159258456995
  0
ARC
  5
1ACF7
  8
0
 10
4348.0667007473193735
 20
309.0586136008325866
 30
0.0
 40
0.3081854875825375
 50
103.4488842830123048
 51
135.2127578032722113
  0
ARC
  5
1ACF8
  8
0
 10
4348.0640270261919795
 20
309.3786633439999036
 30
0.0
 40
0.3026182621382385
 50
224.2819683625162099
 51
256.819401072776202
  0
LINE
  5
1ACF9
  8
0
 10
4347.8549345029687174
 20
309.2825183853072986
 30
0.0
 11
4347.8549345170868037
 21
309.2300595455909047
 31
0.0
  0
ARC
  5
1ACFA
  8
0
 10
4347.9446977752959356
 20
309.2318029866718234
 30
0.0
 40
0.0897801877411168
 50
181.1126964366897028
 51
217.3029901535605006
  0
ARC
  5
1ACFB
  8
0
 10
4348.0362341742511489
 20
309.3092583523629742
 30
0.0
 40
0.2096222063835516
 50
218.9807698676189887
 51
246.8992445845757118
  0
ARC
  5
1ACFC
  8
0
 10
4347.9452873090458525
 20
309.2158288396271928
 30
0.0
 40
0.0667295788758676
 50
144.1028394815153035
 51
215.8971605184821101
  0
ARC
  5
1ACFD
  8
0
 10
4347.9674626688092758
 20
309.2210598167803823
 30
0.0
 40
0.0603621750089799
 50
149.1812555276314924
 51
214.3716103063302967
  0
ARC
  5
1ACFE
  8
0
 10
4348.0707294619323875
 20
309.1374750444131791
 30
0.0
 40
0.1927956391237959
 50
105.2760614133110977
 51
143.562632948837205
  0
ARC
  5
1ACFF
  8
0
 10
4348.0339930206000645
 20
309.2679332473509248
 30
0.0
 40
0.1417431531517205
 50
214.8278887966015986
 51
241.1508638748451006
  0
ARC
  5
1AD00
  8
0
 10
4348.1439367223993031
 20
309.4594978710014743
 30
0.0
 40
0.3626023249694201
 50
240.5396508359523011
 51
257.2114683249785116
  0
ARC
  5
1AD01
  8
0
 10
4347.9490705155076284
 20
309.2379380678206076
 30
0.0
 40
0.0610526381043612
 50
165.6348118788432942
 51
196.3556601441349017
  0
ARC
  5
1AD02
  8
0
 10
4348.0186051494838466
 20
309.2668124483021757
 30
0.0
 40
0.1361470130880972
 50
199.7770048032076033
 51
244.897820976349891
  0
ARC
  5
1AD03
  8
0
 10
4348.1796929058918977
 20
309.561100730335113
 30
0.0
 40
0.4714485496058362
 50
242.341607134630209
 51
266.5545119342257863
  0
ARC
  5
1AD04
  8
0
 10
4348.1039629878523556
 20
309.0546710458625057
 30
0.0
 40
0.2921782128764817
 50
100.2868581753743058
 51
136.7263156818443122
  0
ARC
  5
1AD05
  8
0
 10
4348.0469188515162386
 20
309.2977385904520133
 30
0.0
 40
0.1972006362077029
 50
217.8624599530870967
 51
252.0426845385306081
  0
ARC
  5
1AD06
  8
0
 10
4348.2175825034037189
 20
309.7611643091909741
 30
0.0
 40
0.690942717187041
 50
250.4277743716932889
 51
270.4529554983010939
  0
ARC
  5
1AD07
  8
0
 10
4347.8647464074192612
 20
309.8250057417482139
 30
0.0
 40
0.0974494451901379
 50
140.1116571270410986
 51
178.3765625055403916
  0
ARC
  5
1AD08
  8
0
 10
4348.2230448180016538
 20
309.0225472638218776
 30
0.0
 40
0.9978100754689718
 50
74.7788827302365604
 51
105.2211258229744999
  0
ARC
  5
1AD09
  8
0
 10
4348.4162227846300084
 20
309.6665554657881785
 30
0.0
 40
0.32613617622346
 50
42.6454188742833225
 51
77.8231401430480787
  0
ARC
  5
1AD0A
  8
0
 10
4348.0425225524140842
 20
309.6444262521873725
 30
0.0
 40
0.3505216265043417
 50
103.4361476086563982
 51
136.0952694817326858
  0
ARC
  5
1AD0B
  8
0
 10
4348.4580077884838829
 20
309.234729977988593
 30
0.0
 40
0.0817138634480743
 50
306.171761827111311
 51
352.0744848817698198
  0
ARC
  5
1AD0C
  8
0
 10
4348.3080027745472762
 20
309.438826091951114
 30
0.0
 40
0.3350054549532866
 50
279.9000743827900806
 51
306.2799560314375071
  0
ARC
  5
1AD0D
  8
0
 10
4348.2230447389383698
 20
309.8072092383841891
 30
0.0
 40
0.712800652898139
 50
258.463408506661608
 51
281.536591493338392
  0
ARC
  5
1AD0E
  8
0
 10
4348.2230447389383698
 20
309.8391850436639174
 30
0.0
 40
0.7521047538420288
 50
264.5306648936020792
 51
275.4693351063979208
  0
ARC
  5
1AD0F
  8
0
 10
4347.9880816893919473
 20
309.234729977988593
 30
0.0
 40
0.0817138634480743
 50
187.9255151182399004
 51
233.828238172888689
  0
ARC
  5
1AD10
  8
0
 10
4348.138086703328554
 20
309.438826091951114
 30
0.0
 40
0.3350054549532866
 50
233.7200439685624076
 51
260.0999256172099194
  0
ENDSEC
  0
EOF
