  0
SECTION
  2
HEADER
  9
$ACADVER
  1
AC1009
  9
$INSBASE
 10
4371.5549331069460095
 20
304.0787532909852757
 30
0.0
  9
$EXTMIN
 10
4363.1499975106962665
 20
302.8697809668367995
 30
-0.0000000349181948
  9
$EXTMAX
 10
4371.7974014329902275
 20
311.7807904892757165
 30
0.0000000814935746
  9
$LIMMIN
 10
0.0
 20
0.0
  9
$LIMMAX
 10
11.6929133858000007
 20
8.2677165353999982
  9
$ORTHOMODE
 70
     0
  9
$REGENMODE
 70
     1
  9
$FILLMODE
 70
     1
  9
$QTEXTMODE
 70
     0
  9
$MIRRTEXT
 70
     0
  9
$DRAGMODE
 70
     2
  9
$LTSCALE
 40
0.6431102362
  9
$OSMODE
 70
     3
  9
$ATTMODE
 70
     1
  9
$TEXTSIZE
 40
0.2
  9
$TRACEWID
 40
0.05
  9
$TEXTSTYLE
  7
STANDARD
  9
$CLAYER
  8
0
  9
$CELTYPE
  6
BYLAYER
  9
$CECOLOR
 62
   256
  9
$DIMSCALE
 40
1.0
  9
$DIMASZ
 40
0.1875
  9
$DIMEXO
 40
0.0625
  9
$DIMDLI
 40
0.4443307087
  9
$DIMRND
 40
0.0
  9
$DIMDLE
 40
0.0
  9
$DIMEXE
 40
0.125
  9
$DIMTP
 40
0.01
  9
$DIMTM
 40
0.01
  9
$DIMTXT
 40
2.0
  9
$DIMCEN
 40
0.1052362205
  9
$DIMTSZ
 40
0.0
  9
$DIMTOL
 70
     1
  9
$DIMLIM
 70
     0
  9
$DIMTIH
 70
     1
  9
$DIMTOH
 70
     1
  9
$DIMSE1
 70
     0
  9
$DIMSE2
 70
     0
  9
$DIMTAD
 70
     0
  9
$DIMZIN
 70
     0
  9
$DIMBLK
  1

  9
$DIMASO
 70
     1
  9
$DIMSHO
 70
     1
  9
$DIMPOST
  1
\X
  9
$DIMAPOST
  1

  9
$DIMALT
 70
     1
  9
$DIMALTD
 70
     2
  9
$DIMALTF
 40
25.3999999999999986
  9
$DIMLFAC
 40
1.0
  9
$DIMTOFL
 70
     0
  9
$DIMTVP
 40
0.0
  9
$DIMTIX
 70
     0
  9
$DIMSOXD
 70
     0
  9
$DIMSAH
 70
     0
  9
$DIMBLK1
  1

  9
$DIMBLK2
  1

  9
$DIMSTYLE
  2
STANDARD
  9
$DIMCLRD
 70
     0
  9
$DIMCLRE
 70
     0
  9
$DIMCLRT
 70
     0
  9
$DIMTFAC
 40
1.0
  9
$DIMGAP
 40
0.09
  9
$LUNITS
 70
     2
  9
$LUPREC
 70
     4
  9
$SKETCHINC
 40
0.1
  9
$FILLETRAD
 40
0.0
  9
$AUNITS
 70
     0
  9
$AUPREC
 70
     0
  9
$MENU
  1
.
  9
$ELEVATION
 40
0.0
  9
$PELEVATION
 40
0.0
  9
$THICKNESS
 40
0.0
  9
$LIMCHECK
 70
     0
  9
$BLIPMODE
 70
     0
  9
$CHAMFERA
 40
0.0
  9
$CHAMFERB
 40
0.0
  9
$SKPOLY
 70
     0
  9
$TDCREATE
 40
2458060.468368056230247
  9
$TDUPDATE
 40
2459149.5070254630409181
  9
$TDINDWG
 40
0.4667315972
  9
$TDUSRTIMER
 40
0.4667315972
  9
$USRTIMER
 70
     1
  9
$ANGBASE
 50
0.0
  9
$ANGDIR
 70
     0
  9
$PDMODE
 70
     0
  9
$PDSIZE
 40
0.3125
  9
$PLINEWID
 40
0.0
  9
$COORDS
 70
     1
  9
$SPLFRAME
 70
     0
  9
$SPLINETYPE
 70
     6
  9
$SPLINESEGS
 70
     8
  9
$ATTDIA
 70
     1
  9
$ATTREQ
 70
     1
  9
$HANDLING
 70
     1
  9
$HANDSEED
  5
17FE7
  9
$SURFTAB1
 70
     6
  9
$SURFTAB2
 70
     6
  9
$SURFTYPE
 70
     6
  9
$SURFU
 70
     6
  9
$SURFV
 70
     6
  9
$UCSNAME
  2

  9
$UCSORG
 10
0.0
 20
0.0
 30
0.0
  9
$UCSXDIR
 10
1.0
 20
0.0
 30
0.0
  9
$UCSYDIR
 10
0.0
 20
1.0
 30
0.0
  9
$PUCSNAME
  2

  9
$PUCSORG
 10
0.0
 20
0.0
 30
0.0
  9
$PUCSXDIR
 10
1.0
 20
0.0
 30
0.0
  9
$PUCSYDIR
 10
0.0
 20
1.0
 30
0.0
  9
$USERI1
 70
     0
  9
$USERI2
 70
     0
  9
$USERI3
 70
     0
  9
$USERI4
 70
     0
  9
$USERI5
 70
     0
  9
$USERR1
 40
0.0
  9
$USERR2
 40
0.0
  9
$USERR3
 40
0.0
  9
$USERR4
 40
0.0
  9
$USERR5
 40
0.0
  9
$WORLDVIEW
 70
     1
  9
$SHADEDGE
 70
     3
  9
$SHADEDIF
 70
    70
  9
$TILEMODE
 70
     1
  9
$MAXACTVP
 70
    64
  9
$PLIMCHECK
 70
     0
  9
$PEXTMIN
 10
1.0000000000000000E+20
 20
1.0000000000000000E+20
 30
1.0000000000000000E+20
  9
$PEXTMAX
 10
-1.0000000000000000E+20
 20
-1.0000000000000000E+20
 30
-1.0000000000000000E+20
  9
$PLIMMIN
 10
0.0
 20
0.0
  9
$PLIMMAX
 10
12.0
 20
9.0
  9
$UNITMODE
 70
     0
  9
$VISRETAIN
 70
     1
  9
$PLINEGEN
 70
     0
  9
$PSLTSCALE
 70
     1
  0
ENDSEC
  0
SECTION
  2
TABLES
  0
TABLE
  2
VPORT
 70
     1
  0
VPORT
  2
*ACTIVE
 70
     0
 10
0.0
 20
0.0
 11
1.0
 21
1.0
 12
456.1083430265306902
 22
174.7456806255171955
 13
0.0
 23
0.0
 14
1.0
 24
1.0
 15
0.0
 25
0.0
 16
0.0
 26
0.0
 36
60.4960186965801583
 17
3911.3653564453120453
 27
132.5796051025390057
 37
0.0
 40
8.9646364603872826
 41
1.9267068273092369
 42
50.0
 43
0.0
 44
0.0
 50
0.0
 51
0.0
 71
     0
 72
   100
 73
     1
 74
     1
 75
     0
 76
     0
 77
     0
 78
     0
  0
ENDTAB
  0
TABLE
  2
LTYPE
 70
     2
  0
LTYPE
  2
CONTINUOUS
 70
     0
  3
Solid line
 72
    65
 73
     0
 40
0.0
  0
LTYPE
  2
PHANTOM2
 70
     0
  3
___ _ _ ___ _ _ ___ _ _ ___ _ _
 72
    65
 73
     6
 40
1.25
 49
0.625
 49
-0.125
 49
0.125
 49
-0.125
 49
0.125
 49
-0.125
  0
ENDTAB
  0
TABLE
  2
LAYER
 70
     2
  0
LAYER
  2
0
 70
     0
 62
   255
  6
CONTINUOUS
  0
LAYER
  2
DEFPOINTS
 70
     0
 62
     7
  6
CONTINUOUS
  0
ENDTAB
  0
TABLE
  2
STYLE
 70
     1
  0
STYLE
  2
STANDARD
 70
     0
 40
0.0
 41
0.8
 50
0.0
 71
     0
 42
0.2
  3
txt
  4

  0
ENDTAB
  0
TABLE
  2
VIEW
 70
     0
  0
ENDTAB
  0
TABLE
  2
UCS
 70
     0
  0
ENDTAB
  0
TABLE
  2
APPID
 70
    10
  0
APPID
  2
ACAD
 70
     0
  0
APPID
  2
ACAD_MLEADERVER
 70
     0
  0
APPID
  2
ACAD_EXEMPT_FROM_CAD_STANDARDS
 70
     0
  0
APPID
  2
ACAD_NAV_VCDISPLAY
 70
     0
  0
APPID
  2
ACAECLAYERSTANDARD
 70
     0
  0
APPID
  2
ACCMTRANSPARENCY
 70
     0
  0
APPID
  2
ACAD_DSTYLE_DIMJAG
 70
     0
  0
APPID
  2
ACAD_DSTYLE_DIMTALN
 70
     0
  0
APPID
  2
ACDBATTR
 70
     0
  0
APPID
  2
ACADANNOTATIVE
 70
     0
  0
ENDTAB
  0
TABLE
  2
DIMSTYLE
 70
     1
  0
DIMSTYLE
  2
STANDARD
 70
     0
  3

  4

  5

  6

  7

 40
1.0
 41
0.1875
 42
0.0625
 43
0.38
 44
0.125
 45
0.0
 46
0.0
 47
0.01
 48
0.01
140
0.15625
141
0.09
142
0.0
143
25.3999999999999986
144
1.0
145
0.0
146
1.0
147
0.09
 71
     1
 72
     0
 73
     1
 74
     1
 75
     0
 76
     0
 77
     0
 78
     4
170
     0
171
     2
172
     0
173
     0
174
     0
175
     0
176
     0
177
     0
178
     0
  0
ENDTAB
  0
ENDSEC
  0
SECTION
  2
BLOCKS
  0
BLOCK
  8
0
  2
$MODEL_SPACE
 70
     0
 10
0.0
 20
0.0
 30
0.0
  3
$MODEL_SPACE
  1

  0
ENDBLK
  5
21
  8
0
  0
BLOCK
 67
     1
  8
0
  2
$PAPER_SPACE
 70
     0
 10
0.0
 20
0.0
 30
0.0
  3
$PAPER_SPACE
  1

  0
ENDBLK
  5
1D
 67
     1
  8
0
  0
ENDSEC
  0
SECTION
  2
ENTITIES
  0
ATTDEF
  5
159BF
  8
0
 10
4371.5555513558456369
 20
304.0820583513295219
 30
0.0
 40
0.001
  1
K-37314IN-4
  3

  2
MODELNUMBER
 70
     0
1001
ACDBATTR
1070
     0
1070
     1
  0
ATTDEF
  5
159C0
  8
0
 10
4371.5554255461902358
 20
304.0803915109502782
 30
0.0
 40
0.001
  1
CUFF
  3

  2
TRADENAME
 70
     0
1001
ACDBATTR
1070
     0
1070
     1
  0
ATTDEF
  5
159C1
  8
0
 10
4371.5555513558456369
 20
304.0787250179960779
 30
0.0
 40
0.001
  1
KITCHEN SINK FAUCET
  3

  2
PRODUCT
 70
     0
1001
ACDBATTR
1070
     0
1070
     1
  0
LINE
  5
17EE1
  8
0
 10
4365.6691063352473066
 20
311.7756036846852794
 30
0.0
 11
4368.5824921620469468
 21
311.7756036846852794
 31
0.0
  0
LINE
  5
17EE2
  8
0
 10
4365.6691063352473066
 20
310.9094619523851861
 30
0.0
 11
4368.5824921620469468
 21
310.9094619523851861
 31
0.0
  0
LINE
  5
17EE3
  8
0
 10
4363.8493544794473564
 20
310.6162938952853096
 30
0.0
 11
4363.5415419659457257
 21
309.956187829885323
 31
0.0
  0
LINE
  5
17EE4
  8
0
 10
4364.6343454760472014
 20
310.2502465819853228
 30
0.0
 11
4364.3265329625473896
 21
309.5901405165852793
 31
0.0
  0
LINE
  5
17EE5
  8
0
 10
4363.3283906551469045
 20
309.5526489557852869
 30
0.0
 11
4363.5210251558473828
 21
309.9657549755851846
 31
0.0
  0
LINE
  5
17EE6
  8
0
 10
4363.5210251558473828
 20
309.9657549755851846
 30
0.0
 11
4364.3470489932469718
 21
309.5805737343853252
 31
0.0
  0
LINE
  5
17EE7
  8
0
 10
4364.3470489932469718
 20
309.5805737343853252
 30
0.0
 11
4364.1544152647466035
 21
309.1674673353851972
 31
0.0
  0
LINE
  5
17EE8
  8
0
 10
4363.2728221916459006
 20
309.3430126341852997
 30
0.0
 11
4364.0295432526472723
 21
308.9901478083853021
 31
0.0
  0
LINE
  5
17EE9
  8
0
 10
4363.329330625946568
 20
309.3101463072853221
 30
0.0
 11
4363.9680432641462176
 21
309.012309712685294
 31
0.0
  0
LINE
  5
17EEA
  8
0
 10
4370.5903661778484093
 20
309.7677296689852824
 30
0.0
 11
4370.5903661778484093
 21
306.5590682515851881
 31
0.0
  0
LINE
  5
17EEB
  8
0
 10
4369.7242244455474065
 20
309.7677296689852824
 30
0.0
 11
4369.7242244455474065
 21
306.5590682515851881
 31
0.0
  0
LINE
  5
17EEC
  8
0
 10
4369.6946968864467635
 20
306.1456824248851945
 30
0.0
 11
4369.6946968864467635
 21
306.5590682515851881
 31
0.0
  0
LINE
  5
17EED
  8
0
 10
4369.6946968864467635
 20
306.5590682515851881
 30
0.0
 11
4370.6198937368462794
 21
306.5590682515851881
 31
0.0
  0
LINE
  5
17EEE
  8
0
 10
4370.6198937368462794
 20
306.5590682515851881
 30
0.0
 11
4370.6198937368462794
 21
306.1456824248851945
 31
0.0
  0
LINE
  5
17EEF
  8
0
 10
4369.5766223486471063
 20
306.1259973854852774
 30
0.0
 11
4370.7379682747468905
 21
306.1259973854852774
 31
0.0
  0
LINE
  5
17EF0
  8
0
 10
4369.5569373092466776
 20
306.1063123460851898
 30
0.0
 11
4369.5569373092466776
 21
305.229993945885326
 31
0.0
  0
LINE
  5
17EF1
  8
0
 10
4370.7576533140472748
 20
306.1063123460851898
 30
0.0
 11
4370.7576533140472748
 21
305.2299939192852776
 31
0.0
  0
LINE
  5
17EF2
  8
0
 10
4368.1996654789472814
 20
306.6221921146852765
 30
0.0
 11
4368.1996654215472518
 21
304.8799343920852039
 31
0.0
  0
LINE
  5
17EF3
  8
0
 10
4368.0874603956472129
 20
304.7677296689852824
 30
0.0
 11
4367.7943745615466469
 21
304.7677296689852824
 31
0.0
  0
LINE
  5
17EF4
  8
0
 10
4368.9528249247459826
 20
304.7677296689852824
 30
0.0
 11
4368.6858890936473472
 21
304.7677296689852824
 31
0.0
  0
LINE
  5
17EF5
  8
0
 10
4368.972509803947105
 20
304.748046087185287
 30
0.0
 11
4368.972509803947105
 21
303.4094621140852723
 31
0.0
  0
LINE
  5
17EF6
  8
0
 10
4369.0158168906473293
 20
303.4094682332852813
 30
0.0
 11
4369.0158168906473293
 21
304.7480382460852866
 31
0.0
  0
LINE
  5
17EF7
  8
0
 10
4369.0355019296466708
 20
304.7677296689852824
 30
0.0
 11
4369.1194479748473896
 21
304.7677597225851969
 31
0.0
  0
LINE
  5
17EF8
  8
0
 10
4369.0355018470472714
 20
303.3897769130853135
 30
0.0
 11
4371.2990275951469812
 21
303.3897769130853135
 31
0.0
  0
LINE
  5
17EF9
  8
0
 10
4371.5549331069460095
 20
305.2754845634852927
 30
0.0
 11
4371.5549331069460095
 21
302.8820220184853156
 31
0.0
  0
LINE
  5
17EFA
  8
0
 10
4371.3187126344473654
 20
305.197102718685187
 30
0.0
 11
4371.3187126344473654
 21
302.9604038632851939
 31
0.0
  0
LINE
  5
17EFB
  8
0
 10
4371.2990275951469812
 20
304.7677296689852824
 30
0.0
 11
4371.1951028192470403
 21
304.7677600374852886
 31
0.0
  0
CIRCLE
  5
17EFC
  8
0
 10
4370.1572953116474309
 20
305.5748162830852834
 30
0.0
 40
0.1653543307000014
  0
ARC
  5
17EFD
  8
0
 10
4377.4599462982259865
 20
304.0787042042747998
 30
0.0
 40
9.708434835618986
 50
176.0386293619978915
 51
183.9608160818249019
  0
ARC
  5
17EFE
  8
0
 10
4367.7944360720202894
 20
303.4095666420533917
 30
0.0
 40
0.0197905412982517
 50
184.2456457207402138
 51
269.8229100186641176
  0
LINE
  5
17EFF
  8
0
 10
4367.7943749034457142
 20
303.3897761952853216
 30
0.0
 11
4368.9528248156466361
 21
303.3897769130853135
 31
0.0
  0
ARC
  5
17F00
  8
0
 10
4368.9528275202046643
 20
303.4094591968577106
 30
0.0
 40
0.0196822839582508
 50
269.9921269423983858
 51
0.0084921459534053
  0
ARC
  5
17F01
  8
0
 10
4369.0354988573453738
 20
303.4094588817794147
 30
0.0
 40
0.0196819689212154
 50
179.9727770204372064
 51
270.0087032560252851
  0
LINE
  5
17F02
  8
0
 10
4368.972509803947105
 20
303.4882021098852078
 30
0.0
 11
4369.0158168906473293
 21
303.4882021098852078
 31
0.0
  0
LINE
  5
17F03
  8
0
 10
4368.972509803947105
 20
304.6693044720852868
 30
0.0
 11
4369.0158168906473293
 21
304.6693044720852868
 31
0.0
  0
ARC
  5
17F04
  8
0
 10
4368.952828475640672
 20
304.7480483408704117
 30
0.0
 40
0.0196813284351634
 50
359.9934391294333977
 51
90.0103372714077068
  0
ARC
  5
17F05
  8
0
 10
4369.0354995063462411
 20
304.7480470514660169
 30
0.0
 40
0.0196826176684529
 50
89.992945809716133
 51
180.0256323207559035
  0
ARC
  5
17F06
  8
0
 10
4368.0874592329937514
 20
304.8799358575415113
 30
0.0
 40
0.1122061885622512
 50
270.0005936846678765
 51
359.9992516949556034
  0
LINE
  5
17F07
  8
0
 10
4368.5736847357457009
 20
306.6222437318851917
 30
0.0
 11
4368.5736846059471645
 21
304.8799342724852863
 31
0.0
  0
ARC
  5
17F08
  8
0
 10
4368.5639067313168198
 20
306.6221250508644971
 30
0.0
 40
0.0097787246510426
 50
0.6953962594696329
 51
82.8306592156040153
  0
ARC
  5
17F09
  8
0
 10
4368.6858912815187068
 20
304.8799363445552899
 30
0.0
 40
0.1122066755913759
 50
180.0010580553048953
 51
269.9988828129525018
  0
ARC
  5
17F0A
  8
0
 10
4369.1271052683887319
 20
305.1986640199232852
 30
0.0
 40
0.4309723281241891
 50
268.9819446390519033
 51
4.1688462420220791
  0
ARC
  5
17F0B
  8
0
 10
4371.1875309629958792
 20
305.1987081324101041
 30
0.0
 40
0.4310146094118073
 50
175.8374464854792905
 51
271.0065963305096943
  0
LINE
  5
17F0C
  8
0
 10
4371.5549331069460095
 20
305.2754845634852927
 30
0.0
 11
4371.3762146349472459
 21
305.2598556531851841
 31
0.0
  0
ARC
  5
17F0D
  8
0
 10
4371.381704760363391
 20
305.1971032313148271
 30
0.0
 40
0.0629921259181932
 50
94.9999999036199654
 51
180.000466272705097
  0
ARC
  5
17F0E
  8
0
 10
4371.381704760363391
 20
302.9604033506557244
 30
0.0
 40
0.0629921259181932
 50
179.999533727294903
 51
265.0000000963800062
  0
ARC
  5
17F0F
  8
0
 10
4371.2990275953179662
 20
303.4094619523145866
 30
0.0
 40
0.0196850392292905
 50
269.9999995031291746
 51
0.0000002058092661
  0
ARC
  5
17F10
  8
0
 10
4371.2990275951469812
 20
304.7480446295851948
 30
0.0
 40
0.0196850393999988
 50
359.9999999999968168
 51
90.0
  0
ARC
  5
17F11
  8
0
 10
4369.5766223486471063
 20
306.1063123460851898
 30
0.0
 40
0.0196850393999952
 50
90.0
 51
180.0000000000065086
  0
ARC
  5
17F12
  8
0
 10
4369.7143819258471922
 20
306.1456824248851945
 30
0.0
 40
0.0196850394000023
 50
180.0000000000032117
 51
270.0000371505656744
  0
ARC
  5
17F13
  8
0
 10
4370.6002086974467602
 20
306.1456824248851945
 30
0.0
 40
0.0196850394000059
 50
269.9999628494343256
 51
359.9999999999805027
  0
ARC
  5
17F14
  8
0
 10
4370.7379682748169216
 20
306.1063123462560043
 30
0.0
 40
0.0196850392292944
 50
359.9999995031324147
 51
90.0000002057832091
  0
ARC
  5
17F15
  8
0
 10
4368.5824921622170223
 20
309.7677296690559956
 30
0.0
 40
1.141732283329288
 50
359.9999999964500148
 51
90.0000000085460812
  0
ARC
  5
17F16
  8
0
 10
4368.5824921619760062
 20
309.7677296688145816
 30
0.0
 40
2.007874015870708
 50
0.0000000048723044
 51
89.9999999979677057
  0
ARC
  5
17F17
  8
0
 10
4365.6691063352282072
 20
309.7677296690484923
 30
0.0
 40
2.0078740156367241
 50
89.9999999994789022
 51
155.0000000014379111
  0
ARC
  5
17F18
  8
0
 10
4365.6691063349471733
 20
309.7677296693761946
 30
0.0
 40
1.1417322830091099
 50
89.9999999849401462
 51
155.000000011601486
  0
ARC
  5
17F19
  8
0
 10
4363.9318163031275617
 20
309.2631176201562084
 30
0.0
 40
0.6692913468374769
 50
154.3677132053562104
 51
172.4389209121798103
  0
ARC
  5
17F1A
  8
0
 10
4363.2761498945546919
 20
309.3501489160101983
 30
0.0
 40
0.0078740158072087
 50
172.438920963517603
 51
244.999999716963714
  0
ARC
  5
17F1B
  8
0
 10
4363.3359937511913813
 20
309.3244152812033008
 30
0.0
 40
0.0157480428845107
 50
193.6821970333757861
 51
244.9690260869433018
  0
ARC
  5
17F1C
  8
0
 10
4363.9746909579480416
 20
309.026585882785696
 30
0.0
 40
0.0157480432311428
 50
245.0309746172349037
 51
296.3178026754038115
  0
ARC
  5
17F1D
  8
0
 10
4364.0328709554387387
 20
308.9972840903768088
 30
0.0
 40
0.007874015908954
 50
245.0000009984638041
 51
317.5556810631418898
  0
ARC
  5
17F1E
  8
0
 10
4363.5447468829970603
 20
309.4436110523831189
 30
0.0
 40
0.6692913327867207
 50
317.5610154271435022
 51
335.6322855275478787
  0
ARC
  5
17F1F
  8
0
 10
4370.1572757279309371
 20
305.393525138740074
 30
0.0
 40
1.229309537761323
 50
210.6001739391410013
 51
329.3999153692213895
  0
ARC
  5
17F20
  8
0
 10
4368.3866749779517704
 20
306.0180428670601032
 30
0.0
 40
1.2856193016605211
 50
256.5412331156455252
 51
283.4587668843544748
  0
ARC
  5
17F21
  8
0
 10
4367.794429318287257
 20
304.7479537553666091
 30
0.0
 40
0.0197759894253406
 50
90.1586435981252237
 51
175.8042343570793093
  0
LINE
  5
17F22
  8
0
 10
4371.5549331069460095
 20
302.8820220184853156
 30
0.0
 11
4371.3762146349472459
 21
302.8976509287851968
 31
0.0
  0
ARC
  5
17F23
  8
0
 10
4368.2094433434476741
 20
306.6221250508644971
 30
0.0
 40
0.0097787246510426
 50
97.1693407843959847
 51
179.3046037405304105
  0
ARC
  5
17F24
  8
0
 10
4368.3866750373827017
 20
303.9625465123085064
 30
0.0
 40
2.6752392775962131
 50
86.1752393325896975
 51
93.8247606674102883
  0
ENDSEC
  0
EOF
