  0
SECTION
  2
HEADER
  9
$ACADVER
  1
AC1009
  9
$INSBASE
 10
4838.1331481140732649
 20
247.2028332983016128
 30
0.0
  9
$EXTMIN
 10
4831.864398901821005
 20
247.1971099906778022
 30
0.0
  9
$EXTMAX
 10
4839.6818487826740238
 20
253.1279852300284006
 30
0.0
  9
$LIMMIN
 10
0.0
 20
0.0
  9
$LIMMAX
 10
11.6929133858000007
 20
8.2677165353999982
  9
$ORTHOMODE
 70
     0
  9
$REGENMODE
 70
     1
  9
$FILLMODE
 70
     1
  9
$QTEXTMODE
 70
     0
  9
$MIRRTEXT
 70
     0
  9
$DRAGMODE
 70
     2
  9
$LTSCALE
 40
0.6431102362
  9
$OSMODE
 70
  4095
  9
$ATTMODE
 70
     1
  9
$TEXTSIZE
 40
0.2
  9
$TRACEWID
 40
0.05
  9
$TEXTSTYLE
  7
STANDARD
  9
$CLAYER
  8
0
  9
$CELTYPE
  6
BYLAYER
  9
$CECOLOR
 62
   256
  9
$DIMSCALE
 40
1.0
  9
$DIMASZ
 40
0.1875
  9
$DIMEXO
 40
0.0625
  9
$DIMDLI
 40
0.4443307087
  9
$DIMRND
 40
0.0
  9
$DIMDLE
 40
0.0
  9
$DIMEXE
 40
0.125
  9
$DIMTP
 40
0.01
  9
$DIMTM
 40
0.01
  9
$DIMTXT
 40
2.0
  9
$DIMCEN
 40
0.1052362205
  9
$DIMTSZ
 40
0.0
  9
$DIMTOL
 70
     1
  9
$DIMLIM
 70
     0
  9
$DIMTIH
 70
     1
  9
$DIMTOH
 70
     1
  9
$DIMSE1
 70
     0
  9
$DIMSE2
 70
     0
  9
$DIMTAD
 70
     0
  9
$DIMZIN
 70
     0
  9
$DIMBLK
  1

  9
$DIMASO
 70
     1
  9
$DIMSHO
 70
     1
  9
$DIMPOST
  1
\X
  9
$DIMAPOST
  1

  9
$DIMALT
 70
     1
  9
$DIMALTD
 70
     2
  9
$DIMALTF
 40
25.3999999999999986
  9
$DIMLFAC
 40
1.0
  9
$DIMTOFL
 70
     0
  9
$DIMTVP
 40
0.0
  9
$DIMTIX
 70
     0
  9
$DIMSOXD
 70
     0
  9
$DIMSAH
 70
     0
  9
$DIMBLK1
  1

  9
$DIMBLK2
  1

  9
$DIMSTYLE
  2
STANDARD
  9
$DIMCLRD
 70
     0
  9
$DIMCLRE
 70
     0
  9
$DIMCLRT
 70
     0
  9
$DIMTFAC
 40
1.0
  9
$DIMGAP
 40
0.09
  9
$LUNITS
 70
     2
  9
$LUPREC
 70
     4
  9
$SKETCHINC
 40
0.1
  9
$FILLETRAD
 40
0.0
  9
$AUNITS
 70
     0
  9
$AUPREC
 70
     0
  9
$MENU
  1
.
  9
$ELEVATION
 40
0.0
  9
$PELEVATION
 40
0.0
  9
$THICKNESS
 40
0.0
  9
$LIMCHECK
 70
     0
  9
$BLIPMODE
 70
     0
  9
$CHAMFERA
 40
0.0
  9
$CHAMFERB
 40
0.0
  9
$SKPOLY
 70
     0
  9
$TDCREATE
 40
2458060.468368056230247
  9
$TDUPDATE
 40
2459362.6389467590488493
  9
$TDINDWG
 40
0.3584792824
  9
$TDUSRTIMER
 40
0.3584792824
  9
$USRTIMER
 70
     1
  9
$ANGBASE
 50
0.0
  9
$ANGDIR
 70
     0
  9
$PDMODE
 70
     0
  9
$PDSIZE
 40
0.3125
  9
$PLINEWID
 40
0.0
  9
$COORDS
 70
     1
  9
$SPLFRAME
 70
     0
  9
$SPLINETYPE
 70
     6
  9
$SPLINESEGS
 70
     8
  9
$ATTDIA
 70
     1
  9
$ATTREQ
 70
     1
  9
$HANDLING
 70
     1
  9
$HANDSEED
  5
CC48
  9
$SURFTAB1
 70
     6
  9
$SURFTAB2
 70
     6
  9
$SURFTYPE
 70
     6
  9
$SURFU
 70
     6
  9
$SURFV
 70
     6
  9
$UCSNAME
  2

  9
$UCSORG
 10
0.0
 20
0.0
 30
0.0
  9
$UCSXDIR
 10
1.0
 20
0.0
 30
0.0
  9
$UCSYDIR
 10
0.0
 20
1.0
 30
0.0
  9
$PUCSNAME
  2

  9
$PUCSORG
 10
0.0
 20
0.0
 30
0.0
  9
$PUCSXDIR
 10
1.0
 20
0.0
 30
0.0
  9
$PUCSYDIR
 10
0.0
 20
1.0
 30
0.0
  9
$USERI1
 70
     0
  9
$USERI2
 70
     0
  9
$USERI3
 70
     0
  9
$USERI4
 70
     0
  9
$USERI5
 70
     0
  9
$USERR1
 40
0.0
  9
$USERR2
 40
0.0
  9
$USERR3
 40
0.0
  9
$USERR4
 40
0.0
  9
$USERR5
 40
0.0
  9
$WORLDVIEW
 70
     1
  9
$SHADEDGE
 70
     3
  9
$SHADEDIF
 70
    70
  9
$TILEMODE
 70
     1
  9
$MAXACTVP
 70
    64
  9
$PLIMCHECK
 70
     0
  9
$PEXTMIN
 10
1.0000000000000000E+20
 20
1.0000000000000000E+20
 30
1.0000000000000000E+20
  9
$PEXTMAX
 10
-1.0000000000000000E+20
 20
-1.0000000000000000E+20
 30
-1.0000000000000000E+20
  9
$PLIMMIN
 10
0.0
 20
0.0
  9
$PLIMMAX
 10
12.0
 20
9.0
  9
$UNITMODE
 70
     0
  9
$VISRETAIN
 70
     1
  9
$PLINEGEN
 70
     0
  9
$PSLTSCALE
 70
     1
  0
ENDSEC
  0
SECTION
  2
TABLES
  0
TABLE
  2
VPORT
 70
     1
  0
VPORT
  2
*ACTIVE
 70
     0
 10
0.0
 20
0.0
 11
1.0
 21
1.0
 12
20.5958676761174502
 22
2.3483745009124268
 13
0.0
 23
0.0
 14
1.0
 24
1.0
 15
0.0
 25
0.0
 16
0.0
 26
0.0
 36
9.5192988075487186
 17
4815.2983398437490905
 27
247.8086242675780966
 37
0.0
 40
5.9916847071919541
 41
2.1302631578947362
 42
50.0
 43
0.0
 44
0.0
 50
0.0
 51
0.0
 71
     0
 72
   100
 73
     1
 74
     1
 75
     0
 76
     0
 77
     0
 78
     0
  0
ENDTAB
  0
TABLE
  2
LTYPE
 70
     2
  0
LTYPE
  2
CONTINUOUS
 70
     0
  3
Solid line
 72
    65
 73
     0
 40
0.0
  0
LTYPE
  2
PHANTOM2
 70
     0
  3
___ _ _ ___ _ _ ___ _ _ ___ _ _
 72
    65
 73
     6
 40
1.25
 49
0.625
 49
-0.125
 49
0.125
 49
-0.125
 49
0.125
 49
-0.125
  0
ENDTAB
  0
TABLE
  2
LAYER
 70
     2
  0
LAYER
  2
0
 70
     0
 62
   255
  6
CONTINUOUS
  0
LAYER
  2
DEFPOINTS
 70
     0
 62
     7
  6
CONTINUOUS
  0
ENDTAB
  0
TABLE
  2
STYLE
 70
     1
  0
STYLE
  2
STANDARD
 70
     0
 40
0.0
 41
0.8
 50
0.0
 71
     0
 42
0.2
  3
txt
  4

  0
ENDTAB
  0
TABLE
  2
VIEW
 70
     0
  0
ENDTAB
  0
TABLE
  2
UCS
 70
     0
  0
ENDTAB
  0
TABLE
  2
APPID
 70
    10
  0
APPID
  2
ACAD
 70
     0
  0
APPID
  2
ACAD_MLEADERVER
 70
     0
  0
APPID
  2
ACAD_EXEMPT_FROM_CAD_STANDARDS
 70
     0
  0
APPID
  2
ACAD_NAV_VCDISPLAY
 70
     0
  0
APPID
  2
ACAECLAYERSTANDARD
 70
     0
  0
APPID
  2
ACCMTRANSPARENCY
 70
     0
  0
APPID
  2
ACAD_DSTYLE_DIMJAG
 70
     0
  0
APPID
  2
ACAD_DSTYLE_DIMTALN
 70
     0
  0
APPID
  2
ACDBATTR
 70
     0
  0
APPID
  2
ACADANNOTATIVE
 70
     0
  0
ENDTAB
  0
TABLE
  2
DIMSTYLE
 70
     2
  0
DIMSTYLE
  2
STANDARD
 70
     0
  3

  4

  5

  6

  7

 40
1.0
 41
0.1875
 42
0.0625
 43
0.38
 44
0.125
 45
0.0
 46
0.0
 47
0.01
 48
0.01
140
0.15625
141
0.09
142
0.0
143
25.3999999999999986
144
1.0
145
0.0
146
1.0
147
0.09
 71
     1
 72
     0
 73
     1
 74
     1
 75
     0
 76
     0
 77
     0
 78
     4
170
     0
171
     2
172
     0
173
     0
174
     0
175
     0
176
     0
177
     0
178
     0
  0
DIMSTYLE
  2
ANNOTATIVE
 70
     0
  3

  4

  5

  6

  7

 40
0.0
 41
0.18
 42
0.0625
 43
0.38
 44
0.18
 45
0.0
 46
0.0
 47
0.0
 48
0.0
140
0.18
141
0.09
142
0.0
143
25.3999999999999986
144
1.0
145
0.0
146
1.0
147
0.09
 71
     0
 72
     0
 73
     1
 74
     1
 75
     0
 76
     0
 77
     0
 78
     0
170
     0
171
     2
172
     0
173
     0
174
     0
175
     0
176
     0
177
     0
178
     0
  0
ENDTAB
  0
ENDSEC
  0
SECTION
  2
BLOCKS
  0
BLOCK
  8
0
  2
$MODEL_SPACE
 70
     0
 10
0.0
 20
0.0
 30
0.0
  3
$MODEL_SPACE
  1

  0
ENDBLK
  5
21
  8
0
  0
BLOCK
 67
     1
  8
0
  2
$PAPER_SPACE
 70
     0
 10
0.0
 20
0.0
 30
0.0
  3
$PAPER_SPACE
  1

  0
ENDBLK
  5
1D
 67
     1
  8
0
  0
ENDSEC
  0
SECTION
  2
ENTITIES
  0
ATTDEF
  5
3930
  8
DEFPOINTS
 10
4838.1217424845826827
 20
247.2004433240111041
 30
0.0
 40
0.001
  1
K-37305T-4
  3

  2
MODELNUMBER
 70
     0
1001
ACDBATTR
1070
     0
1070
     1
  0
ATTDEF
  5
3931
  8
DEFPOINTS
 10
4838.1217424845826827
 20
247.1987766573444958
 30
0.0
 40
0.001
  1
CUFF
  3

  2
TRADENAME
 70
     0
1001
ACDBATTR
1070
     0
1070
     1
  0
ATTDEF
  5
3932
  8
DEFPOINTS
 10
4838.1217424845826827
 20
247.1971099906778022
 30
0.0
 40
0.001
  1
BATHROOM SINK FAUCET
  3

  2
PRODUCT
 70
     0
1001
ACDBATTR
1070
     0
1070
     1
  0
ARC
  5
CBA2
  8
0
 10
4838.9591526666099526
 20
252.5275686159604902
 30
0.0
 40
7.094753764787824
 50
175.2931151585125065
 51
184.7066461527959973
  0
ARC
  5
CBA3
  8
0
 10
4831.9106150263669406
 20
253.1054472455016082
 30
0.0
 40
0.022701156135603
 50
96.8737925208819206
 51
169.0694507775309035
  0
LINE
  5
CBA4
  8
0
 10
4831.8883232950147431
 20
251.9454148727070901
 30
0.0
 11
4831.8883257202742243
 21
253.1097518156016122
 31
0.0
  0
ARC
  5
CBA5
  8
0
 10
4831.9104570692470588
 20
251.9495691959498913
 30
0.0
 40
0.0225202656144429
 50
190.6302593039829958
 51
261.9742035775315117
  0
ARC
  5
CBA6
  8
0
 10
4836.3695752752355475
 20
250.7640545920143893
 30
0.0
 40
2.3639312598493629
 50
0.0386416035286975
 51
89.9584416817946817
  0
ARC
  5
CBA7
  8
0
 10
4836.1514281213912909
 20
250.5459086624956058
 30
0.0
 40
1.3987521282709059
 50
9.0442223768839156
 51
80.955510670069188
  0
LINE
  5
CBA8
  8
0
 10
4837.5327899927733597
 20
250.7657879399104104
 30
0.0
 11
4837.5327899927733597
 21
248.6849224060194956
 31
0.0
  0
ARC
  5
CBA9
  8
0
 10
4832.9200089685427884
 20
250.8169586951798067
 30
0.0
 40
1.389862186138014
 50
121.0660755469746022
 51
126.9782446504597999
  0
ARC
  5
CBAA
  8
0
 10
4832.4486608549168523
 20
251.635423470985387
 30
0.0
 40
0.4459478319340934
 50
93.1036469747818956
 51
123.4572014607809933
  0
ARC
  5
CBAB
  8
0
 10
4831.9353167131512237
 20
250.8268214316213971
 30
0.0
 40
1.3781665502108691
 50
52.9858636685187392
 51
58.9464487661452097
  0
ARC
  5
CBAC
  8
0
 10
4832.4003715085900694
 20
251.6354234709895081
 30
0.0
 40
0.4459478319299678
 50
56.5427985390835417
 51
86.896353025374566
  0
ARC
  5
CBAD
  8
0
 10
4836.1948415975539319
 20
248.0681983863929077
 30
0.0
 40
1.284664150583307
 50
346.53113742496231
 51
13.4689292770582405
  0
ARC
  5
CBAE
  8
0
 10
4837.3319036422617501
 20
248.3674396080463964
 30
0.0
 40
0.112269182287772
 50
271.3316562151895823
 51
359.9899039318189011
  0
ARC
  5
CBAF
  8
0
 10
4837.3318584743738029
 20
247.7689020287220956
 30
0.0
 40
0.1123147227424111
 50
0.0389608019266842
 51
88.7015615221478839
  0
ARC
  5
CBB0
  8
0
 10
4837.4643297028633242
 20
248.6602630388530883
 30
0.0
 40
0.0201594547310539
 50
93.2845866896906841
 51
179.3322332573006861
  0
LINE
  5
CBB1
  8
0
 10
4837.4441716172732413
 20
248.6604979865016105
 30
0.0
 11
4837.4441728228066495
 21
248.3674198251353005
 31
0.0
  0
LINE
  5
CBB2
  8
0
 10
4838.8220945984294303
 20
248.6606527419559995
 30
0.0
 11
4838.8221258884732379
 21
247.5020476891615999
 31
0.0
  0
LINE
  5
CBB3
  8
0
 10
4837.4441716172732413
 20
247.5020476227016104
 30
0.0
 11
4837.4441731711503962
 21
247.7689784020844002
 31
0.0
  0
ARC
  5
CBB4
  8
0
 10
4838.8023101901653718
 20
247.5021018050464932
 30
0.0
 40
0.0198157722019961
 50
275.0361275380899997
 51
359.8435278912497211
  0
ARC
  5
CBB5
  8
0
 10
4837.4638535136436985
 20
247.5020443077085019
 30
0.0
 40
0.019681896649627
 50
179.9903497555698095
 51
269.8001803913982144
  0
ARC
  5
CBB6
  8
0
 10
4838.2388009038304517
 20
248.068197436894792
 30
0.0
 40
2.6647080280646889
 50
176.1744204263243887
 51
183.8255795733815035
  0
ARC
  5
CBB7
  8
0
 10
4835.586151528587834
 20
247.8870433100267121
 30
0.0
 40
0.0056452040586196
 50
191.8290707093368894
 51
265.6599439837074783
  0
ARC
  5
CBB8
  8
0
 10
4835.6030746782707865
 20
247.8911436681623002
 30
0.0
 40
0.0230559312157302
 50
181.8239712659782015
 51
193.1814737772278932
  0
ARC
  5
CBB9
  8
0
 10
4835.6030765673249334
 20
248.2452509568585128
 30
0.0
 40
0.023057827231109
 50
166.8189947328924063
 51
178.1755602610438984
  0
LINE
  5
CBBA
  8
0
 10
4835.5800304287731706
 20
247.890409822601697
 30
0.0
 11
4835.5800304287740801
 21
248.2459850512015862
 31
0.0
  0
LINE
  5
CBBB
  8
0
 10
4837.0504703467731815
 20
247.4193697186015868
 30
0.0
 11
4837.0504703467731815
 21
247.2028332983016128
 31
0.0
  0
LINE
  5
CBBC
  8
0
 10
4839.2158256437733144
 20
247.4193697186015868
 30
0.0
 11
4839.2158258813742577
 21
247.2028332983016128
 31
0.0
  0
LINE
  5
CBBD
  8
0
 10
4837.0701533235751413
 20
247.4390547337960982
 30
0.0
 11
4839.1961426669722641
 21
247.4390547337960982
 31
0.0
  0
ARC
  5
CBBE
  8
0
 10
4839.1961406286382044
 20
247.4193697187666032
 30
0.0
 40
0.0196850151350372
 50
359.9999995199119098
 51
89.994067165222603
  0
ARC
  5
CBBF
  8
0
 10
4837.0701553620692721
 20
247.4193697186047132
 30
0.0
 40
0.0196850152969192
 50
90.0059333032481845
 51
180.0000000089694936
  0
LINE
  5
CBC0
  8
0
 10
4837.532789991349091
 20
247.4390547337960982
 30
0.0
 11
4837.532789987223623
 21
247.4823625307516011
 31
0.0
  0
LINE
  5
CBC1
  8
0
 10
4837.5622818534739054
 20
247.4390547337960982
 30
0.0
 11
4837.5622818534739054
 21
247.4823625307516011
 31
0.0
  0
LINE
  5
CBC2
  8
0
 10
4838.7335059813740372
 20
247.4390547337960982
 30
0.0
 11
4838.7335059813740372
 21
247.4823625307516011
 31
0.0
  0
ARC
  5
CBC3
  8
0
 10
4839.195464346152221
 20
247.223194846541503
 30
0.0
 40
0.0203727839081734
 50
271.9029696283682824
 51
358.0941007417634978
  0
ARC
  5
CBC4
  8
0
 10
4837.073087233698061
 20
247.2254500284365974
 30
0.0
 40
0.0228062392271178
 50
187.3883426492118929
 51
262.6085948362626823
  0
LINE
  5
CBC5
  8
0
 10
4839.6818487826740238
 20
248.8938243726015003
 30
0.0
 11
4839.6818487825739794
 21
249.0316196478302118
 31
0.0
  0
ARC
  5
CBC6
  8
0
 10
4839.642478703872257
 20
249.0316196478003974
 30
0.0
 40
0.0393700787012215
 50
0.0000000433866334
 51
89.9999999994267768
  0
ARC
  5
CBC7
  8
0
 10
4839.6424787038213253
 20
248.893824372354004
 30
0.0
 40
0.0393700788524625
 50
270.0000000764457013
 51
0.000000360171101
  0
LINE
  5
CBC8
  8
0
 10
4839.0519275227743492
 20
248.8938243722016068
 30
0.0
 11
4839.2881479952739028
 21
248.8938243722016068
 31
0.0
  0
LINE
  5
CBC9
  8
0
 10
4839.0519275227743492
 20
249.0316196477016035
 30
0.0
 11
4839.2881479952739028
 21
249.0316196477878918
 31
0.0
  0
ARC
  5
CBCA
  8
0
 10
4839.0501480861457821
 20
248.7287791125388026
 30
0.0
 40
0.3028457629428146
 50
89.6633441580751622
 51
166.3366558251532865
  0
ARC
  5
CBCB
  8
0
 10
4839.051927522981714
 20
248.726501537369586
 30
0.0
 40
0.1673228348319653
 50
90.0000000713388744
 51
165.9999999462318954
  0
LINE
  5
CBCC
  8
0
 10
4838.8220990357031042
 20
248.496349719354896
 30
0.0
 11
4838.8895748914737851
 21
248.7669805949016961
 31
0.0
  0
LINE
  5
CBCD
  8
0
 10
4838.7558727244313559
 20
248.8003162890325939
 30
0.0
 11
4838.7335059974702745
 21
248.7106082469026092
 31
0.0
  0
LINE
  5
CBCE
  8
0
 10
4832.2515564874738629
 20
252.0354476416821115
 30
0.0
 11
4832.2515564874738629
 21
252.0314228825016016
 31
0.0
  0
LINE
  5
CBCF
  8
0
 10
4832.2515564874738629
 20
252.0314228825016016
 30
0.0
 11
4832.3622814920727251
 21
252.0314228825016016
 31
0.0
  0
LINE
  5
CBD0
  8
0
 10
4832.3548254029738018
 20
252.0314228825016016
 30
0.0
 11
4832.3548254029738018
 21
252.0629189454016057
 31
0.0
  0
LINE
  5
CBD1
  8
0
 10
4832.3548254029738018
 20
252.0629189454016057
 30
0.0
 11
4832.4941477528736868
 21
252.0629189454016057
 31
0.0
  0
LINE
  5
CBD2
  8
0
 10
4832.4941477528736868
 20
252.0629189454016057
 30
0.0
 11
4832.4941477528736868
 21
252.0314228825016016
 31
0.0
  0
LINE
  5
CBD3
  8
0
 10
4832.4866916637738541
 20
252.0314228825016016
 30
0.0
 11
4832.5974166683736257
 21
252.0314228825016016
 31
0.0
  0
LINE
  5
CBD4
  8
0
 10
4832.5974166683736257
 20
252.0314228825016016
 30
0.0
 11
4832.5974166683736257
 21
252.0354768096946998
 31
0.0
  0
LINE
  5
CBD5
  8
0
 10
4832.3622814920727251
 20
252.0314228825016016
 30
0.0
 11
4832.3622814920727251
 21
252.0629189454016057
 31
0.0
  0
LINE
  5
CBD6
  8
0
 10
4832.4866916637738541
 20
252.0314228825016016
 30
0.0
 11
4832.4866916637738541
 21
252.0629189454016057
 31
0.0
  0
LINE
  5
CBD7
  8
0
 10
4832.3622814920727251
 20
252.058981937601601
 30
0.0
 11
4832.4866916637738541
 21
252.058981937601601
 31
0.0
  0
LINE
  5
CBD8
  8
0
 10
4832.4866916637738541
 20
252.051107921801588
 30
0.0
 11
4832.3622814920727251
 21
252.051107921801588
 31
0.0
  0
LINE
  5
CBD9
  8
0
 10
4839.2881479952739028
 20
249.0709897265016082
 30
0.0
 11
4839.6424787038731665
 21
249.0709897265016082
 31
0.0
  0
LINE
  5
CBDA
  8
0
 10
4839.6424787038731665
 20
249.0709897265016082
 30
0.0
 11
4839.6424787038731665
 21
248.8544542935015897
 31
0.0
  0
LINE
  5
CBDB
  8
0
 10
4839.6424787038731665
 20
248.8544542935015897
 30
0.0
 11
4839.2881479952739028
 21
248.8544542935015897
 31
0.0
  0
LINE
  5
CBDC
  8
0
 10
4839.2881479952739028
 20
248.8544542935015897
 30
0.0
 11
4839.2881479952739028
 21
249.0709897265016082
 31
0.0
  0
LINE
  5
CBDD
  8
0
 10
4838.7335059974730029
 20
250.7656488820016136
 30
0.0
 11
4838.7335059974702745
 21
248.6848672894828098
 31
0.0
  0
ARC
  5
CBDE
  8
0
 10
4835.5909045292946757
 20
247.9381767554129965
 30
0.0
 40
0.0569983472692045
 50
264.785566774558788
 51
268.9536791462372207
  0
ARC
  5
CBDF
  8
0
 10
4835.5861523919566025
 20
248.2493505794822966
 30
0.0
 40
0.0056462509213254
 50
94.3480361350596866
 51
168.1629491651135027
  0
ARC
  5
CBE0
  8
0
 10
4835.5906012967925562
 20
248.2023747516302024
 30
0.0
 40
0.0528314116558272
 50
90.820422563867254
 51
95.296629378311323
  0
LINE
  5
CBE1
  8
0
 10
4837.4637848729689722
 20
247.4823625307516011
 30
0.0
 11
4838.8040496953462934
 21
247.4823625307516011
 31
0.0
  0
ARC
  5
CBE2
  8
0
 10
4838.8019921003387935
 20
248.6602848766291061
 30
0.0
 40
0.0201058636797686
 50
1.0483661449580779
 51
89.3327601986254649
  0
ARC
  5
CBE3
  8
0
 10
4838.1327004480936012
 20
238.9350645447046873
 30
0.0
 40
9.7682967230855926
 50
86.0698264619559552
 51
93.9301735380440306
  0
LINE
  5
CBE4
  8
0
 10
4832.7649895813583498
 20
251.9272695093982009
 30
0.0
 11
4836.3713138348603024
 21
251.9272695093982009
 31
0.0
  0
LINE
  5
CBE5
  8
0
 10
4831.907898089973969
 20
253.1279852300282869
 30
0.0
 11
4836.371289904128389
 21
253.1279852300282869
 31
0.0
  0
LINE
  5
CBE6
  8
0
 10
4832.0839905523080233
 20
251.9272695093982009
 30
0.0
 11
4831.9073128136851665
 21
251.9272695093982009
 31
0.0
  0
LINE
  5
CBE7
  8
0
 10
4837.0504703467731815
 20
247.2028332983016128
 30
0.0
 11
4839.2158258813742577
 21
247.2028332983016128
 31
0.0
  0
LINE
  5
CBE8
  8
0
 10
4837.4631746576724254
 20
248.6803893769616991
 30
0.0
 11
4838.8022262385147769
 21
248.6803893769616991
 31
0.0
  0
LINE
  5
CBE9
  8
0
 10
4837.3344035357486064
 20
247.8811879121059008
 30
0.0
 11
4835.5898636979272851
 21
247.8811879121059008
 31
0.0
  0
LINE
  5
CBEA
  8
0
 10
4837.3345127435977702
 20
248.2552007472102957
 30
0.0
 11
4835.5898448256966731
 21
248.2552007472102957
 31
0.0
  0
ENDSEC
  0
EOF
