  0
SECTION
  2
HEADER
  9
$ACADVER
  1
AC1009
  9
$INSBASE
 10
4846.0507225753663079
 20
247.4684479576382898
 30
0.0
  9
$EXTMIN
 10
4840.9680449180668802
 20
241.1997810411355943
 30
0.0
  9
$EXTMAX
 10
4851.133400232664826
 20
249.017148745038412
 30
0.0
  9
$LIMMIN
 10
0.0
 20
0.0
  9
$LIMMAX
 10
11.6929133858000007
 20
8.2677165353999982
  9
$ORTHOMODE
 70
     0
  9
$REGENMODE
 70
     1
  9
$FILLMODE
 70
     1
  9
$QTEXTMODE
 70
     0
  9
$MIRRTEXT
 70
     0
  9
$DRAGMODE
 70
     2
  9
$LTSCALE
 40
0.6431102362
  9
$OSMODE
 70
  4095
  9
$ATTMODE
 70
     1
  9
$TEXTSIZE
 40
0.2
  9
$TRACEWID
 40
0.05
  9
$TEXTSTYLE
  7
STANDARD
  9
$CLAYER
  8
0
  9
$CELTYPE
  6
BYLAYER
  9
$CECOLOR
 62
   256
  9
$DIMSCALE
 40
1.0
  9
$DIMASZ
 40
0.1875
  9
$DIMEXO
 40
0.0625
  9
$DIMDLI
 40
0.4443307087
  9
$DIMRND
 40
0.0
  9
$DIMDLE
 40
0.0
  9
$DIMEXE
 40
0.125
  9
$DIMTP
 40
0.01
  9
$DIMTM
 40
0.01
  9
$DIMTXT
 40
2.0
  9
$DIMCEN
 40
0.1052362205
  9
$DIMTSZ
 40
0.0
  9
$DIMTOL
 70
     1
  9
$DIMLIM
 70
     0
  9
$DIMTIH
 70
     1
  9
$DIMTOH
 70
     1
  9
$DIMSE1
 70
     0
  9
$DIMSE2
 70
     0
  9
$DIMTAD
 70
     0
  9
$DIMZIN
 70
     0
  9
$DIMBLK
  1

  9
$DIMASO
 70
     1
  9
$DIMSHO
 70
     1
  9
$DIMPOST
  1
\X
  9
$DIMAPOST
  1

  9
$DIMALT
 70
     1
  9
$DIMALTD
 70
     2
  9
$DIMALTF
 40
25.3999999999999986
  9
$DIMLFAC
 40
1.0
  9
$DIMTOFL
 70
     0
  9
$DIMTVP
 40
0.0
  9
$DIMTIX
 70
     0
  9
$DIMSOXD
 70
     0
  9
$DIMSAH
 70
     0
  9
$DIMBLK1
  1

  9
$DIMBLK2
  1

  9
$DIMSTYLE
  2
STANDARD
  9
$DIMCLRD
 70
     0
  9
$DIMCLRE
 70
     0
  9
$DIMCLRT
 70
     0
  9
$DIMTFAC
 40
1.0
  9
$DIMGAP
 40
0.09
  9
$LUNITS
 70
     2
  9
$LUPREC
 70
     4
  9
$SKETCHINC
 40
0.1
  9
$FILLETRAD
 40
0.0
  9
$AUNITS
 70
     0
  9
$AUPREC
 70
     0
  9
$MENU
  1
.
  9
$ELEVATION
 40
0.0
  9
$PELEVATION
 40
0.0
  9
$THICKNESS
 40
0.0
  9
$LIMCHECK
 70
     0
  9
$BLIPMODE
 70
     0
  9
$CHAMFERA
 40
0.0
  9
$CHAMFERB
 40
0.0
  9
$SKPOLY
 70
     0
  9
$TDCREATE
 40
2458060.468368056230247
  9
$TDUPDATE
 40
2459362.6390625000931323
  9
$TDINDWG
 40
0.3584561343
  9
$TDUSRTIMER
 40
0.3584561343
  9
$USRTIMER
 70
     1
  9
$ANGBASE
 50
0.0
  9
$ANGDIR
 70
     0
  9
$PDMODE
 70
     0
  9
$PDSIZE
 40
0.3125
  9
$PLINEWID
 40
0.0
  9
$COORDS
 70
     1
  9
$SPLFRAME
 70
     0
  9
$SPLINETYPE
 70
     6
  9
$SPLINESEGS
 70
     8
  9
$ATTDIA
 70
     1
  9
$ATTREQ
 70
     1
  9
$HANDLING
 70
     1
  9
$HANDSEED
  5
CC22
  9
$SURFTAB1
 70
     6
  9
$SURFTAB2
 70
     6
  9
$SURFTYPE
 70
     6
  9
$SURFU
 70
     6
  9
$SURFV
 70
     6
  9
$UCSNAME
  2

  9
$UCSORG
 10
0.0
 20
0.0
 30
0.0
  9
$UCSXDIR
 10
1.0
 20
0.0
 30
0.0
  9
$UCSYDIR
 10
0.0
 20
1.0
 30
0.0
  9
$PUCSNAME
  2

  9
$PUCSORG
 10
0.0
 20
0.0
 30
0.0
  9
$PUCSXDIR
 10
1.0
 20
0.0
 30
0.0
  9
$PUCSYDIR
 10
0.0
 20
1.0
 30
0.0
  9
$USERI1
 70
     0
  9
$USERI2
 70
     0
  9
$USERI3
 70
     0
  9
$USERI4
 70
     0
  9
$USERI5
 70
     0
  9
$USERR1
 40
0.0
  9
$USERR2
 40
0.0
  9
$USERR3
 40
0.0
  9
$USERR4
 40
0.0
  9
$USERR5
 40
0.0
  9
$WORLDVIEW
 70
     1
  9
$SHADEDGE
 70
     3
  9
$SHADEDIF
 70
    70
  9
$TILEMODE
 70
     1
  9
$MAXACTVP
 70
    64
  9
$PLIMCHECK
 70
     0
  9
$PEXTMIN
 10
1.0000000000000000E+20
 20
1.0000000000000000E+20
 30
1.0000000000000000E+20
  9
$PEXTMAX
 10
-1.0000000000000000E+20
 20
-1.0000000000000000E+20
 30
-1.0000000000000000E+20
  9
$PLIMMIN
 10
0.0
 20
0.0
  9
$PLIMMAX
 10
12.0
 20
9.0
  9
$UNITMODE
 70
     0
  9
$VISRETAIN
 70
     1
  9
$PLINEGEN
 70
     0
  9
$PSLTSCALE
 70
     1
  0
ENDSEC
  0
SECTION
  2
TABLES
  0
TABLE
  2
VPORT
 70
     1
  0
VPORT
  2
*ACTIVE
 70
     0
 10
0.0
 20
0.0
 11
1.0
 21
1.0
 12
30.7339333645622794
 22
-2.7085776125391021
 13
0.0
 23
0.0
 14
1.0
 24
1.0
 15
0.0
 25
0.0
 16
0.0
 26
0.0
 36
9.5192988075487186
 17
4815.2983398437490905
 27
247.8086242675780966
 37
0.0
 40
7.8992062242493297
 41
2.1302631578947362
 42
50.0
 43
0.0
 44
0.0
 50
0.0
 51
0.0
 71
     0
 72
   100
 73
     1
 74
     1
 75
     0
 76
     0
 77
     0
 78
     0
  0
ENDTAB
  0
TABLE
  2
LTYPE
 70
     2
  0
LTYPE
  2
CONTINUOUS
 70
     0
  3
Solid line
 72
    65
 73
     0
 40
0.0
  0
LTYPE
  2
PHANTOM2
 70
     0
  3
___ _ _ ___ _ _ ___ _ _ ___ _ _
 72
    65
 73
     6
 40
1.25
 49
0.625
 49
-0.125
 49
0.125
 49
-0.125
 49
0.125
 49
-0.125
  0
ENDTAB
  0
TABLE
  2
LAYER
 70
     2
  0
LAYER
  2
0
 70
     0
 62
   255
  6
CONTINUOUS
  0
LAYER
  2
DEFPOINTS
 70
     0
 62
     7
  6
CONTINUOUS
  0
ENDTAB
  0
TABLE
  2
STYLE
 70
     1
  0
STYLE
  2
STANDARD
 70
     0
 40
0.0
 41
0.8
 50
0.0
 71
     0
 42
0.2
  3
txt
  4

  0
ENDTAB
  0
TABLE
  2
VIEW
 70
     0
  0
ENDTAB
  0
TABLE
  2
UCS
 70
     0
  0
ENDTAB
  0
TABLE
  2
APPID
 70
    10
  0
APPID
  2
ACAD
 70
     0
  0
APPID
  2
ACAD_MLEADERVER
 70
     0
  0
APPID
  2
ACAD_EXEMPT_FROM_CAD_STANDARDS
 70
     0
  0
APPID
  2
ACAD_NAV_VCDISPLAY
 70
     0
  0
APPID
  2
ACAECLAYERSTANDARD
 70
     0
  0
APPID
  2
ACCMTRANSPARENCY
 70
     0
  0
APPID
  2
ACAD_DSTYLE_DIMJAG
 70
     0
  0
APPID
  2
ACAD_DSTYLE_DIMTALN
 70
     0
  0
APPID
  2
ACDBATTR
 70
     0
  0
APPID
  2
ACADANNOTATIVE
 70
     0
  0
ENDTAB
  0
TABLE
  2
DIMSTYLE
 70
     2
  0
DIMSTYLE
  2
STANDARD
 70
     0
  3

  4

  5

  6

  7

 40
1.0
 41
0.1875
 42
0.0625
 43
0.38
 44
0.125
 45
0.0
 46
0.0
 47
0.01
 48
0.01
140
0.15625
141
0.09
142
0.0
143
25.3999999999999986
144
1.0
145
0.0
146
1.0
147
0.09
 71
     1
 72
     0
 73
     1
 74
     1
 75
     0
 76
     0
 77
     0
 78
     4
170
     0
171
     2
172
     0
173
     0
174
     0
175
     0
176
     0
177
     0
178
     0
  0
DIMSTYLE
  2
ANNOTATIVE
 70
     0
  3

  4

  5

  6

  7

 40
0.0
 41
0.18
 42
0.0625
 43
0.38
 44
0.18
 45
0.0
 46
0.0
 47
0.0
 48
0.0
140
0.18
141
0.09
142
0.0
143
25.3999999999999986
144
1.0
145
0.0
146
1.0
147
0.09
 71
     0
 72
     0
 73
     1
 74
     1
 75
     0
 76
     0
 77
     0
 78
     0
170
     0
171
     2
172
     0
173
     0
174
     0
175
     0
176
     0
177
     0
178
     0
  0
ENDTAB
  0
ENDSEC
  0
SECTION
  2
BLOCKS
  0
BLOCK
  8
0
  2
$MODEL_SPACE
 70
     0
 10
0.0
 20
0.0
 30
0.0
  3
$MODEL_SPACE
  1

  0
ENDBLK
  5
21
  8
0
  0
BLOCK
 67
     1
  8
0
  2
$PAPER_SPACE
 70
     0
 10
0.0
 20
0.0
 30
0.0
  3
$PAPER_SPACE
  1

  0
ENDBLK
  5
1D
 67
     1
  8
0
  0
ENDSEC
  0
SECTION
  2
ENTITIES
  0
ATTDEF
  5
3930
  8
DEFPOINTS
 10
4846.0376526806740003
 20
247.4671887685663876
 30
0.0
 40
0.001
  1
K-37305T-4
  3

  2
MODELNUMBER
 70
     0
1001
ACDBATTR
1070
     0
1070
     1
  0
ATTDEF
  5
3931
  8
DEFPOINTS
 10
4846.0376526806740003
 20
247.4655221018998077
 30
0.0
 40
0.001
  1
CUFF
  3

  2
TRADENAME
 70
     0
1001
ACDBATTR
1070
     0
1070
     1
  0
ATTDEF
  5
3932
  8
DEFPOINTS
 10
4846.0376526806740003
 20
247.4638554352331141
 30
0.0
 40
0.001
  1
BATHROOM SINK FAUCET
  3

  2
PRODUCT
 70
     0
1001
ACDBATTR
1070
     0
1070
     1
  0
ARC
  5
CB8F
  8
0
 10
4846.0507225753663079
 20
247.4684479576382898
 30
0.0
 40
1.0826771654
 50
295.8591864487451062
 51
86.3514395816396956
  0
ARC
  5
CB90
  8
0
 10
4846.0507225753663079
 20
247.4684479576382898
 30
0.0
 40
1.0826771654
 50
93.6485604183603044
 51
244.1346982403474897
  0
LINE
  5
CB91
  8
0
 10
4845.9424548588667676
 20
248.6234479576384047
 30
0.0
 11
4845.9424548588667676
 21
248.9777786663383949
 31
0.0
  0
LINE
  5
CB92
  8
0
 10
4845.9424548588667676
 20
248.9777786663383949
 30
0.0
 11
4846.1589902918658481
 21
248.9777786663383949
 31
0.0
  0
LINE
  5
CB93
  8
0
 10
4846.1589902918658481
 20
248.9777786663383949
 30
0.0
 11
4846.1589902918658481
 21
248.6234479576384047
 31
0.0
  0
LINE
  5
CB94
  8
0
 10
4846.1589902918658481
 20
248.6234479576384047
 30
0.0
 11
4845.9424548588667676
 21
248.6234479576384047
 31
0.0
  0
LINE
  5
CB95
  8
0
 10
4845.9818249375657615
 20
248.064958919690099
 30
0.0
 11
4845.981824937566671
 21
248.6234479576384047
 31
0.0
  0
LINE
  5
CB96
  8
0
 10
4846.1196202131659447
 20
248.0649589196902127
 30
0.0
 11
4846.1196202131659447
 21
248.6234479576384047
 31
0.0
  0
LINE
  5
CB97
  8
0
 10
4845.981824937566671
 20
249.017148745038412
 30
0.0
 11
4846.1196202131659447
 21
249.017148745038412
 31
0.0
  0
ARC
  5
CB98
  8
0
 10
4845.9862868650789096
 20
248.9733167388257868
 30
0.0
 40
0.0440585243256044
 50
95.8124652542590951
 51
174.1875347457358885
  0
ARC
  5
CB99
  8
0
 10
4846.1196202173687198
 20
248.9777786705423921
 30
0.0
 40
0.0393700744959538
 50
359.9999938817746852
 51
90.0000061180510755
  0
ARC
  5
CB9A
  8
0
 10
4837.8017552797618919
 20
245.9167263666761016
 30
0.0
 40
7.7980555575756743
 50
358.6899439129906
 51
10.1120960844011094
  0
ARC
  5
CB9B
  8
0
 10
4854.2839452894777423
 20
245.918086644420697
 30
0.0
 40
7.7823534408847168
 50
169.8794319287939061
 51
181.3226827157153025
  0
ARC
  5
CB9C
  8
0
 10
4846.0507225753663079
 20
247.4684479576382898
 30
0.0
 40
0.6004766542859067
 50
342.2719151726892051
 51
197.7016633816095919
  0
ARC
  5
CB9D
  8
0
 10
4845.6178870706862654
 20
241.243021701722995
 30
0.0
 40
0.0201188760035009
 50
181.1880189117655959
 51
263.752513752889115
  0
ARC
  5
CB9E
  8
0
 10
4846.483432752626868
 20
241.2431281026701129
 30
0.0
 40
0.0202394814361121
 50
276.3913590893054106
 51
358.5177702590264062
  0
ARC
  5
CB9F
  8
0
 10
4846.050728569201965
 20
245.2828637335167912
 30
0.0
 40
4.0830826923812866
 50
263.8838282353924001
 51
276.1151319788676801
  0
LINE
  5
CBA0
  8
0
 10
4845.615697668966277
 20
241.2230223094383916
 30
0.0
 11
4846.4856857926461089
 21
241.2230144153033962
 31
0.0
  0
ARC
  5
CBA1
  8
0
 10
4842.0506604208658246
 20
247.4684479576382898
 30
0.0
 40
0.6889763779999998
 50
287.7800167093232062
 51
252.2199832906767938
  0
ARC
  5
CBA2
  8
0
 10
4842.0506604208658246
 20
247.4684479576382898
 30
0.0
 40
1.082615502799825
 50
277.488585584993416
 51
262.5180676730483924
  0
ARC
  5
CBA3
  8
0
 10
4841.8082260179353398
 20
246.7158188226690925
 30
0.0
 40
0.1017398999377999
 50
355.7733814695765773
 51
71.6401965304949186
  0
ARC
  5
CBA4
  8
0
 10
4841.9311666171151955
 20
244.9243877092208095
 30
0.0
 40
0.0214847467389652
 50
181.4987499320301083
 51
193.5863972786987972
  0
ARC
  5
CBA5
  8
0
 10
4841.9153922715968292
 20
244.9211425604325996
 30
0.0
 40
0.005417612168167
 50
199.4262606037158889
 51
249.8903878666581022
  0
ARC
  5
CBA6
  8
0
 10
4841.9187574585539551
 20
244.9311581220611913
 30
0.0
 40
0.0159821146833891
 50
250.9067475774243974
 51
267.3368485927940128
  0
ARC
  5
CBA7
  8
0
 10
4842.0770649130672609
 20
246.8548260461697055
 30
0.0
 40
1.9461429108396091
 50
265.3122294533852141
 51
265.6818736574675768
  0
ARC
  5
CBA8
  8
0
 10
4842.1702788680076992
 20
244.9243877092200989
 30
0.0
 40
0.0214847467352744
 50
346.4136027209190161
 51
358.5012500733232059
  0
ARC
  5
CBA9
  8
0
 10
4842.1860532135196991
 20
244.9211425604351007
 30
0.0
 40
0.0054176121713103
 50
290.1096121454943955
 51
340.5737393788829763
  0
ARC
  5
CBAA
  8
0
 10
4842.1826880265671207
 20
244.9311581220509026
 30
0.0
 40
0.0159821146729713
 50
272.6631514045456015
 51
289.0932524284737042
  0
ARC
  5
CBAB
  8
0
 10
4842.0243805720519958
 20
246.8548260461697055
 30
0.0
 40
1.9461429108396091
 50
274.3181263425324232
 51
274.6877705466148996
  0
ARC
  5
CBAC
  8
0
 10
4842.0507227425587189
 20
246.4119902634166976
 30
0.0
 40
1.502597424681805
 50
265.4120729851475176
 51
274.5879270148524824
  0
ARC
  5
CBAD
  8
0
 10
4841.9879392594166347
 20
241.4845215408655008
 30
0.0
 40
3.431384257796219
 50
88.9519569707937166
 51
91.1676483036004157
  0
ARC
  5
CBAE
  8
0
 10
4842.1134842124165516
 20
241.482268017145401
 30
0.0
 40
3.4336377622377978
 50
88.832750729354629
 51
91.0476814530252057
  0
ARC
  5
CBAF
  8
0
 10
4842.2996640384490092
 20
246.7115675374373893
 30
0.0
 40
0.1079550431741335
 50
110.959047110484704
 51
181.6955955730855976
  0
LINE
  5
CBB0
  8
0
 10
4841.9096892203961033
 20
244.9238257727054986
 30
0.0
 11
4841.9096892203961033
 21
246.7083204371384113
 31
0.0
  0
LINE
  5
CBB1
  8
0
 10
4842.1917562647231534
 20
244.9238257727068913
 30
0.0
 11
4842.1917562647231534
 21
246.7083732118265118
 31
0.0
  0
LINE
  5
CBB2
  8
0
 10
4845.5977725194179584
 20
241.2426045699075985
 30
0.0
 11
4845.5977725194179584
 21
245.7384409830449101
 31
0.0
  0
LINE
  5
CBB3
  8
0
 10
4846.5036654618452303
 20
241.2426045699506858
 30
0.0
 11
4846.5036654618452303
 21
245.7384456619444961
 31
0.0
  0
ARC
  5
CBB4
  8
0
 10
4850.0507847298658817
 20
247.4684479576382898
 30
0.0
 40
0.6889763779999998
 50
287.7800167093232062
 51
252.2199832906767938
  0
ARC
  5
CBB5
  8
0
 10
4850.0507847298658817
 20
247.4684479576382898
 30
0.0
 40
1.082615502799825
 50
277.488585584993416
 51
262.5180676730483924
  0
ARC
  5
CBB6
  8
0
 10
4849.8083503269335779
 20
246.7158188226690925
 30
0.0
 40
0.1017398999377999
 50
355.7733814695765773
 51
71.6401965304949186
  0
ARC
  5
CBB7
  8
0
 10
4849.9312909261143432
 20
244.9243877092208095
 30
0.0
 40
0.0214847467389652
 50
181.4987499320301083
 51
193.5863972786987972
  0
ARC
  5
CBB8
  8
0
 10
4849.9155165805959768
 20
244.9211425604325996
 30
0.0
 40
0.005417612168167
 50
199.4262606037158889
 51
249.8903878666581022
  0
ARC
  5
CBB9
  8
0
 10
4849.9188817675531027
 20
244.9311581220611913
 30
0.0
 40
0.0159821146833891
 50
250.9067475774243974
 51
267.3368485927940128
  0
ARC
  5
CBBA
  8
0
 10
4850.0771892220664085
 20
246.8548260461697055
 30
0.0
 40
1.9461429108396091
 50
265.3122294533852141
 51
265.6818736574675768
  0
ARC
  5
CBBB
  8
0
 10
4850.1704031770077563
 20
244.9243877092200989
 30
0.0
 40
0.0214847467352744
 50
346.4136027209190161
 51
358.5012500733232059
  0
ARC
  5
CBBC
  8
0
 10
4850.1861775225188467
 20
244.9211425604351007
 30
0.0
 40
0.0054176121713103
 50
290.1096121454943955
 51
340.5737393788829763
  0
ARC
  5
CBBD
  8
0
 10
4850.1828123355671778
 20
244.9311581220509026
 30
0.0
 40
0.0159821146729713
 50
272.6631514045456015
 51
289.0932524284737042
  0
ARC
  5
CBBE
  8
0
 10
4850.0245048810511435
 20
246.8548260461697055
 30
0.0
 40
1.9461429108396091
 50
274.3181263425324232
 51
274.6877705466148996
  0
ARC
  5
CBBF
  8
0
 10
4850.050847051558776
 20
246.4119902634166976
 30
0.0
 40
1.502597424681805
 50
265.4120729851475176
 51
274.5879270148524824
  0
ARC
  5
CBC0
  8
0
 10
4849.9880635684157824
 20
241.4845215408655008
 30
0.0
 40
3.431384257796219
 50
88.9519569707937166
 51
91.1676483036004157
  0
ARC
  5
CBC1
  8
0
 10
4850.1136085214147897
 20
241.482268017145401
 30
0.0
 40
3.4336377622377978
 50
88.832750729354629
 51
91.0476814530252057
  0
ARC
  5
CBC2
  8
0
 10
4850.2997883474490664
 20
246.7115675374373893
 30
0.0
 40
0.1079550431741335
 50
110.959047110484704
 51
181.6955955730855976
  0
LINE
  5
CBC3
  8
0
 10
4849.9098135293961604
 20
244.9238257727054986
 30
0.0
 11
4849.9098135293961604
 21
246.7083204371384113
 31
0.0
  0
LINE
  5
CBC4
  8
0
 10
4850.1918805737223011
 20
244.9238257727068913
 30
0.0
 11
4850.1918805737223011
 21
246.7083732118265118
 31
0.0
  0
ENDSEC
  0
EOF
