  0
SECTION
  2
HEADER
  9
$ACADVER
  1
AC1009
  9
$INSBASE
 10
4826.8343191393450979
 20
247.0539282841041029
 30
0.0
  9
$EXTMIN
 10
4821.7516414820456703
 20
247.043493505260102
 30
0.0
  9
$EXTMAX
 10
4831.9169967966436161
 20
252.9790802158308054
 30
0.0
  9
$LIMMIN
 10
0.0
 20
0.0
  9
$LIMMAX
 10
11.6929133858000007
 20
8.2677165353999982
  9
$ORTHOMODE
 70
     0
  9
$REGENMODE
 70
     1
  9
$FILLMODE
 70
     1
  9
$QTEXTMODE
 70
     0
  9
$MIRRTEXT
 70
     0
  9
$DRAGMODE
 70
     2
  9
$LTSCALE
 40
0.6431102362
  9
$OSMODE
 70
  4063
  9
$ATTMODE
 70
     1
  9
$TEXTSIZE
 40
0.2
  9
$TRACEWID
 40
0.05
  9
$TEXTSTYLE
  7
STANDARD
  9
$CLAYER
  8
0
  9
$CELTYPE
  6
BYLAYER
  9
$CECOLOR
 62
   256
  9
$DIMSCALE
 40
1.0
  9
$DIMASZ
 40
0.1875
  9
$DIMEXO
 40
0.0625
  9
$DIMDLI
 40
0.4443307087
  9
$DIMRND
 40
0.0
  9
$DIMDLE
 40
0.0
  9
$DIMEXE
 40
0.125
  9
$DIMTP
 40
0.01
  9
$DIMTM
 40
0.01
  9
$DIMTXT
 40
2.0
  9
$DIMCEN
 40
0.1052362205
  9
$DIMTSZ
 40
0.0
  9
$DIMTOL
 70
     1
  9
$DIMLIM
 70
     0
  9
$DIMTIH
 70
     1
  9
$DIMTOH
 70
     1
  9
$DIMSE1
 70
     0
  9
$DIMSE2
 70
     0
  9
$DIMTAD
 70
     0
  9
$DIMZIN
 70
     0
  9
$DIMBLK
  1

  9
$DIMASO
 70
     1
  9
$DIMSHO
 70
     1
  9
$DIMPOST
  1
\X
  9
$DIMAPOST
  1

  9
$DIMALT
 70
     1
  9
$DIMALTD
 70
     2
  9
$DIMALTF
 40
25.3999999999999986
  9
$DIMLFAC
 40
1.0
  9
$DIMTOFL
 70
     0
  9
$DIMTVP
 40
0.0
  9
$DIMTIX
 70
     0
  9
$DIMSOXD
 70
     0
  9
$DIMSAH
 70
     0
  9
$DIMBLK1
  1

  9
$DIMBLK2
  1

  9
$DIMSTYLE
  2
STANDARD
  9
$DIMCLRD
 70
     0
  9
$DIMCLRE
 70
     0
  9
$DIMCLRT
 70
     0
  9
$DIMTFAC
 40
1.0
  9
$DIMGAP
 40
0.09
  9
$LUNITS
 70
     2
  9
$LUPREC
 70
     4
  9
$SKETCHINC
 40
0.1
  9
$FILLETRAD
 40
0.0
  9
$AUNITS
 70
     0
  9
$AUPREC
 70
     0
  9
$MENU
  1
.
  9
$ELEVATION
 40
0.0
  9
$PELEVATION
 40
0.0
  9
$THICKNESS
 40
0.0
  9
$LIMCHECK
 70
     0
  9
$BLIPMODE
 70
     0
  9
$CHAMFERA
 40
0.0
  9
$CHAMFERB
 40
0.0
  9
$SKPOLY
 70
     0
  9
$TDCREATE
 40
2458060.468368056230247
  9
$TDUPDATE
 40
2459407.976944443769753
  9
$TDINDWG
 40
0.3579005787
  9
$TDUSRTIMER
 40
0.3579005787
  9
$USRTIMER
 70
     1
  9
$ANGBASE
 50
0.0
  9
$ANGDIR
 70
     0
  9
$PDMODE
 70
     0
  9
$PDSIZE
 40
0.3125
  9
$PLINEWID
 40
0.0
  9
$COORDS
 70
     1
  9
$SPLFRAME
 70
     0
  9
$SPLINETYPE
 70
     6
  9
$SPLINESEGS
 70
     8
  9
$ATTDIA
 70
     1
  9
$ATTREQ
 70
     1
  9
$HANDLING
 70
     1
  9
$HANDSEED
  5
CB9F
  9
$SURFTAB1
 70
     6
  9
$SURFTAB2
 70
     6
  9
$SURFTYPE
 70
     6
  9
$SURFU
 70
     6
  9
$SURFV
 70
     6
  9
$UCSNAME
  2

  9
$UCSORG
 10
0.0
 20
0.0
 30
0.0
  9
$UCSXDIR
 10
1.0
 20
0.0
 30
0.0
  9
$UCSYDIR
 10
0.0
 20
1.0
 30
0.0
  9
$PUCSNAME
  2

  9
$PUCSORG
 10
0.0
 20
0.0
 30
0.0
  9
$PUCSXDIR
 10
1.0
 20
0.0
 30
0.0
  9
$PUCSYDIR
 10
0.0
 20
1.0
 30
0.0
  9
$USERI1
 70
     0
  9
$USERI2
 70
     0
  9
$USERI3
 70
     0
  9
$USERI4
 70
     0
  9
$USERI5
 70
     0
  9
$USERR1
 40
0.0
  9
$USERR2
 40
0.0
  9
$USERR3
 40
0.0
  9
$USERR4
 40
0.0
  9
$USERR5
 40
0.0
  9
$WORLDVIEW
 70
     1
  9
$SHADEDGE
 70
     3
  9
$SHADEDIF
 70
    70
  9
$TILEMODE
 70
     1
  9
$MAXACTVP
 70
    64
  9
$PLIMCHECK
 70
     0
  9
$PEXTMIN
 10
1.0000000000000000E+20
 20
1.0000000000000000E+20
 30
1.0000000000000000E+20
  9
$PEXTMAX
 10
-1.0000000000000000E+20
 20
-1.0000000000000000E+20
 30
-1.0000000000000000E+20
  9
$PLIMMIN
 10
0.0
 20
0.0
  9
$PLIMMAX
 10
12.0
 20
9.0
  9
$UNITMODE
 70
     0
  9
$VISRETAIN
 70
     1
  9
$PLINEGEN
 70
     0
  9
$PSLTSCALE
 70
     1
  0
ENDSEC
  0
SECTION
  2
TABLES
  0
TABLE
  2
VPORT
 70
     1
  0
VPORT
  2
*ACTIVE
 70
     0
 10
0.0
 20
0.0
 11
1.0
 21
1.0
 12
11.4335350564706406
 22
2.4770524856279241
 13
0.0
 23
0.0
 14
1.0
 24
1.0
 15
0.0
 25
0.0
 16
0.0
 26
0.0
 36
9.5192988075487186
 17
4815.2983398437490905
 27
247.8086242675780966
 37
0.0
 40
6.2533088713746938
 41
2.0416141235813359
 42
50.0
 43
0.0
 44
0.0
 50
0.0
 51
0.0
 71
     0
 72
   100
 73
     1
 74
     1
 75
     0
 76
     0
 77
     0
 78
     0
  0
ENDTAB
  0
TABLE
  2
LTYPE
 70
     2
  0
LTYPE
  2
CONTINUOUS
 70
     0
  3
Solid line
 72
    65
 73
     0
 40
0.0
  0
LTYPE
  2
PHANTOM2
 70
     0
  3
___ _ _ ___ _ _ ___ _ _ ___ _ _
 72
    65
 73
     6
 40
1.25
 49
0.625
 49
-0.125
 49
0.125
 49
-0.125
 49
0.125
 49
-0.125
  0
ENDTAB
  0
TABLE
  2
LAYER
 70
     2
  0
LAYER
  2
0
 70
     0
 62
   255
  6
CONTINUOUS
  0
LAYER
  2
DEFPOINTS
 70
     0
 62
     7
  6
CONTINUOUS
  0
ENDTAB
  0
TABLE
  2
STYLE
 70
     1
  0
STYLE
  2
STANDARD
 70
     0
 40
0.0
 41
0.8
 50
0.0
 71
     0
 42
0.2
  3
txt
  4

  0
ENDTAB
  0
TABLE
  2
VIEW
 70
     0
  0
ENDTAB
  0
TABLE
  2
UCS
 70
     0
  0
ENDTAB
  0
TABLE
  2
APPID
 70
    10
  0
APPID
  2
ACAD
 70
     0
  0
APPID
  2
ACAD_MLEADERVER
 70
     0
  0
APPID
  2
ACAD_EXEMPT_FROM_CAD_STANDARDS
 70
     0
  0
APPID
  2
ACAD_NAV_VCDISPLAY
 70
     0
  0
APPID
  2
ACAECLAYERSTANDARD
 70
     0
  0
APPID
  2
ACCMTRANSPARENCY
 70
     0
  0
APPID
  2
ACAD_DSTYLE_DIMJAG
 70
     0
  0
APPID
  2
ACAD_DSTYLE_DIMTALN
 70
     0
  0
APPID
  2
ACDBATTR
 70
     0
  0
APPID
  2
ACADANNOTATIVE
 70
     0
  0
ENDTAB
  0
TABLE
  2
DIMSTYLE
 70
     2
  0
DIMSTYLE
  2
STANDARD
 70
     0
  3

  4

  5

  6

  7

 40
1.0
 41
0.1875
 42
0.0625
 43
0.38
 44
0.125
 45
0.0
 46
0.0
 47
0.01
 48
0.01
140
0.15625
141
0.09
142
0.0
143
25.3999999999999986
144
1.0
145
0.0
146
1.0
147
0.09
 71
     1
 72
     0
 73
     1
 74
     1
 75
     0
 76
     0
 77
     0
 78
     4
170
     0
171
     2
172
     0
173
     0
174
     0
175
     0
176
     0
177
     0
178
     0
  0
DIMSTYLE
  2
ANNOTATIVE
 70
     0
  3

  4

  5

  6

  7

 40
0.0
 41
0.18
 42
0.0625
 43
0.38
 44
0.18
 45
0.0
 46
0.0
 47
0.0
 48
0.0
140
0.18
141
0.09
142
0.0
143
25.3999999999999986
144
1.0
145
0.0
146
1.0
147
0.09
 71
     0
 72
     0
 73
     1
 74
     1
 75
     0
 76
     0
 77
     0
 78
     0
170
     0
171
     2
172
     0
173
     0
174
     0
175
     0
176
     0
177
     0
178
     0
  0
ENDTAB
  0
ENDSEC
  0
SECTION
  2
BLOCKS
  0
BLOCK
  8
0
  2
$MODEL_SPACE
 70
     0
 10
0.0
 20
0.0
 30
0.0
  3
$MODEL_SPACE
  1

  0
ENDBLK
  5
21
  8
0
  0
BLOCK
 67
     1
  8
0
  2
$PAPER_SPACE
 70
     0
 10
0.0
 20
0.0
 30
0.0
  3
$PAPER_SPACE
  1

  0
ENDBLK
  5
1D
 67
     1
  8
0
  0
ENDSEC
  0
SECTION
  2
ENTITIES
  0
ATTDEF
  5
3930
  8
DEFPOINTS
 10
4826.8221397602746947
 20
247.0468268385934039
 30
0.0
 40
0.001
  1
K-37305T-4
  3

  2
MODELNUMBER
 70
     0
1001
ACDBATTR
1070
     0
1070
     1
  0
ATTDEF
  5
3931
  8
DEFPOINTS
 10
4826.8221397602746947
 20
247.0451601719267956
 30
0.0
 40
0.001
  1
CUFF
  3

  2
TRADENAME
 70
     0
1001
ACDBATTR
1070
     0
1070
     1
  0
ATTDEF
  5
3932
  8
DEFPOINTS
 10
4826.8221397602746947
 20
247.043493505260102
 30
0.0
 40
0.001
  1
BATHROOM SINK FAUCET
  3

  2
PRODUCT
 70
     0
1001
ACDBATTR
1070
     0
1070
     1
  0
LINE
  5
CAFE
  8
0
 10
4827.9169963047452256
 20
247.0539282841041029
 30
0.0
 11
4825.7516419739449702
 21
247.0539282841041029
 31
0.0
  0
ARC
  5
CAFF
  8
0
 10
4825.7746216895538964
 20
247.2671701651426872
 30
0.0
 40
0.0232145388491325
 50
98.1591351907025995
 51
171.8436678015947905
  0
ARC
  5
CB00
  8
0
 10
4838.771333849428629
 20
250.4517075733893989
 30
0.0
 40
12.5391342937977992
 50
171.1533827527285041
 51
179.0724911762804084
  0
ARC
  5
CB01
  8
0
 10
4817.0504355662160378
 20
250.6357360128386063
 30
0.0
 40
10.3843821165821897
 50
0.11764188911054
 51
9.6703612218778279
  0
ARC
  5
CB02
  8
0
 10
4826.8343302593821136
 20
252.5295902748507046
 30
0.0
 40
0.4494899409801434
 50
21.2315167382314414
 51
158.7684832623571083
  0
ARC
  5
CB03
  8
0
 10
4826.8343302593802946
 20
252.2275545640806058
 30
0.0
 40
0.4491900688798564
 50
200.841155885522312
 51
339.1588441150266817
  0
LINE
  5
CB04
  8
0
 10
4823.4051852810962373
 20
247.2901487565040952
 30
0.0
 11
4823.4051852810962373
 21
247.3334558431041046
 31
0.0
  0
LINE
  5
CB05
  8
0
 10
4822.2634529975948681
 20
247.2901470104040982
 30
0.0
 11
4822.2634529975948681
 21
247.3334556715794861
 31
0.0
  0
ARC
  5
CB06
  8
0
 10
4822.166277503449237
 20
247.3544543741350026
 30
0.0
 40
0.0210378188191588
 50
183.5742692687178135
 51
266.4240264015149933
  0
ARC
  5
CB07
  8
0
 10
4823.5035515874633347
 20
247.353140381115395
 30
0.0
 40
0.0196828646811738
 50
270.0063221834412843
 51
359.3972062285757829
  0
ARC
  5
CB08
  8
0
 10
4821.7724676802590693
 20
247.0747599368174008
 30
0.0
 40
0.0208633468065848
 50
183.4196471159667965
 51
266.8414351236178277
  0
ARC
  5
CB09
  8
0
 10
4821.7727286485560398
 20
247.2690558695618961
 30
0.0
 40
0.0211405353181025
 50
93.8084616396798765
 51
175.9279340903077866
  0
ARC
  5
CB0A
  8
0
 10
4822.8343154942567708
 20
247.9669321500475121
 30
0.0
 40
0.1393635829652791
 50
11.7611332279193803
 51
168.2388667720773867
  0
ARC
  5
CB0B
  8
0
 10
4822.8343154942567708
 20
247.8716053357630926
 30
0.0
 40
0.1393224378546648
 50
191.6795839910273003
 51
348.3204160089726997
  0
ARC
  5
CB0C
  8
0
 10
4823.3239947211659455
 20
247.91937001805411
 30
0.0
 40
0.630708936791052
 50
173.0819262511855072
 51
186.9180737488144928
  0
ARC
  5
CB0D
  8
0
 10
4822.3456817808919368
 20
247.91937001805411
 30
0.0
 40
0.6296710478100049
 50
353.070467287092697
 51
6.9295327129072604
  0
LINE
  5
CB0E
  8
0
 10
4823.5232333628464403
 20
247.3529333067120035
 30
0.0
 11
4823.5232333628464403
 21
248.5117971609655001
 31
0.0
  0
LINE
  5
CB0F
  8
0
 10
4822.145280606846427
 20
248.5117971609712129
 30
0.0
 11
4822.145280606846427
 21
247.3531428278409123
 31
0.0
  0
ARC
  5
CB10
  8
0
 10
4822.1662811787518876
 20
248.5104839561971062
 30
0.0
 40
0.021041590414537
 50
93.5853591633963475
 51
176.4218474193563964
  0
LINE
  5
CB11
  8
0
 10
4822.1649653325794134
 20
247.3334575165540059
 30
0.0
 11
4823.5035537593257686
 21
247.3334575165540059
 31
0.0
  0
LINE
  5
CB12
  8
0
 10
4821.7713244675951501
 20
247.290149719598503
 30
0.0
 11
4823.897313811586173
 21
247.290149719598503
 31
0.0
  0
ARC
  5
CB13
  8
0
 10
4823.5022327909400701
 20
248.5104839561977883
 30
0.0
 40
0.0210415904137549
 50
3.5781525634562961
 51
86.4146408318000567
  0
ARC
  5
CB14
  8
0
 10
4822.8342569848464336
 20
238.7929823956559119
 30
0.0
 40
9.7614738579368474
 50
86.0684526487373773
 51
93.9315473512105115
  0
LINE
  5
CB15
  8
0
 10
4822.1649653325648615
 20
248.5314843627643029
 30
0.0
 11
4823.5035486371280058
 21
248.5314843627641039
 31
0.0
  0
LINE
  5
CB16
  8
0
 10
4825.7713270133954211
 20
247.290149719598503
 30
0.0
 11
4827.8973112621279142
 21
247.290149719598503
 31
0.0
  0
ARC
  5
CB17
  8
0
 10
4827.8509394513812367
 20
252.3781719849199021
 30
0.0
 40
1.4695703679841541
 50
167.6548148181441036
 51
192.1949289073369869
  0
ARC
  5
CB18
  8
0
 10
4825.8164324527660938
 20
252.3781702952487933
 30
0.0
 40
1.4708295730583321
 50
347.8157390925794061
 51
12.3345171819236707
  0
LINE
  5
CB19
  8
0
 10
4827.4347957936306557
 20
250.6570576089748954
 30
0.0
 11
4827.4347957936306557
 21
247.290149719598503
 31
0.0
  0
LINE
  5
CB1A
  8
0
 10
4821.7516414820456703
 20
247.270557083111612
 30
0.0
 11
4821.7516414820456703
 21
247.0735154658582928
 31
0.0
  0
LINE
  5
CB1B
  8
0
 10
4825.7516419739449702
 20
247.2704637171040929
 30
0.0
 11
4825.7516419739449702
 21
247.0539282841041029
 31
0.0
  0
ARC
  5
CB1C
  8
0
 10
4823.893834327366676
 20
247.0771079946530904
 30
0.0
 40
0.0234404848084442
 50
278.5544116430467056
 51
349.3692053568648248
  0
ARC
  5
CB1D
  8
0
 10
4823.8945671221690645
 20
247.2677058297736892
 30
0.0
 40
0.0226113355029127
 50
9.4363689685508643
 51
83.0228209368777641
  0
LINE
  5
CB1E
  8
0
 10
4823.9168724876462875
 20
247.0727837029176044
 30
0.0
 11
4823.9168724876462875
 21
247.2714130071628063
 31
0.0
  0
LINE
  5
CB1F
  8
0
 10
4826.2338424850586307
 20
250.6546832523983994
 30
0.0
 11
4826.2338424850586307
 21
247.290149719598503
 31
0.0
  0
LINE
  5
CB20
  8
0
 10
4827.9169963047452256
 20
247.0539282841041029
 30
0.0
 11
4827.9169963047452256
 21
247.2704637171052866
 31
0.0
  0
ARC
  5
CB21
  8
0
 10
4827.8940165822677955
 20
247.2671701577442889
 30
0.0
 40
0.023214546697997
 50
8.1563478716527946
 51
81.8408583572560673
  0
LINE
  5
CB22
  8
0
 10
4823.8973210660897166
 20
247.0539282841041029
 30
0.0
 11
4821.7713181215585792
 21
247.0539282841041029
 31
0.0
  0
LINE
  5
CB23
  8
0
 10
4831.4053095900953849
 20
247.2901487565040952
 30
0.0
 11
4831.4053095900953849
 21
247.3334558431041046
 31
0.0
  0
LINE
  5
CB24
  8
0
 10
4830.2635773065940157
 20
247.2901470104040982
 30
0.0
 11
4830.2635773065940157
 21
247.3334556715794861
 31
0.0
  0
ARC
  5
CB25
  8
0
 10
4830.1664018124483846
 20
247.3544543741350026
 30
0.0
 40
0.0210378188191588
 50
183.5742692687178135
 51
266.4240264015149933
  0
ARC
  5
CB26
  8
0
 10
4831.5036758964615728
 20
247.353140381115395
 30
0.0
 40
0.0196828646811738
 50
270.0063221834412843
 51
359.3972062285757829
  0
ARC
  5
CB27
  8
0
 10
4829.7725919892582169
 20
247.0747599368174008
 30
0.0
 40
0.0208633468065848
 50
183.4196471159667965
 51
266.8414351236178277
  0
ARC
  5
CB28
  8
0
 10
4829.7728529575551875
 20
247.2690558695618961
 30
0.0
 40
0.0211405353181025
 50
93.8084616396798765
 51
175.9279340903077866
  0
ARC
  5
CB29
  8
0
 10
4830.8344398032559184
 20
247.9669321500475121
 30
0.0
 40
0.1393635829652791
 50
11.7611332279193803
 51
168.2388667720773867
  0
ARC
  5
CB2A
  8
0
 10
4830.8344398032559184
 20
247.8716053357630926
 30
0.0
 40
0.1393224378546648
 50
191.6795839910273003
 51
348.3204160089726997
  0
ARC
  5
CB2B
  8
0
 10
4831.3241190301650931
 20
247.91937001805411
 30
0.0
 40
0.630708936791052
 50
173.0819262511855072
 51
186.9180737488144928
  0
ARC
  5
CB2C
  8
0
 10
4830.3458060898910844
 20
247.91937001805411
 30
0.0
 40
0.6296710478100049
 50
353.070467287092697
 51
6.9295327129072604
  0
LINE
  5
CB2D
  8
0
 10
4831.5233576718437689
 20
247.3529333067120035
 30
0.0
 11
4831.5233576718437689
 21
248.5117971609655001
 31
0.0
  0
LINE
  5
CB2E
  8
0
 10
4830.1454049158446651
 20
248.5117971609712129
 30
0.0
 11
4830.1454049158446651
 21
247.3531428278409123
 31
0.0
  0
ARC
  5
CB2F
  8
0
 10
4830.1664054877519447
 20
248.5104839561971062
 30
0.0
 40
0.021041590414537
 50
93.5853591633963475
 51
176.4218474193563964
  0
LINE
  5
CB30
  8
0
 10
4830.1650896415776515
 20
247.3334575165540059
 30
0.0
 11
4831.5036780683258257
 21
247.3334575165540059
 31
0.0
  0
LINE
  5
CB31
  8
0
 10
4829.7714487765942977
 20
247.290149719598503
 30
0.0
 11
4831.8974381205853206
 21
247.290149719598503
 31
0.0
  0
ARC
  5
CB32
  8
0
 10
4831.5023570999392177
 20
248.5104839561977883
 30
0.0
 40
0.0210415904137549
 50
3.5781525634562961
 51
86.4146408318000567
  0
ARC
  5
CB33
  8
0
 10
4830.8343812938437623
 20
238.7929823956559119
 30
0.0
 40
9.7614738579368474
 50
86.0684526487373773
 51
93.9315473512105115
  0
LINE
  5
CB34
  8
0
 10
4830.1650896415649186
 20
248.5314843627643029
 30
0.0
 11
4831.5036729461262439
 21
248.5314843627641039
 31
0.0
  0
LINE
  5
CB35
  8
0
 10
4829.7517657910439084
 20
247.270557083111612
 30
0.0
 11
4829.7517657910439084
 21
247.0735154658582928
 31
0.0
  0
ARC
  5
CB36
  8
0
 10
4831.8939586363658236
 20
247.0771079946530904
 30
0.0
 40
0.0234404848084442
 50
278.5544116430467056
 51
349.3692053568648248
  0
ARC
  5
CB37
  8
0
 10
4831.8946914311682121
 20
247.2677058297736892
 30
0.0
 40
0.0226113355029127
 50
9.4363689685508643
 51
83.0228209368777641
  0
LINE
  5
CB38
  8
0
 10
4831.9169967966436161
 20
247.0727837029176044
 30
0.0
 11
4831.9169967966436161
 21
247.2714130071628063
 31
0.0
  0
LINE
  5
CB39
  8
0
 10
4831.8974453750888642
 20
247.0539282841041029
 30
0.0
 11
4829.7714424305577268
 21
247.0539282841041029
 31
0.0
  0
ENDSEC
  0
EOF
