  0
SECTION
  2
HEADER
  9
$ACADVER
  1
AC1009
  9
$INSBASE
 10
217.5127508158147123
 20
-20.124969469684661
 30
0.0
  9
$EXTMIN
 10
211.7598996747371132
 20
-20.1297004940016606
 30
0.0
  9
$EXTMAX
 10
218.9041875446370966
 20
-9.9606901437002691
 30
0.0
  9
$LIMMIN
 10
0.0
 20
0.0
  9
$LIMMAX
 10
11.6929133858000007
 20
8.2677165353999982
  9
$ORTHOMODE
 70
     0
  9
$REGENMODE
 70
     1
  9
$FILLMODE
 70
     1
  9
$QTEXTMODE
 70
     0
  9
$MIRRTEXT
 70
     0
  9
$DRAGMODE
 70
     2
  9
$LTSCALE
 40
0.6431102362
  9
$OSMODE
 70
  3839
  9
$ATTMODE
 70
     1
  9
$TEXTSIZE
 40
0.2
  9
$TRACEWID
 40
0.05
  9
$TEXTSTYLE
  7
STANDARD
  9
$CLAYER
  8
0
  9
$CELTYPE
  6
BYLAYER
  9
$CECOLOR
 62
   256
  9
$DIMSCALE
 40
1.0
  9
$DIMASZ
 40
0.1875
  9
$DIMEXO
 40
0.0625
  9
$DIMDLI
 40
0.4443307087
  9
$DIMRND
 40
0.0
  9
$DIMDLE
 40
0.0
  9
$DIMEXE
 40
0.125
  9
$DIMTP
 40
0.01
  9
$DIMTM
 40
0.01
  9
$DIMTXT
 40
1.0
  9
$DIMCEN
 40
0.1052362205
  9
$DIMTSZ
 40
0.0
  9
$DIMTOL
 70
     1
  9
$DIMLIM
 70
     0
  9
$DIMTIH
 70
     1
  9
$DIMTOH
 70
     1
  9
$DIMSE1
 70
     0
  9
$DIMSE2
 70
     0
  9
$DIMTAD
 70
     0
  9
$DIMZIN
 70
     0
  9
$DIMBLK
  1

  9
$DIMASO
 70
     1
  9
$DIMSHO
 70
     1
  9
$DIMPOST
  1
\X
  9
$DIMAPOST
  1

  9
$DIMALT
 70
     1
  9
$DIMALTD
 70
     2
  9
$DIMALTF
 40
25.3999999999999986
  9
$DIMLFAC
 40
1.0
  9
$DIMTOFL
 70
     0
  9
$DIMTVP
 40
0.0
  9
$DIMTIX
 70
     0
  9
$DIMSOXD
 70
     0
  9
$DIMSAH
 70
     0
  9
$DIMBLK1
  1

  9
$DIMBLK2
  1

  9
$DIMSTYLE
  2
STANDARD
  9
$DIMCLRD
 70
     0
  9
$DIMCLRE
 70
     0
  9
$DIMCLRT
 70
     0
  9
$DIMTFAC
 40
1.0
  9
$DIMGAP
 40
0.09
  9
$LUNITS
 70
     2
  9
$LUPREC
 70
     4
  9
$SKETCHINC
 40
0.1
  9
$FILLETRAD
 40
0.0
  9
$AUNITS
 70
     0
  9
$AUPREC
 70
     0
  9
$MENU
  1
.
  9
$ELEVATION
 40
0.0
  9
$PELEVATION
 40
0.0
  9
$THICKNESS
 40
0.0
  9
$LIMCHECK
 70
     0
  9
$BLIPMODE
 70
     0
  9
$CHAMFERA
 40
0.0
  9
$CHAMFERB
 40
0.0
  9
$SKPOLY
 70
     0
  9
$TDCREATE
 40
2458172.4620254631154239
  9
$TDUPDATE
 40
2459055.5251967590302229
  9
$TDINDWG
 40
0.1005962153
  9
$TDUSRTIMER
 40
0.1005962153
  9
$USRTIMER
 70
     1
  9
$ANGBASE
 50
0.0
  9
$ANGDIR
 70
     0
  9
$PDMODE
 70
     0
  9
$PDSIZE
 40
0.3125
  9
$PLINEWID
 40
0.0
  9
$COORDS
 70
     1
  9
$SPLFRAME
 70
     0
  9
$SPLINETYPE
 70
     6
  9
$SPLINESEGS
 70
     8
  9
$ATTDIA
 70
     1
  9
$ATTREQ
 70
     1
  9
$HANDLING
 70
     1
  9
$HANDSEED
  5
3CB1
  9
$SURFTAB1
 70
     6
  9
$SURFTAB2
 70
     6
  9
$SURFTYPE
 70
     6
  9
$SURFU
 70
     6
  9
$SURFV
 70
     6
  9
$UCSNAME
  2

  9
$UCSORG
 10
0.0
 20
0.0
 30
0.0
  9
$UCSXDIR
 10
1.0
 20
0.0
 30
0.0
  9
$UCSYDIR
 10
0.0
 20
1.0
 30
0.0
  9
$PUCSNAME
  2

  9
$PUCSORG
 10
0.0
 20
0.0
 30
0.0
  9
$PUCSXDIR
 10
1.0
 20
0.0
 30
0.0
  9
$PUCSYDIR
 10
0.0
 20
1.0
 30
0.0
  9
$USERI1
 70
     0
  9
$USERI2
 70
     0
  9
$USERI3
 70
     0
  9
$USERI4
 70
     0
  9
$USERI5
 70
     0
  9
$USERR1
 40
0.0
  9
$USERR2
 40
0.0
  9
$USERR3
 40
0.0
  9
$USERR4
 40
0.0
  9
$USERR5
 40
0.0
  9
$WORLDVIEW
 70
     1
  9
$SHADEDGE
 70
     3
  9
$SHADEDIF
 70
    70
  9
$TILEMODE
 70
     1
  9
$MAXACTVP
 70
    64
  9
$PLIMCHECK
 70
     0
  9
$PEXTMIN
 10
1.0000000000000000E+20
 20
1.0000000000000000E+20
 30
1.0000000000000000E+20
  9
$PEXTMAX
 10
-1.0000000000000000E+20
 20
-1.0000000000000000E+20
 30
-1.0000000000000000E+20
  9
$PLIMMIN
 10
0.0
 20
0.0
  9
$PLIMMAX
 10
12.0
 20
9.0
  9
$UNITMODE
 70
     0
  9
$VISRETAIN
 70
     1
  9
$PLINEGEN
 70
     0
  9
$PSLTSCALE
 70
     1
  0
ENDSEC
  0
SECTION
  2
TABLES
  0
TABLE
  2
VPORT
 70
     1
  0
VPORT
  2
*ACTIVE
 70
     0
 10
0.0
 20
0.0
 11
1.0
 21
1.0
 12
0.0
 22
0.0
 13
0.0
 23
0.0
 14
1.0
 24
1.0
 15
0.0
 25
0.0
 16
0.0
 26
0.0
 36
51.5945028179043277
 17
215.3320465087890909
 27
-15.0451954961768504
 37
0.0
 40
12.4277754482772806
 41
3.314341846758349
 42
50.0
 43
0.0
 44
0.0
 50
0.0
 51
0.0
 71
     0
 72
   100
 73
     1
 74
     1
 75
     0
 76
     0
 77
     0
 78
     0
  0
ENDTAB
  0
TABLE
  2
LTYPE
 70
     2
  0
LTYPE
  2
CONTINUOUS
 70
     0
  3
Solid line
 72
    65
 73
     0
 40
0.0
  0
LTYPE
  2
PHANTOM2
 70
     0
  3
___ _ _ ___ _ _ ___ _ _ ___ _ _
 72
    65
 73
     6
 40
1.25
 49
0.625
 49
-0.125
 49
0.125
 49
-0.125
 49
0.125
 49
-0.125
  0
ENDTAB
  0
TABLE
  2
LAYER
 70
     2
  0
LAYER
  2
0
 70
     0
 62
   255
  6
CONTINUOUS
  0
LAYER
  2
DEFPOINTS
 70
     0
 62
     7
  6
CONTINUOUS
  0
ENDTAB
  0
TABLE
  2
STYLE
 70
     1
  0
STYLE
  2
STANDARD
 70
     0
 40
0.0
 41
0.8
 50
0.0
 71
     0
 42
0.2
  3
txt
  4

  0
ENDTAB
  0
TABLE
  2
VIEW
 70
     0
  0
ENDTAB
  0
TABLE
  2
UCS
 70
     0
  0
ENDTAB
  0
TABLE
  2
APPID
 70
    10
  0
APPID
  2
ACAD
 70
     0
  0
APPID
  2
ACAD_MLEADERVER
 70
     0
  0
APPID
  2
ACAD_EXEMPT_FROM_CAD_STANDARDS
 70
     0
  0
APPID
  2
ACAD_DSTYLE_DIMJAG
 70
     0
  0
APPID
  2
ACAD_DSTYLE_DIMTALN
 70
     0
  0
APPID
  2
ACAD_NAV_VCDISPLAY
 70
     0
  0
APPID
  2
ACAECLAYERSTANDARD
 70
     0
  0
APPID
  2
ACCMTRANSPARENCY
 70
     0
  0
APPID
  2
ACDBATTR
 70
     0
  0
APPID
  2
ACADANNOTATIVE
 70
     0
  0
ENDTAB
  0
TABLE
  2
DIMSTYLE
 70
     2
  0
DIMSTYLE
  2
STANDARD
 70
     0
  3

  4

  5

  6

  7

 40
1.0
 41
0.1875
 42
0.0625
 43
0.38
 44
0.125
 45
0.0
 46
0.0
 47
0.01
 48
0.01
140
0.15625
141
0.09
142
0.0
143
25.3999999999999986
144
1.0
145
0.0
146
1.0
147
0.09
 71
     1
 72
     0
 73
     1
 74
     1
 75
     0
 76
     0
 77
     0
 78
     4
170
     0
171
     2
172
     0
173
     0
174
     0
175
     0
176
     0
177
     0
178
     0
  0
DIMSTYLE
  2
ANNOTATIVE
 70
     0
  3

  4

  5

  6

  7

 40
0.0
 41
0.18
 42
0.0625
 43
0.38
 44
0.18
 45
0.0
 46
0.0
 47
0.0
 48
0.0
140
0.18
141
0.09
142
0.0
143
25.3999999999999986
144
1.0
145
0.0
146
1.0
147
0.09
 71
     0
 72
     0
 73
     1
 74
     1
 75
     0
 76
     0
 77
     0
 78
     0
170
     0
171
     2
172
     0
173
     0
174
     0
175
     0
176
     0
177
     0
178
     0
  0
ENDTAB
  0
ENDSEC
  0
SECTION
  2
BLOCKS
  0
BLOCK
  8
0
  2
$MODEL_SPACE
 70
     0
 10
0.0
 20
0.0
 30
0.0
  3
$MODEL_SPACE
  1

  0
ENDBLK
  5
21
  8
0
  0
BLOCK
 67
     1
  8
0
  2
$PAPER_SPACE
 70
     0
 10
0.0
 20
0.0
 30
0.0
  3
$PAPER_SPACE
  1

  0
ENDBLK
  5
1D
 67
     1
  8
0
  0
BLOCK
  8
0
  2
_FILLED
 70
     0
 10
0.0
 20
0.0
 30
0.0
  3
_FILLED
  1

  0
SOLID
  5
2F2B
  8
0
  6
BYBLOCK
 62
     0
 10
0.0
 20
0.0
 30
0.0
 11
-1.0
 21
0.1666666667
 31
0.0
 12
-1.0
 22
-0.1666666667
 32
0.0
 13
-1.0
 23
-0.1666666667
 33
0.0
  0
ENDBLK
  5
2F2C
  8
0
  6
BYBLOCK
 62
     0
  0
BLOCK
  8
0
  2
A$CBC74E0AA
 70
     0
 10
0.0
 20
0.0
 30
0.0
  3
A$CBC74E0AA
  1

  0
ARC
  5
3264
  8
0
 62
     3
 10
-61.9647946134706729
 20
0.5679703708157513
 30
0.0
 40
62.1265672047464719
 50
359.476186115906728
 51
4.1356679026520551
  0
ENDBLK
  5
3268
  8
0
  0
ENDSEC
  0
SECTION
  2
ENTITIES
  0
ATTDEF
  5
2E1C
  8
DEFPOINTS
 10
217.5018870113158869
 20
-20.1263671606683303
 30
0.0
 40
0.001
  1
K-37303T-4
  3

  2
MODELNUMBER
 70
     0
1001
ACDBATTR
1070
     0
1070
     1
  0
ATTDEF
  5
2E1D
  8
DEFPOINTS
 10
217.5018870113158869
 20
-20.1280338273349884
 30
0.0
 40
0.001
  1
CUFF
  3

  2
TRADENAME
 70
     0
1001
ACDBATTR
1070
     0
1070
     1
  0
ATTDEF
  5
2E1E
  8
DEFPOINTS
 10
217.5018870113158869
 20
-20.1297004940016606
 30
0.0
 40
0.001
  1
BATHROOM SINK FAUCET
  3

  2
PRODUCT
 70
     0
1001
ACDBATTR
1070
     0
1070
     1
  0
LINE
  5
3AC7
  8
0
 10
211.8026269584231898
 20
-12.0121674848002709
 30
0.0
 11
216.1420581265433043
 21
-12.0121674848002709
 31
0.0
  0
LINE
  5
3AC8
  8
0
 10
214.0376211461432945
 20
-10.4088247643051002
 30
0.0
 11
216.5182562024934043
 21
-10.4088247643051002
 31
0.0
  0
LINE
  5
3AC9
  8
0
 10
214.0376195252918023
 20
-10.78286037354599
 30
0.0
 11
214.2791048956356974
 21
-10.78286037354599
 31
0.0
  0
LINE
  5
3ACA
  8
0
 10
214.8352752213959036
 20
-10.78286037354599
 30
0.0
 11
216.5217724410838969
 21
-10.78286037354599
 31
0.0
  0
LINE
  5
3ACB
  8
0
 10
218.4175613285146937
 20
-11.5419719856432597
 30
0.0
 11
218.4175613285146937
 21
-18.2362475245284088
 31
0.0
  0
LINE
  5
3ACC
  8
0
 10
218.4175613285146937
 20
-18.3738127738594699
 30
0.0
 11
218.4175613285146937
 21
-20.124969469684661
 31
0.0
  0
LINE
  5
3ACD
  8
0
 10
218.4175109355433051
 20
-11.1816766599002708
 30
0.0
 11
218.4175109355433051
 21
-10.0069428262228506
 31
0.0
  0
LINE
  5
3ACE
  8
0
 10
218.3457862532490878
 20
-11.2171097307002707
 30
0.0
 11
216.6796145924375026
 21
-11.2171097307002707
 31
0.0
  0
LINE
  5
3ACF
  8
0
 10
218.4175109355433051
 20
-11.1816766599002708
 30
0.0
 11
216.6078899101433137
 21
-11.1816766599002708
 31
0.0
  0
LINE
  5
3AD0
  8
0
 10
218.3431874151432908
 20
-11.1895492117002604
 30
0.0
 11
216.6822134305432996
 21
-11.1895492117002604
 31
0.0
  0
LINE
  5
3AD1
  8
0
 10
218.4175613285146937
 20
-20.124969469684661
 30
0.0
 11
216.6079403031147024
 21
-20.124969469684661
 31
0.0
  0
LINE
  5
3AD2
  8
0
 10
217.6896441081433125
 20
-11.2171097307002707
 30
0.0
 11
217.6896441081433125
 21
-11.1895492117002604
 31
0.0
  0
LINE
  5
3AD3
  8
0
 10
217.6722520908433012
 20
-11.2171097307002707
 30
0.0
 11
217.6722520908433012
 21
-11.1974232274002699
 31
0.0
  0
ARC
  5
3AD4
  8
0
 10
217.7038051801503968
 20
-11.1974232274002699
 30
0.0
 40
0.0315530893070601
 50
165.549223155953797
 51
180.0000000000015916
  0
LINE
  5
3AD5
  8
0
 10
218.0206066547432897
 20
-11.1895492117002604
 30
0.0
 11
218.0213162359432886
 21
-11.2171097307002707
 31
0.0
  0
LINE
  5
3AD6
  8
0
 10
218.0856870605203994
 20
-11.2171097307002707
 30
0.0
 11
218.0860762460432909
 21
-11.1974232274002699
 31
0.0
  0
ARC
  5
3AD7
  8
0
 10
218.0954990366921038
 20
-11.1988270809439108
 30
0.0
 40
0.0095267931846709
 50
103.1264652227192045
 51
171.5261238380197142
  0
LINE
  5
3AD8
  8
0
 10
218.2165020933433084
 20
-11.2171097307002707
 30
0.0
 11
218.2165020933433084
 21
-11.1974232274002699
 31
0.0
  0
ARC
  5
3AD9
  8
0
 10
218.2245682679898948
 20
-11.1974232274002699
 30
0.0
 40
0.0080661746466149
 50
102.5314143792366934
 51
179.9999999999994031
  0
LINE
  5
3ADA
  8
0
 10
218.3431874151432908
 20
-11.1895492117002604
 30
0.0
 11
218.3429576404433021
 21
-11.1829693238002701
 31
0.0
  0
LINE
  5
3ADB
  8
0
 10
218.3429576404433021
 20
-11.1829693238002701
 30
0.0
 11
218.34239489708321
 21
-11.1816766599002708
 31
0.0
  0
LINE
  5
3ADC
  8
0
 10
218.3429576404433021
 20
-11.1829693238002701
 30
0.0
 11
216.6824432052432883
 21
-11.1829693238002701
 31
0.0
  0
ARC
  5
3ADD
  8
0
 10
217.5110610352012941
 20
-11.5718940636160799
 30
0.0
 40
0.9069939980658928
 50
1.890552662969416
 51
23.0270103041650103
  0
LINE
  5
3ADE
  8
0
 10
218.4952636138077935
 20
-18.2360791236027708
 30
0.0
 11
218.3781218880147037
 21
-18.2363329999846506
 31
0.0
  0
LINE
  5
3ADF
  8
0
 10
218.8170258897577867
 20
-18.1964154691204882
 30
0.0
 11
218.5634199454900113
 21
-18.1963915218387804
 31
0.0
  0
ARC
  5
3AE0
  8
0
 10
218.8294112169051004
 20
-18.2609755694273694
 30
0.0
 40
0.0657373781054605
 50
100.8597842638783959
 51
155.7970430695631023
  0
ARC
  5
3AE1
  8
0
 10
218.5639961780437943
 20
-18.2757480311303198
 30
0.0
 40
0.0793586013667995
 50
90.4160353497771325
 51
150.0086641603103885
  0
ARC
  5
3AE2
  8
0
 10
218.8195523368250122
 20
-18.2718999311304309
 30
0.0
 40
0.0755267299683542
 50
29.6162527471835304
 51
91.9169605761155566
  0
LINE
  5
3AE3
  8
0
 10
218.4952636138077935
 20
-18.3731878445732413
 30
0.0
 11
218.378357640914686
 21
-18.3741280738846484
 31
0.0
  0
LINE
  5
3AE4
  8
0
 10
218.8167530016586966
 20
-18.4128754463372388
 30
0.0
 11
218.5634199454900113
 21
-18.4128754463372388
 31
0.0
  0
ARC
  5
3AE5
  8
0
 10
218.831234326083802
 20
-18.3466408461192891
 30
0.0
 40
0.067799196331051
 50
204.8390546192545969
 51
257.6670997696510881
  0
ARC
  5
3AE6
  8
0
 10
218.5639961780437943
 20
-18.3335189370456888
 30
0.0
 40
0.0793586013667995
 50
209.9913358396896115
 51
269.5839646502228106
  0
ARC
  5
3AE7
  8
0
 10
218.8188254183947947
 20
-18.3363049418884998
 30
0.0
 40
0.0765985447816252
 50
268.4496412572414101
 51
329.9612626074547848
  0
ARC
  5
3AE8
  8
0
 10
218.9069855891312102
 20
-18.3043250059490887
 30
0.0
 40
0.1544586943095932
 50
152.9262799122890897
 51
207.2807527847722895
  0
ARC
  5
3AE9
  8
0
 10
218.6230215089611022
 20
-18.3046334840880114
 30
0.0
 40
0.1449888965250472
 50
151.7821762978005893
 51
208.2178237021990128
  0
ARC
  5
3AEA
  8
0
 10
218.7656907422463064
 20
-18.3045473885966814
 30
0.0
 40
0.1384968023908041
 50
329.5915539474037246
 51
30.3462181697528202
  0
ARC
  5
3AEB
  8
0
 10
218.3983230164762972
 20
-10.0111578993157906
 30
0.0
 40
0.019645434057358
 50
12.3895617605581698
 51
86.0751616630423939
  0
LINE
  5
3AEC
  8
0
 10
216.6078899101433137
 20
-11.5419719856432508
 30
0.0
 11
216.6078899101433137
 21
-11.5714404394002699
 31
0.0
  0
LINE
  5
3AED
  8
0
 10
216.6079403031147024
 20
-13.7785382873613607
 30
0.0
 11
216.6079403031147024
 21
-20.124969469684661
 31
0.0
  0
LINE
  5
3AEE
  8
0
 10
216.6078899101433137
 20
-11.1816766599002708
 30
0.0
 11
216.6078899101433137
 21
-10.8658101304800105
 31
0.0
  0
LINE
  5
3AEF
  8
0
 10
216.6078899101433137
 20
-10.3010691029480501
 30
0.0
 11
216.6078899101433137
 21
-10.0069428262228506
 31
0.0
  0
LINE
  5
3AF0
  8
0
 10
217.3357567375433064
 20
-11.2171097307002707
 30
0.0
 11
217.3357567375433064
 21
-11.1895492117002604
 31
0.0
  0
LINE
  5
3AF1
  8
0
 10
217.3531487548432892
 20
-11.2171097307002707
 30
0.0
 11
217.3531487548432892
 21
-11.1974232274002699
 31
0.0
  0
ARC
  5
3AF2
  8
0
 10
217.3215956655361936
 20
-11.1974232274002699
 30
0.0
 40
0.0315530893070601
 50
359.999999999998181
 51
14.4507768440463895
  0
LINE
  5
3AF3
  8
0
 10
217.0047941909433007
 20
-11.1895492117002604
 30
0.0
 11
217.0040846097433018
 21
-11.2171097307002707
 31
0.0
  0
LINE
  5
3AF4
  8
0
 10
216.939713785166191
 20
-11.2171097307002707
 30
0.0
 11
216.9393245996432995
 21
-11.1974232274002699
 31
0.0
  0
ARC
  5
3AF5
  8
0
 10
216.9299018089944866
 20
-11.1988270809439108
 30
0.0
 40
0.0095267931846709
 50
8.473876161980332
 51
76.8735347772807955
  0
LINE
  5
3AF6
  8
0
 10
216.8088987523433104
 20
-11.2171097307002707
 30
0.0
 11
216.8088987523433104
 21
-11.1974232274002699
 31
0.0
  0
ARC
  5
3AF7
  8
0
 10
216.8008325776966956
 20
-11.1974232274002699
 30
0.0
 40
0.0080661746466149
 50
0.0000000000006107
 51
77.4685856207633066
  0
LINE
  5
3AF8
  8
0
 10
216.6822134305432996
 20
-11.1895492117002604
 30
0.0
 11
216.6824432052432883
 21
-11.1829693238002701
 31
0.0
  0
LINE
  5
3AF9
  8
0
 10
216.6824432052432883
 20
-11.1829693238002701
 30
0.0
 11
216.6830059486034088
 21
-11.1816766599002708
 31
0.0
  0
ARC
  5
3AFA
  8
0
 10
217.5129220919432953
 20
-11.5714404394002806
 30
0.0
 40
0.9055118110000515
 50
156.9643158907709903
 51
178.1350699379356968
  0
ARC
  5
3AFB
  8
0
 10
216.6270778292104069
 20
-10.0111578993157906
 30
0.0
 40
0.019645434057358
 50
93.9248383369576061
 51
167.6104382394418053
  0
ARC
  5
3AFC
  8
0
 10
217.5127004228432952
 20
-22.7191083980368909
 30
0.0
 40
12.75841825433662
 50
86.0135727224989495
 51
93.9864272775010647
  0
ARC
  5
3AFD
  8
0
 10
218.4045229777412942
 20
-18.5050744163855896
 30
0.0
 40
0.1335348998038335
 50
101.2998635224557944
 51
176.3232719938341972
  0
ARC
  5
3AFE
  8
0
 10
218.3984542345185957
 20
-18.499852222058621
 30
0.0
 40
0.2643024493205144
 50
94.4120277600253246
 51
174.0788650061768976
  0
LINE
  5
3AFF
  8
0
 10
218.1355618832147059
 20
-18.4725869264846487
 30
0.0
 11
218.079106996614712
 21
-18.7928047335846493
 31
0.0
  0
LINE
  5
3B00
  8
0
 10
218.2712629265147086
 20
-18.4965112269846514
 30
0.0
 11
218.1477970958520132
 21
-19.1794535373451183
 31
0.0
  0
ARC
  5
3B01
  8
0
 10
216.9180921468627048
 20
-18.8439704837273503
 30
0.0
 40
1.2999176486349331
 50
347.0166025989501009
 51
2.1157757032152258
  0
ARC
  5
3B02
  8
0
 10
218.1352097527768024
 20
-19.1312762298359011
 30
0.0
 40
0.049794519422638
 50
284.6424177464501213
 51
354.5318216171457948
  0
ARC
  5
3B03
  8
0
 10
218.8664550320523006
 20
-18.8523543783238807
 30
0.0
 40
0.7895967889347232
 50
175.6747721081351017
 51
204.4727870431952113
  0
ARC
  5
3B04
  8
0
 10
219.3334516828182927
 20
-18.7543508636148992
 30
0.0
 40
1.254933979109212
 50
162.6043857309323926
 51
181.7559404907229066
  0
ARC
  5
3B05
  8
0
 10
218.1515873014006957
 20
-18.3826297051720786
 30
0.0
 40
0.0160511115774834
 50
29.1660759213032783
 51
167.5382723508014919
  0
LINE
  5
3B06
  8
0
 10
211.8955480529037914
 20
-13.3150208446002694
 30
0.0
 11
211.8033435240191125
 21
-13.3150208446002694
 31
0.0
  0
LINE
  5
3B07
  8
0
 10
212.7418689110753007
 20
-13.3150208446002694
 30
0.0
 11
216.1420581266910119
 21
-13.3150208446002694
 31
0.0
  0
ARC
  5
3B08
  8
0
 10
215.1393029669322914
 20
-10.5958473429736308
 30
0.0
 40
1.117443635799539
 50
170.3652657301707052
 51
189.6342376970438011
  0
ARC
  5
3B09
  8
0
 10
214.8169106410574045
 20
-11.8079965928505199
 30
0.0
 40
1.1576438519417671
 50
103.7307812763593944
 51
117.6823487356952
  0
ARC
  5
3B0A
  8
0
 10
214.6054974288940969
 20
-11.0058247179979496
 30
0.0
 40
0.3285567150650623
 50
73.9520505012259122
 51
101.1196944012280028
  0
ARC
  5
3B0B
  8
0
 10
214.5617044797980952
 20
-11.0420983370140409
 30
0.0
 40
0.3768889390276996
 50
43.4590910593975366
 51
69.07247572688334
  0
ARC
  5
3B0C
  8
0
 10
216.499639345796794
 20
-10.3021812729417306
 30
0.0
 40
0.1082562774319965
 50
279.9023920644812051
 51
0.5886380839444016
  0
ARC
  5
3B0D
  8
0
 10
216.5102308947834047
 20
-10.8810206260131892
 30
0.0
 40
0.0988364429521303
 50
8.8527513813516396
 51
83.2940313627605917
  0
ARC
  5
3B0E
  8
0
 10
212.6644846803949918
 20
-14.7731567697704307
 30
0.0
 40
1.6484610742657591
 50
100.6477754982508941
 51
117.8045739178509024
  0
ARC
  5
3B0F
  8
0
 10
212.4107497973708121
 20
-13.5262449949355599
 30
0.0
 40
0.3766144873330726
 50
64.8082057043593949
 51
97.760123465363975
  0
ARC
  5
3B10
  8
0
 10
212.2521176153275917
 20
-13.7832879424801007
 30
0.0
 40
0.6775916223237304
 50
43.7153194747346276
 51
61.9206723155597487
  0
ARC
  5
3B11
  8
0
 10
216.7061092837278977
 20
-12.6608974605967006
 30
0.0
 40
4.9462096089907606
 50
172.4635444166092952
 51
187.5994806045038956
  0
LINE
  5
3B12
  8
0
 10
212.707617552451012
 20
-13.2816404428113692
 30
0.0
 11
212.6942368273743966
 21
-13.3052405007639702
 31
0.0
  0
LINE
  5
3B13
  8
0
 10
212.6942368273743966
 20
-13.3052405007639702
 30
0.0
 11
212.6876001946602912
 21
-13.3014776727703197
 31
0.0
  0
LINE
  5
3B14
  8
0
 10
212.6876001946602912
 20
-13.3014776727703197
 30
0.0
 11
212.672065773211699
 21
-13.3288762810390402
 31
0.0
  0
LINE
  5
3B15
  8
0
 10
212.672065773211699
 20
-13.3288762810390402
 30
0.0
 11
212.6095811132433084
 21
-13.2934488231002703
 31
0.0
  0
LINE
  5
3B16
  8
0
 10
212.6095811132433084
 20
-13.2934488231002703
 30
0.0
 11
212.6251155346836867
 21
-13.2660502148264694
 31
0.0
  0
LINE
  5
3B17
  8
0
 10
212.6251155346836867
 20
-13.2660502148264694
 30
0.0
 11
212.5646901900857983
 21
-13.2317903443254394
 31
0.0
  0
LINE
  5
3B18
  8
0
 10
212.5646901900857983
 20
-13.2317903443254394
 30
0.0
 11
212.5491557685433008
 21
-13.25918895270026
 31
0.0
  0
LINE
  5
3B19
  8
0
 10
212.5491557685433008
 20
-13.25918895270026
 30
0.0
 11
212.4528354435433073
 21
-13.2045774006002699
 31
0.0
  0
LINE
  5
3B1A
  8
0
 10
212.4528354435433073
 20
-13.2045774006002699
 30
0.0
 11
212.4683698649176051
 21
-13.1771787923456802
 31
0.0
  0
LINE
  5
3B1B
  8
0
 10
212.4683698649176051
 20
-13.1771787923456802
 30
0.0
 11
212.4199815727882026
 21
-13.1497436717084106
 31
0.0
  0
LINE
  5
3B1C
  8
0
 10
212.6192901266130093
 20
-13.2763246929830494
 30
0.0
 11
212.5588647819770927
 21
-13.2420648225193993
 31
0.0
  0
LINE
  5
3B1D
  8
0
 10
212.4625444569352908
 20
-13.1874532703829104
 30
0.0
 11
212.3963226703203873
 21
-13.1499069420174095
 31
0.0
  0
LINE
  5
3B1E
  8
0
 10
212.4975188694735948
 20
-13.1597622529195402
 30
0.0
 11
212.6991580278327092
 21
-13.2740873177449998
 31
0.0
  0
ARC
  5
3B1F
  8
0
 10
216.1594333325801074
 20
-11.5639856261587699
 30
0.0
 40
0.4485185349572168
 50
267.779857318203824
 51
359.0476446987818804
  0
ARC
  5
3B20
  8
0
 10
216.1720652765434068
 20
-13.7507488153578201
 30
0.0
 40
0.4367599953552941
 50
356.2495485702174278
 51
93.9395514966633556
  0
ENDSEC
  0
EOF
